  0
SECTION
  2
HEADER
  9
$ACADVER
  1
AC1014
  9
$ACADMAINTVER
 70
         0
  9
$DWGCODEPAGE
  3
ANSI_1252
  9
$INSBASE
 10
0.0
 20
0.0
 30
0.0
  9
$EXTMIN
 10
-36.19801
 20
-18.034
 30
0.0
  9
$EXTMAX
 10
18.0
 20
18.0
 30
0.0
  9
$LIMMIN
 10
0.0
 20
0.0
  9
$LIMMAX
 10
0.0
 20
0.0
  9
$ORTHOMODE
 70
         0
  9
$REGENMODE
 70
         1
  9
$FILLMODE
 70
         1
  9
$QTEXTMODE
 70
         0
  9
$MIRRTEXT
 70
         1
  9
$DRAGMODE
 70
         2
  9
$LTSCALE
 40
1.0
  9
$OSMODE
 70
         0
  9
$ATTMODE
 70
         1
  9
$TEXTSIZE
 40
0.2
  9
$TRACEWID
 40
0.05
  9
$TEXTSTYLE
  7
STANDARD
  9
$CLAYER
  8
0
  9
$CELTYPE
  6
CONTINUOUS
  9
$CECOLOR
 62
       256
  9
$CELTSCALE
 40
1.0
  9
$DELOBJ
 70
         1
  9
$DISPSILH
 70
         0
  9
$DIMSCALE
 40
1.0
  9
$DIMASZ
 40
0.18
  9
$DIMEXO
 40
0.0625
  9
$DIMDLI
 40
0.38
  9
$DIMRND
 40
0.0
  9
$DIMDLE
 40
0.0
  9
$DIMEXE
 40
0.18
  9
$DIMTP
 40
0.0
  9
$DIMTM
 40
0.0
  9
$DIMTXT
 40
0.18
  9
$DIMCEN
 40
0.09
  9
$DIMTSZ
 40
0.0
  9
$DIMTOL
 70
         0
  9
$DIMLIM
 70
         0
  9
$DIMTIH
 70
         1
  9
$DIMTOH
 70
         1
  9
$DIMSE1
 70
         0
  9
$DIMSE2
 70
         0
  9
$DIMTAD
 70
         0
  9
$DIMZIN
 70
         0
  9
$DIMBLK
  1

  9
$DIMASO
 70
         1
  9
$DIMSHO
 70
         1
  9
$DIMPOST
  1

  9
$DIMAPOST
  1

  9
$DIMALT
 70
         0
  9
$DIMALTD
 70
         2
  9
$DIMALTF
 40
25.4
  9
$DIMLFAC
 40
1.0
  9
$DIMTOFL
 70
         0
  9
$DIMTVP
 40
0.0
  9
$DIMTIX
 70
         0
  9
$DIMSOXD
 70
         0
  9
$DIMSAH
 70
         0
  9
$DIMBLK1
  1

  9
$DIMBLK2
  1

  9
$DIMSTYLE
  2
STANDARD
  9
$DIMCLRD
 70
         0
  9
$DIMCLRE
 70
         0
  9
$DIMCLRT
 70
         0
  9
$DIMTFAC
 40
1.0
  9
$DIMGAP
 40
0.09
  9
$DIMJUST
 70
         0
  9
$DIMSD1
 70
         0
  9
$DIMSD2
 70
         0
  9
$DIMTOLJ
 70
         1
  9
$DIMTZIN
 70
         0
  9
$DIMALTZ
 70
         0
  9
$DIMALTTZ
 70
         0
  9
$DIMFIT
 70
         3
  9
$DIMUPT
 70
         0
  9
$DIMUNIT
 70
         2
  9
$DIMDEC
 70
         4
  9
$DIMTDEC
 70
         4
  9
$DIMALTU
 70
         2
  9
$DIMALTTD
 70
         2
  9
$DIMTXSTY
  7
STANDARD
  9
$DIMAUNIT
 70
         0
  9
$LUNITS
 70
         2
  9
$LUPREC
 70
         4
  9
$SKETCHINC
 40
0.1
  9
$FILLETRAD
 40
0.0
  9
$AUNITS
 70
         0
  9
$AUPREC
 70
         0
  9
$MENU
  1
acad
  9
$ELEVATION
 40
0.0
  9
$PELEVATION
 40
0.0
  9
$THICKNESS
 40
0.0
  9
$LIMCHECK
 70
         0
  9
$BLIPMODE
 70
         1
  9
$CHAMFERA
 40
0.0
  9
$CHAMFERB
 40
0.0
  9
$CHAMFERC
 40
0.0
  9
$CHAMFERD
 40
0.0
  9
$SKPOLY
 70
         0
  9
$TDCREATE
 40
20231020.093759
  9
$TDUPDATE
 40
0.0
  9
$TDINDWG
 40
0.0
  9
$TDUSRTIMER
 40
0.0
  9
$USRTIMER
 70
         1
  9
$ANGBASE
 50
0.0
  9
$ANGDIR
 70
         0
  9
$PDMODE
 70
         0
  9
$PDSIZE
 40
0.0
  9
$PLINEWID
 40
0.0
  9
$COORDS
 70
         0
  9
$SPLFRAME
 70
         0
  9
$SPLINETYPE
 70
         6
  9
$SPLINESEGS
 70
         8
  9
$ATTDIA
 70
         0
  9
$ATTREQ
 70
         1
  9
$HANDLING
 70
         1
  9
$HANDSEED
  5
2CE
  9
$SURFTAB1
 70
         6
  9
$SURFTAB2
 70
         6
  9
$SURFTYPE
 70
         6
  9
$SURFU
 70
         6
  9
$SURFV
 70
         6
  9
$UCSNAME
  2

  9
$UCSORG
 10
0.0
 20
0.0
 30
0.0
  9
$UCSXDIR
 10
1.0
 20
0.0
 30
0.0
  9
$UCSYDIR
 10
0.0
 20
1.0
 30
0.0
  9
$PUCSNAME
  2

  9
$PUCSORG
 10
0.0
 20
0.0
 30
0.0
  9
$PUCSXDIR
 10
1.0
 20
0.0
 30
0.0
  9
$PUCSYDIR
 10
0.0
 20
1.0
 30
0.0
  9
$USERI1
 70
         -3
  9
$USERI2
 70
         0
  9
$USERI3
 70
         0
  9
$USERI4
 70
         0
  9
$USERI5
 70
         0
  9
$USERR1
 40
0.0
  9
$USERR2
 40
0.0
  9
$USERR3
 40
0.0
  9
$USERR4
 40
0.0
  9
$USERR5
 40
0.0
  9
$WORLDVIEW
 70
         1
  9
$SHADEDGE
 70
         3
  9
$SHADEDIF
 70
        70
  9
$TILEMODE
 70
         1
  9
$MAXACTVP
 70
         16
  9
$PINSBASE
 10
0.0
 20
0.0
 30
0.0
  9
$PLIMCHECK
 70
         0
  9
$PEXTMIN
 10
100000000000000000000.0
 20
100000000000000000000.0
 30
100000000000000000000.0
  9
$PEXTMAX
 10
-100000000000000000000.0
 20
-100000000000000000000.0
 30
-100000000000000000000.0
  9
$PLIMMIN
 10
0.0
 20
0.0
  9
$PLIMMAX
 10
12.0
 20
9.0
  9
$UNITMODE
 70
         0
  9
$VISRETAIN
 70
         0
  9
$PLINEGEN
 70
         1
  9
$PSLTSCALE
 70
         0
  9
$TREEDEPTH
 70
      3020
  9
$PICKSTYLE
 70
         1
  9
$CMLSTYLE
  2
STANDARD
  9
$CMLJUST
 70
         0
  9
$CMLSCALE
 40
1.0
  9
$PROXYGRAPHICS
 70
         0
  9
$MEASUREMENT
 70
         0
  0
ENDSEC
  0
SECTION
  2
CLASSES
  0
CLASS
  1
LWPOLYLINE
  2
AcDbPolyline
  3
"AutoCAD"
 90
        0
280
         0
281
         1
  0
CLASS
  1
IMAGE
  2
AcDbRasterImage
  3
ISM
 90
      127
280
         0
281
         1
  0
CLASS
  1
OLE2FRAME
  2
AcDbOle2Frame
  3
""
 90
        0
280
         0
281
         1
  0
CLASS
  1
HATCH
  2
AcDbHatch
  3
"ACAD_SEDONA"
 90
        0
280
         0
281
         1
  0
CLASS
  1
DICTIONARYVAR
  2
AcDbDictionaryVar
  3
"AutoCAD"
 90
        0
280
         0
281
         0
  0
CLASS
  1
RASTERVARIABLES
  2
AcDbRasterVariables
  3
ISM
 90
        0
280
         0
281
         0
  0
CLASS
  1
IMAGEDEF
  2
AcDbRasterImageDef
  3
ISM
 90
        0
280
         0
281
         0
  0
CLASS
  1
IMAGEDEF_REACTOR
  2
AcDbRasterImageDefReactor
  3
ISM
 90
        1
280
         0
281
         0
  0
CLASS
  1
IDBUFFER
  2
AcDbIdBuffer
  3
"Acad"
 90
        0
280
         0
281
         0
  0
CLASS
  1
SPATIAL_FILTER
  2
AcDbSpatialFilter
  3
"Acad"
 90
        0
280
         0
281
         0
  0
CLASS
  1
XRECORD
  2
AcDbXrecord
  3
"<Built In>"
 90
        0
280
         0
281
         0
  0
CLASS
  1
SORTENTSTABLE
  2
AcDbSortentsTable
  3
"AutoCAD"
 90
        0
280
         0
281
         0
  0
CLASS
  1
LAYER_INDEX
  2
AcDbLayerIndex
  3
"Acad"
 90
        0
280
         0
281
         0
  0
CLASS
  1
SPATIAL_INDEX
  2
AcDbSpatialIndex
  3
"Acad"
 90
        0
280
         0
281
         0
  0
CLASS
  1
OBJECT_PTR
  2
CAseDLPNTableRecord
  3
"ASE-LPNTableRecord"
 90
        1
280
         0
281
         0
  0
CLASS
  1
LAYOUT
  2
AcDbLayout
  3
"AutoCAD 2000"
 90
        0
280
         0
281
         0
  0
CLASS
  1
PLOTSETTINGS
  2
AcDbPlotSettings
  3
"AutoCAD 2000"
 90
        0
280
         0
281
         0
  0
CLASS
  1
ACDBDICTIONARYWDFLT
  2
AcDbDictionaryWithDefault
  3
"AutoCAD 2000"
 90
        0
280
         0
281
         0
  0
CLASS
  1
ACDBPLACEHOLDER
  2
AcDbPlaceHolder
  3
"AutoCAD 2000"
 90
        0
280
         0
281
         0
  0
CLASS
  1
VBA_PROJECT
  2
AcDbVbaProject
  3
"acadvba"
 90
        0
280
         0
281
         0
  0
CLASS
  1
WIPEOUT
  2
AcDbWipeout
  3
WipeOut|AutoCAD Express Tool|expresstools@autodesk.com
 90
      127
280
         0
281
         1
  0
CLASS
  1
WIPEOUTVARIABLES
  2
AcDbWipeoutVariables
  3
WipeOut|AutoCAD Express Tool|expresstools@autodesk.com
 90
        0
280
         0
281
         0
  0
CLASS
  1
RTEXT
  2
RText
  3
RText|AutoCAD Express Tool|expresstools@autodesk.com
 90
        0
280
         0
281
         1
  0
CLASS
  1
ARCALIGNEDTEXT
  2
AcDbArcAlignedText
  3
ATEXT|AutoCAD Express Tool|expresstools@autodesk.com
 90
        0
280
         0
281
         1
  0
ENDSEC
  0
SECTION
  2
TABLES
  0
TABLE
  2
VPORT
  5
7
100
AcDbSymbolTable
70
    1
  0
VPORT
  5
13
100
AcDbSymbolTableRecord
100
AcDbViewportTableRecord
  2
*ACTIVE
 70
         0
 10
0.0
 20
0.0
 11
1.0
 21
1.0
 12
6.591288
 22
4.579184
 13
0.0
 23
0.0
 14
1.0
 24
1.0
 15
0.0
 25
0.0
 16
0.0
 26
0.0
 36
1.0
 17
0.0
 27
0.0
 37
0.0
  40
9.158369
  41
0.688564
  42
50.0
  43
0.0
  44
0.0
  50
0.0
  51
0.0
 71
    0
 72
    100
 73
    1
 74
    1
 75
    0
 76
    0
 77
    0
 78
    0
  0
ENDTAB
  0
TABLE
  2
LTYPE
  5
4
100
AcDbSymbolTable
70
    3
  0
LTYPE
  5
10
100
AcDbSymbolTableRecord
100
AcDbLinetypeTableRecord
  2
BYBLOCK
 70
         64
  3

 72
       65
 73
       0
  40
0.0
  0
LTYPE
  5
11
100
AcDbSymbolTableRecord
100
AcDbLinetypeTableRecord
  2
BYLAYER
 70
         64
  3

 72
       65
 73
       0
  40
0.0
  0
LTYPE
  5
12
100
AcDbSymbolTableRecord
100
AcDbLinetypeTableRecord
  2
CONTINUOUS
 70
         64
  3
Solid Line
 72
       65
 73
       0
  40
0.0
  0
ENDTAB
  0
TABLE
  2
LAYER
  5
2
100
AcDbSymbolTable
 70
         8
  0
LAYER
  5
2C4
100
AcDbSymbolTableRecord
100
AcDbLayerTableRecord
  2
0
 70
         0
 62
         7
  6
CONTINUOUS
  0
LAYER
  5
2C5
100
AcDbSymbolTableRecord
100
AcDbLayerTableRecord
  2
ASSEMBLY_OUTLINES_TOP
 70
         0
 62
         104
  6
CONTINUOUS
  0
LAYER
  5
2C6
100
AcDbSymbolTableRecord
100
AcDbLayerTableRecord
  2
PART_PADS_SMD_TOP
 70
         0
 62
         255
  6
CONTINUOUS
  0
LAYER
  5
2C7
100
AcDbSymbolTableRecord
100
AcDbLayerTableRecord
  2
PIN_NUMBERS_TOP
 70
         0
 62
         8
  6
CONTINUOUS
  0
LAYER
  5
2C8
100
AcDbSymbolTableRecord
100
AcDbLayerTableRecord
  2
SOLDERMASK_PADS_TOP
 70
         0
 62
         81
  6
CONTINUOUS
  0
LAYER
  5
2C9
100
AcDbSymbolTableRecord
100
AcDbLayerTableRecord
  2
SOLDERMASK_TOP
 70
         0
 62
         81
  6
CONTINUOUS
  0
LAYER
  5
2CA
100
AcDbSymbolTableRecord
100
AcDbLayerTableRecord
  2
SOLDERPASTE_PADS_TOP
 70
         0
 62
         81
  6
CONTINUOUS
  0
LAYER
  5
2CB
100
AcDbSymbolTableRecord
100
AcDbLayerTableRecord
  2
SOLDERPASTE_TOP
 70
         0
 62
         81
  6
CONTINUOUS
  0
ENDTAB
  0
TABLE
  2
STYLE
  5
3
100
AcDbSymbolTable
 70
         2
  0
STYLE
  5
2CC
100
AcDbSymbolTableRecord
100
AcDbTextStyleTableRecord
  2
STANDARD
 70
         0
 40
0.0
 41
1.0
 50
0.0
 71
         0
 42
0.0
  3
txt
  4

  0
STYLE
  5
2CD
100
AcDbSymbolTableRecord
100
AcDbTextStyleTableRecord
  2
COURIER_NEW
 70
         0
 40
0.0
 41
1.0
 50
0.0
 71
         0
 42
0.0
  3
cour.ttf
  4

  0
ENDTAB
  0
TABLE
  2
VIEW
  5
5
100
AcDbSymbolTable
 70
         0
  0
ENDTAB
  0
TABLE
  2
UCS
  5
6
100
AcDbSymbolTable
 70
         0
  0
ENDTAB
  0
TABLE
  2
APPID
  5
8
100
AcDbSymbolTable
 70
         1
  0
APPID
  5
14
100
AcDbSymbolTableRecord
100
AcDbRegAppTableRecord
  2
ACAD
 70
         0
  0
ENDTAB
  0
TABLE
  2
DIMSTYLE
  5
9
100
AcDbSymbolTable
 70
         1
  0
DIMSTYLE
105
15
100
AcDbSymbolTableRecord
100
AcDbDimStyleTableRecord
  2
STANDARD
 70
         0
  3

  4

  5

  6

 7

 40
1.0
 41
0.18
 42
0.0625
 43
0.38
 44
0.18
 45
0.0
 46
0.0
 47
0.0
 48
0.0
 71
         0
 72
         0
 73
         1
 74
         1
 75
         0
 76
         0
 77
         0
 78
         0
140
0.18
141
0.09
142
0.0
143
25.4
144
1.0
145
0.0
146
1.0
147
0.09
170
         0
171
         2
172
         0
173
         0
174
         0
175
         0
176
         0
177
         0
178
         0
270
         2
271
         4
272
         4
273
         2
274
         2
275
         0
280
         0
281
         0
282
         0
283
         1
284
         0
285
         0
286
         0
287
         3
288
         0
340
17
  0
ENDTAB
  0
TABLE
  2
BLOCK_RECORD
  5
1
100
AcDbSymbolTable
 70
         0
  0
BLOCK_RECORD
  5
A
100
AcDbSymbolTableRecord
100
AcDbBlockTableRecord
  2
*MODEL_SPACE
  0
BLOCK_RECORD
  5
B
100
AcDbSymbolTableRecord
100
AcDbBlockTableRecord
  2
*PAPER_SPACE
  0
ENDTAB
  0
ENDSEC
  0
SECTION
  2
BLOCKS
  0
BLOCK
  5
C
100
AcDbEntity
  8
0
100
AcDbBlockBegin
  2
*MODEL_SPACE
 70
         0
 10
0.0
 20
0.0
 30
0.0
  3
*MODEL_SPACE
  1

  0
ENDBLK
  5
D
100
AcDbEntity
  8
0
100
AcDbBlockEnd
  0
BLOCK
  5
E
100
AcDbEntity
 67
        1
  8
0
100
AcDbBlockBegin
  2
*PAPER_SPACE
 70
         0
 10
0.0
 20
0.0
 30
0.0
  3
*PAPER_SPACE
  1

  0
ENDBLK
  5
F
100
AcDbEntity
 67
        1
  8
0
100
AcDbBlockEnd
  0
ENDSEC
  0
SECTION
  2
ENTITIES
  0
LWPOLYLINE
  5
1B
100
AcDbEntity
  8
ASSEMBLY_OUTLINES_TOP
100
AcDbPolyline
 90
        21
 70
         1
 43
0.0
 10
18.0
 20
18.0
 10
17.999999
 20
15.999998
 10
17.5
 20
16.0
 10
17.5
 20
-16.0
 10
17.999999
 20
-15.999998
 10
18.0
 20
-18.0
 10
15.999998
 20
-17.999999
 10
16.0
 20
-17.5
 10
-16.0
 20
-17.5
 10
-15.999998
 20
-17.999999
 10
-16.376001
 20
-17.999999
 10
-17.999999
 20
-16.376001
 10
-17.999999
 20
-15.999998
 10
-17.5
 20
-16.0
 10
-17.5
 20
16.0
 10
-18.0
 20
16.0
 10
-18.0
 20
18.0
 10
-16.0
 20
18.0
 10
-16.0
 20
17.5
 10
16.0
 20
17.5
 10
15.999998
 20
17.999999
  0
LWPOLYLINE
  5
1C
100
AcDbEntity
  8
ASSEMBLY_OUTLINES_TOP
100
AcDbPolyline
 90
        6
 70
         1
 43
0.0
 10
-18.034
 20
-16.751421
 10
-18.034
 20
-17.934
 10
-17.934
 20
-18.034
 10
-16.751421
 20
-18.034
 10
-16.680711
 20
-17.863289
 10
-17.863289
 20
-16.680711
  0
HATCH
  5
1D
100
AcDbEntity
  8
ASSEMBLY_OUTLINES_TOP
100
AcDbHatch
 10
0.0
 20
0.0
 30
0.0
 210
0.0
 220
0.0
 230
1.0
  2
SOLID
 70
         1
 71
        1
 91
        1
  92
     2
 72
     0
 73
     1
  93
     6
 10
-18.034
 20
-16.751421
 10
-18.034
 20
-17.934
 10
-17.934
 20
-18.034
 10
-16.751421
 20
-18.034
 10
-16.680711
 20
-17.863289
 10
-17.863289
 20
-16.680711
  97
     1
  330
    28
 75
     0
 76
     1
  98
     1
 10
0.0
 20
0.0
  0
CIRCLE
  5
1E
100
AcDbEntity
  8
ASSEMBLY_OUTLINES_TOP
100
AcDbCircle
 10
-5.860034
 20
13.480454
 30
0.0
 40
0.5
  0
CIRCLE
  5
1F
100
AcDbEntity
  8
ASSEMBLY_OUTLINES_TOP
100
AcDbCircle
 10
6.839966
 20
10.940454
 30
0.0
 40
0.5
  0
CIRCLE
  5
20
100
AcDbEntity
  8
ASSEMBLY_OUTLINES_TOP
100
AcDbCircle
 10
6.839966
 20
13.480454
 30
0.0
 40
0.5
  0
CIRCLE
  5
21
100
AcDbEntity
  8
ASSEMBLY_OUTLINES_TOP
100
AcDbCircle
 10
6.839966
 20
13.480454
 30
0.0
 40
0.5
  0
CIRCLE
  5
22
100
AcDbEntity
  8
ASSEMBLY_OUTLINES_TOP
100
AcDbCircle
 10
4.299966
 20
13.480454
 30
0.0
 40
0.5
  0
CIRCLE
  5
23
100
AcDbEntity
  8
ASSEMBLY_OUTLINES_TOP
100
AcDbCircle
 10
4.299966
 20
13.480454
 30
0.0
 40
0.5
  0
CIRCLE
  5
24
100
AcDbEntity
  8
ASSEMBLY_OUTLINES_TOP
100
AcDbCircle
 10
1.759966
 20
13.480454
 30
0.0
 40
0.5
  0
CIRCLE
  5
25
100
AcDbEntity
  8
ASSEMBLY_OUTLINES_TOP
100
AcDbCircle
 10
1.759966
 20
13.480454
 30
0.0
 40
0.5
  0
CIRCLE
  5
26
100
AcDbEntity
  8
ASSEMBLY_OUTLINES_TOP
100
AcDbCircle
 10
-0.780034
 20
13.480454
 30
0.0
 40
0.5
  0
CIRCLE
  5
27
100
AcDbEntity
  8
ASSEMBLY_OUTLINES_TOP
100
AcDbCircle
 10
-0.780034
 20
13.480454
 30
0.0
 40
0.5
  0
CIRCLE
  5
28
100
AcDbEntity
  8
ASSEMBLY_OUTLINES_TOP
100
AcDbCircle
 10
1.759966
 20
5.860454
 30
0.0
 40
0.5
  0
CIRCLE
  5
29
100
AcDbEntity
  8
ASSEMBLY_OUTLINES_TOP
100
AcDbCircle
 10
6.839966
 20
3.320454
 30
0.0
 40
0.5
  0
CIRCLE
  5
2A
100
AcDbEntity
  8
ASSEMBLY_OUTLINES_TOP
100
AcDbCircle
 10
6.839966
 20
3.320454
 30
0.0
 40
0.5
  0
CIRCLE
  5
2B
100
AcDbEntity
  8
ASSEMBLY_OUTLINES_TOP
100
AcDbCircle
 10
14.459966
 20
-8.399546
 30
0.0
 40
0.5
  0
CIRCLE
  5
2C
100
AcDbEntity
  8
ASSEMBLY_OUTLINES_TOP
100
AcDbCircle
 10
14.459966
 20
-8.399546
 30
0.0
 40
0.5
  0
CIRCLE
  5
2D
100
AcDbEntity
  8
ASSEMBLY_OUTLINES_TOP
100
AcDbCircle
 10
6.839966
 20
-13.479546
 30
0.0
 40
0.5
  0
CIRCLE
  5
2E
100
AcDbEntity
  8
ASSEMBLY_OUTLINES_TOP
100
AcDbCircle
 10
6.839966
 20
-13.479546
 30
0.0
 40
0.5
  0
CIRCLE
  5
2F
100
AcDbEntity
  8
ASSEMBLY_OUTLINES_TOP
100
AcDbCircle
 10
4.299966
 20
-13.479546
 30
0.0
 40
0.5
  0
CIRCLE
  5
30
100
AcDbEntity
  8
ASSEMBLY_OUTLINES_TOP
100
AcDbCircle
 10
4.299966
 20
-13.479546
 30
0.0
 40
0.5
  0
CIRCLE
  5
31
100
AcDbEntity
  8
ASSEMBLY_OUTLINES_TOP
100
AcDbCircle
 10
1.759966
 20
-13.479546
 30
0.0
 40
0.5
  0
CIRCLE
  5
32
100
AcDbEntity
  8
ASSEMBLY_OUTLINES_TOP
100
AcDbCircle
 10
1.759966
 20
-13.479546
 30
0.0
 40
0.5
  0
CIRCLE
  5
33
100
AcDbEntity
  8
ASSEMBLY_OUTLINES_TOP
100
AcDbCircle
 10
-0.780034
 20
-13.479546
 30
0.0
 40
0.5
  0
CIRCLE
  5
34
100
AcDbEntity
  8
ASSEMBLY_OUTLINES_TOP
100
AcDbCircle
 10
-0.780034
 20
-13.479546
 30
0.0
 40
0.5
  0
CIRCLE
  5
35
100
AcDbEntity
  8
ASSEMBLY_OUTLINES_TOP
100
AcDbCircle
 10
-10.940034
 20
-5.859546
 30
0.0
 40
0.5
  0
LWPOLYLINE
  5
36
100
AcDbEntity
  8
PART_PADS_SMD_TOP
100
AcDbPolyline
 90
        4
 70
         1
 43
0.0
 10
10.6
 20
-0.75
 10
10.6
 20
0.75
 10
11.4
 20
0.75
 10
11.4
 20
-0.75
  0
LWPOLYLINE
  5
37
100
AcDbEntity
  8
PART_PADS_SMD_TOP
100
AcDbPolyline
 90
        4
 70
         1
 43
0.0
 10
8.6
 20
-0.75
 10
8.6
 20
0.75
 10
9.4
 20
0.75
 10
9.4
 20
-0.75
  0
LWPOLYLINE
  5
38
100
AcDbEntity
  8
PART_PADS_SMD_TOP
100
AcDbPolyline
 90
        4
 70
         1
 43
0.0
 10
6.6
 20
-0.75
 10
6.6
 20
0.75
 10
7.4
 20
0.75
 10
7.4
 20
-0.75
  0
LWPOLYLINE
  5
39
100
AcDbEntity
  8
PART_PADS_SMD_TOP
100
AcDbPolyline
 90
        4
 70
         1
 43
0.0
 10
-11.4
 20
-0.75
 10
-11.4
 20
0.75
 10
-10.6
 20
0.75
 10
-10.6
 20
-0.75
  0
LWPOLYLINE
  5
3A
100
AcDbEntity
  8
PART_PADS_SMD_TOP
100
AcDbPolyline
 90
        4
 70
         1
 43
0.0
 10
-9.4
 20
-0.75
 10
-9.4
 20
0.75
 10
-8.6
 20
0.75
 10
-8.6
 20
-0.75
  0
LWPOLYLINE
  5
3B
100
AcDbEntity
  8
PART_PADS_SMD_TOP
100
AcDbPolyline
 90
        4
 70
         1
 43
0.0
 10
-7.4
 20
-0.75
 10
-7.4
 20
0.75
 10
-6.6
 20
0.75
 10
-6.6
 20
-0.75
  0
LWPOLYLINE
  5
3C
100
AcDbEntity
  8
PART_PADS_SMD_TOP
100
AcDbPolyline
 90
        4
 70
         1
 43
0.0
 10
-13.75
 20
13.6
 10
-13.75
 20
14.4
 10
-12.25
 20
14.4
 10
-12.25
 20
13.6
  0
LWPOLYLINE
  5
3D
100
AcDbEntity
  8
PART_PADS_SMD_TOP
100
AcDbPolyline
 90
        4
 70
         1
 43
0.0
 10
-10.75
 20
13.6
 10
-10.75
 20
14.4
 10
-9.25
 20
14.4
 10
-9.25
 20
13.6
  0
LWPOLYLINE
  5
3E
100
AcDbEntity
  8
PART_PADS_SMD_TOP
100
AcDbPolyline
 90
        4
 70
         1
 43
0.0
 10
-10.75
 20
11.6
 10
-10.75
 20
12.4
 10
-9.25
 20
12.4
 10
-9.25
 20
11.6
  0
LWPOLYLINE
  5
3F
100
AcDbEntity
  8
PART_PADS_SMD_TOP
100
AcDbPolyline
 90
        4
 70
         1
 43
0.0
 10
-10.75
 20
9.6
 10
-10.75
 20
10.4
 10
-9.25
 20
10.4
 10
-9.25
 20
9.6
  0
LWPOLYLINE
  5
40
100
AcDbEntity
  8
PART_PADS_SMD_TOP
100
AcDbPolyline
 90
        4
 70
         1
 43
0.0
 10
-13.75
 20
11.6
 10
-13.75
 20
12.4
 10
-12.25
 20
12.4
 10
-12.25
 20
11.6
  0
LWPOLYLINE
  5
41
100
AcDbEntity
  8
PART_PADS_SMD_TOP
100
AcDbPolyline
 90
        4
 70
         1
 43
0.0
 10
-13.75
 20
9.6
 10
-13.75
 20
10.4
 10
-12.25
 20
10.4
 10
-12.25
 20
9.6
  0
LWPOLYLINE
  5
42
100
AcDbEntity
  8
PART_PADS_SMD_TOP
100
AcDbPolyline
 90
        4
 70
         1
 43
0.0
 10
-0.75
 20
10.6
 10
-0.75
 20
11.4
 10
0.75
 20
11.4
 10
0.75
 20
10.6
  0
LWPOLYLINE
  5
43
100
AcDbEntity
  8
PART_PADS_SMD_TOP
100
AcDbPolyline
 90
        4
 70
         1
 43
0.0
 10
-0.75
 20
8.6
 10
-0.75
 20
9.4
 10
0.75
 20
9.4
 10
0.75
 20
8.6
  0
LWPOLYLINE
  5
44
100
AcDbEntity
  8
PART_PADS_SMD_TOP
100
AcDbPolyline
 90
        4
 70
         1
 43
0.0
 10
-0.75
 20
6.6
 10
-0.75
 20
7.4
 10
0.75
 20
7.4
 10
0.75
 20
6.6
  0
LWPOLYLINE
  5
45
100
AcDbEntity
  8
PART_PADS_SMD_TOP
100
AcDbPolyline
 90
        4
 70
         1
 43
0.0
 10
9.25
 20
9.6
 10
9.25
 20
10.4
 10
10.75
 20
10.4
 10
10.75
 20
9.6
  0
LWPOLYLINE
  5
46
100
AcDbEntity
  8
PART_PADS_SMD_TOP
100
AcDbPolyline
 90
        4
 70
         1
 43
0.0
 10
12.25
 20
9.6
 10
12.25
 20
10.4
 10
13.75
 20
10.4
 10
13.75
 20
9.6
  0
LWPOLYLINE
  5
47
100
AcDbEntity
  8
PART_PADS_SMD_TOP
100
AcDbPolyline
 90
        4
 70
         1
 43
0.0
 10
9.25
 20
11.6
 10
9.25
 20
12.4
 10
10.75
 20
12.4
 10
10.75
 20
11.6
  0
LWPOLYLINE
  5
48
100
AcDbEntity
  8
PART_PADS_SMD_TOP
100
AcDbPolyline
 90
        4
 70
         1
 43
0.0
 10
9.25
 20
13.6
 10
9.25
 20
14.4
 10
10.75
 20
14.4
 10
10.75
 20
13.6
  0
LWPOLYLINE
  5
49
100
AcDbEntity
  8
PART_PADS_SMD_TOP
100
AcDbPolyline
 90
        4
 70
         1
 43
0.0
 10
12.25
 20
11.6
 10
12.25
 20
12.4
 10
13.75
 20
12.4
 10
13.75
 20
11.6
  0
LWPOLYLINE
  5
4A
100
AcDbEntity
  8
PART_PADS_SMD_TOP
100
AcDbPolyline
 90
        4
 70
         1
 43
0.0
 10
12.25
 20
13.6
 10
12.25
 20
14.4
 10
13.75
 20
14.4
 10
13.75
 20
13.6
  0
LWPOLYLINE
  5
4B
100
AcDbEntity
  8
PART_PADS_SMD_TOP
100
AcDbPolyline
 90
        4
 70
         1
 43
0.0
 10
-10.75
 20
-14.4
 10
-10.75
 20
-13.6
 10
-9.25
 20
-13.6
 10
-9.25
 20
-14.4
  0
LWPOLYLINE
  5
4C
100
AcDbEntity
  8
PART_PADS_SMD_TOP
100
AcDbPolyline
 90
        4
 70
         1
 43
0.0
 10
-13.75
 20
-12.4
 10
-13.75
 20
-11.6
 10
-12.25
 20
-11.6
 10
-12.25
 20
-12.4
  0
LWPOLYLINE
  5
4D
100
AcDbEntity
  8
PART_PADS_SMD_TOP
100
AcDbPolyline
 90
        4
 70
         1
 43
0.0
 10
-10.75
 20
-12.4
 10
-10.75
 20
-11.6
 10
-9.25
 20
-11.6
 10
-9.25
 20
-12.4
  0
LWPOLYLINE
  5
4E
100
AcDbEntity
  8
PART_PADS_SMD_TOP
100
AcDbPolyline
 90
        4
 70
         1
 43
0.0
 10
-13.75
 20
-10.4
 10
-13.75
 20
-9.6
 10
-12.25
 20
-9.6
 10
-12.25
 20
-10.4
  0
LWPOLYLINE
  5
4F
100
AcDbEntity
  8
PART_PADS_SMD_TOP
100
AcDbPolyline
 90
        4
 70
         1
 43
0.0
 10
-10.75
 20
-10.4
 10
-10.75
 20
-9.6
 10
-9.25
 20
-9.6
 10
-9.25
 20
-10.4
  0
LWPOLYLINE
  5
50
100
AcDbEntity
  8
PART_PADS_SMD_TOP
100
AcDbPolyline
 90
        4
 70
         1
 43
0.0
 10
-0.75
 20
-11.4
 10
-0.75
 20
-10.6
 10
0.75
 20
-10.6
 10
0.75
 20
-11.4
  0
LWPOLYLINE
  5
51
100
AcDbEntity
  8
PART_PADS_SMD_TOP
100
AcDbPolyline
 90
        4
 70
         1
 43
0.0
 10
-0.75
 20
-9.4
 10
-0.75
 20
-8.6
 10
0.75
 20
-8.6
 10
0.75
 20
-9.4
  0
LWPOLYLINE
  5
52
100
AcDbEntity
  8
PART_PADS_SMD_TOP
100
AcDbPolyline
 90
        4
 70
         1
 43
0.0
 10
-0.75
 20
-7.4
 10
-0.75
 20
-6.6
 10
0.75
 20
-6.6
 10
0.75
 20
-7.4
  0
LWPOLYLINE
  5
53
100
AcDbEntity
  8
PART_PADS_SMD_TOP
100
AcDbPolyline
 90
        4
 70
         1
 43
0.0
 10
9.25
 20
-14.4
 10
9.25
 20
-13.6
 10
10.75
 20
-13.6
 10
10.75
 20
-14.4
  0
LWPOLYLINE
  5
54
100
AcDbEntity
  8
PART_PADS_SMD_TOP
100
AcDbPolyline
 90
        4
 70
         1
 43
0.0
 10
12.25
 20
-14.4
 10
12.25
 20
-13.6
 10
13.75
 20
-13.6
 10
13.75
 20
-14.4
  0
LWPOLYLINE
  5
55
100
AcDbEntity
  8
PART_PADS_SMD_TOP
100
AcDbPolyline
 90
        4
 70
         1
 43
0.0
 10
9.25
 20
-12.4
 10
9.25
 20
-11.6
 10
10.75
 20
-11.6
 10
10.75
 20
-12.4
  0
LWPOLYLINE
  5
56
100
AcDbEntity
  8
PART_PADS_SMD_TOP
100
AcDbPolyline
 90
        4
 70
         1
 43
0.0
 10
12.25
 20
-12.4
 10
12.25
 20
-11.6
 10
13.75
 20
-11.6
 10
13.75
 20
-12.4
  0
LWPOLYLINE
  5
57
100
AcDbEntity
  8
PART_PADS_SMD_TOP
100
AcDbPolyline
 90
        4
 70
         1
 43
0.0
 10
9.25
 20
-10.4
 10
9.25
 20
-9.6
 10
10.75
 20
-9.6
 10
10.75
 20
-10.4
  0
LWPOLYLINE
  5
58
100
AcDbEntity
  8
PART_PADS_SMD_TOP
100
AcDbPolyline
 90
        4
 70
         1
 43
0.0
 10
12.25
 20
-10.4
 10
12.25
 20
-9.6
 10
13.75
 20
-9.6
 10
13.75
 20
-10.4
  0
LWPOLYLINE
  5
59
100
AcDbEntity
  8
PART_PADS_SMD_TOP
100
AcDbPolyline
 90
        4
 70
         1
 43
0.0
 10
-14.6
 20
16.0
 10
-15.4
 20
16.0
 10
-15.4
 20
17.5
 42
-1.000000
 10
-14.6
 20
17.5
  0
LWPOLYLINE
  5
5A
100
AcDbEntity
  8
PART_PADS_SMD_TOP
100
AcDbPolyline
 90
        4
 70
         1
 43
0.0
 10
-13.6
 20
16.0
 10
-14.4
 20
16.0
 10
-14.4
 20
17.5
 42
-1.000000
 10
-13.6
 20
17.5
  0
LWPOLYLINE
  5
5B
100
AcDbEntity
  8
PART_PADS_SMD_TOP
100
AcDbPolyline
 90
        4
 70
         1
 43
0.0
 10
-12.6
 20
16.0
 10
-13.4
 20
16.0
 10
-13.4
 20
17.5
 42
-1.000000
 10
-12.6
 20
17.5
  0
LWPOLYLINE
  5
5C
100
AcDbEntity
  8
PART_PADS_SMD_TOP
100
AcDbPolyline
 90
        4
 70
         1
 43
0.0
 10
-11.6
 20
16.0
 10
-12.4
 20
16.0
 10
-12.4
 20
17.5
 42
-1.000000
 10
-11.6
 20
17.5
  0
LWPOLYLINE
  5
5D
100
AcDbEntity
  8
PART_PADS_SMD_TOP
100
AcDbPolyline
 90
        4
 70
         1
 43
0.0
 10
-10.6
 20
16.0
 10
-11.4
 20
16.0
 10
-11.4
 20
17.5
 42
-1.000000
 10
-10.6
 20
17.5
  0
LWPOLYLINE
  5
5E
100
AcDbEntity
  8
PART_PADS_SMD_TOP
100
AcDbPolyline
 90
        4
 70
         1
 43
0.0
 10
-9.6
 20
16.0
 10
-10.4
 20
16.0
 10
-10.4
 20
17.5
 42
-1.000000
 10
-9.6
 20
17.5
  0
LWPOLYLINE
  5
5F
100
AcDbEntity
  8
PART_PADS_SMD_TOP
100
AcDbPolyline
 90
        4
 70
         1
 43
0.0
 10
-8.6
 20
16.0
 10
-9.4
 20
16.0
 10
-9.4
 20
17.5
 42
-1.000000
 10
-8.6
 20
17.5
  0
LWPOLYLINE
  5
60
100
AcDbEntity
  8
PART_PADS_SMD_TOP
100
AcDbPolyline
 90
        4
 70
         1
 43
0.0
 10
-7.6
 20
16.0
 10
-8.4
 20
16.0
 10
-8.4
 20
17.5
 42
-1.000000
 10
-7.6
 20
17.5
  0
LWPOLYLINE
  5
61
100
AcDbEntity
  8
PART_PADS_SMD_TOP
100
AcDbPolyline
 90
        4
 70
         1
 43
0.0
 10
-6.6
 20
16.0
 10
-7.4
 20
16.0
 10
-7.4
 20
17.5
 42
-1.000000
 10
-6.6
 20
17.5
  0
LWPOLYLINE
  5
62
100
AcDbEntity
  8
PART_PADS_SMD_TOP
100
AcDbPolyline
 90
        4
 70
         1
 43
0.0
 10
-5.6
 20
16.0
 10
-6.4
 20
16.0
 10
-6.4
 20
17.5
 42
-1.000000
 10
-5.6
 20
17.5
  0
LWPOLYLINE
  5
63
100
AcDbEntity
  8
PART_PADS_SMD_TOP
100
AcDbPolyline
 90
        4
 70
         1
 43
0.0
 10
-4.6
 20
16.0
 10
-5.4
 20
16.0
 10
-5.4
 20
17.5
 42
-1.000000
 10
-4.6
 20
17.5
  0
LWPOLYLINE
  5
64
100
AcDbEntity
  8
PART_PADS_SMD_TOP
100
AcDbPolyline
 90
        4
 70
         1
 43
0.0
 10
-3.6
 20
16.0
 10
-4.4
 20
16.0
 10
-4.4
 20
17.5
 42
-1.000000
 10
-3.6
 20
17.5
  0
LWPOLYLINE
  5
65
100
AcDbEntity
  8
PART_PADS_SMD_TOP
100
AcDbPolyline
 90
        4
 70
         1
 43
0.0
 10
-2.6
 20
16.0
 10
-3.4
 20
16.0
 10
-3.4
 20
17.5
 42
-1.000000
 10
-2.6
 20
17.5
  0
LWPOLYLINE
  5
66
100
AcDbEntity
  8
PART_PADS_SMD_TOP
100
AcDbPolyline
 90
        4
 70
         1
 43
0.0
 10
-1.6
 20
16.0
 10
-2.4
 20
16.0
 10
-2.4
 20
17.5
 42
-1.000000
 10
-1.6
 20
17.5
  0
LWPOLYLINE
  5
67
100
AcDbEntity
  8
PART_PADS_SMD_TOP
100
AcDbPolyline
 90
        4
 70
         1
 43
0.0
 10
-0.6
 20
16.0
 10
-1.4
 20
16.0
 10
-1.4
 20
17.5
 42
-1.000000
 10
-0.6
 20
17.5
  0
LWPOLYLINE
  5
68
100
AcDbEntity
  8
PART_PADS_SMD_TOP
100
AcDbPolyline
 90
        4
 70
         1
 43
0.0
 10
0.4
 20
16.0
 10
-0.4
 20
16.0
 10
-0.4
 20
17.5
 42
-1.000000
 10
0.4
 20
17.5
  0
LWPOLYLINE
  5
69
100
AcDbEntity
  8
PART_PADS_SMD_TOP
100
AcDbPolyline
 90
        4
 70
         1
 43
0.0
 10
1.4
 20
16.0
 10
0.6
 20
16.0
 10
0.6
 20
17.5
 42
-1.000000
 10
1.4
 20
17.5
  0
LWPOLYLINE
  5
6A
100
AcDbEntity
  8
PART_PADS_SMD_TOP
100
AcDbPolyline
 90
        4
 70
         1
 43
0.0
 10
2.4
 20
16.0
 10
1.6
 20
16.0
 10
1.6
 20
17.5
 42
-1.000000
 10
2.4
 20
17.5
  0
LWPOLYLINE
  5
6B
100
AcDbEntity
  8
PART_PADS_SMD_TOP
100
AcDbPolyline
 90
        4
 70
         1
 43
0.0
 10
3.4
 20
16.0
 10
2.6
 20
16.0
 10
2.6
 20
17.5
 42
-1.000000
 10
3.4
 20
17.5
  0
LWPOLYLINE
  5
6C
100
AcDbEntity
  8
PART_PADS_SMD_TOP
100
AcDbPolyline
 90
        4
 70
         1
 43
0.0
 10
4.4
 20
16.0
 10
3.6
 20
16.0
 10
3.6
 20
17.5
 42
-1.000000
 10
4.4
 20
17.5
  0
LWPOLYLINE
  5
6D
100
AcDbEntity
  8
PART_PADS_SMD_TOP
100
AcDbPolyline
 90
        4
 70
         1
 43
0.0
 10
5.4
 20
16.0
 10
4.6
 20
16.0
 10
4.6
 20
17.5
 42
-1.000000
 10
5.4
 20
17.5
  0
LWPOLYLINE
  5
6E
100
AcDbEntity
  8
PART_PADS_SMD_TOP
100
AcDbPolyline
 90
        4
 70
         1
 43
0.0
 10
6.4
 20
16.0
 10
5.6
 20
16.0
 10
5.6
 20
17.5
 42
-1.000000
 10
6.4
 20
17.5
  0
LWPOLYLINE
  5
6F
100
AcDbEntity
  8
PART_PADS_SMD_TOP
100
AcDbPolyline
 90
        4
 70
         1
 43
0.0
 10
7.4
 20
16.0
 10
6.6
 20
16.0
 10
6.6
 20
17.5
 42
-1.000000
 10
7.4
 20
17.5
  0
LWPOLYLINE
  5
70
100
AcDbEntity
  8
PART_PADS_SMD_TOP
100
AcDbPolyline
 90
        4
 70
         1
 43
0.0
 10
8.4
 20
16.0
 10
7.6
 20
16.0
 10
7.6
 20
17.5
 42
-1.000000
 10
8.4
 20
17.5
  0
LWPOLYLINE
  5
71
100
AcDbEntity
  8
PART_PADS_SMD_TOP
100
AcDbPolyline
 90
        4
 70
         1
 43
0.0
 10
9.4
 20
16.0
 10
8.6
 20
16.0
 10
8.6
 20
17.5
 42
-1.000000
 10
9.4
 20
17.5
  0
LWPOLYLINE
  5
72
100
AcDbEntity
  8
PART_PADS_SMD_TOP
100
AcDbPolyline
 90
        4
 70
         1
 43
0.0
 10
10.4
 20
16.0
 10
9.6
 20
16.0
 10
9.6
 20
17.5
 42
-1.000000
 10
10.4
 20
17.5
  0
LWPOLYLINE
  5
73
100
AcDbEntity
  8
PART_PADS_SMD_TOP
100
AcDbPolyline
 90
        4
 70
         1
 43
0.0
 10
11.4
 20
16.0
 10
10.6
 20
16.0
 10
10.6
 20
17.5
 42
-1.000000
 10
11.4
 20
17.5
  0
LWPOLYLINE
  5
74
100
AcDbEntity
  8
PART_PADS_SMD_TOP
100
AcDbPolyline
 90
        4
 70
         1
 43
0.0
 10
12.4
 20
16.0
 10
11.6
 20
16.0
 10
11.6
 20
17.5
 42
-1.000000
 10
12.4
 20
17.5
  0
LWPOLYLINE
  5
75
100
AcDbEntity
  8
PART_PADS_SMD_TOP
100
AcDbPolyline
 90
        4
 70
         1
 43
0.0
 10
13.4
 20
16.0
 10
12.6
 20
16.0
 10
12.6
 20
17.5
 42
-1.000000
 10
13.4
 20
17.5
  0
LWPOLYLINE
  5
76
100
AcDbEntity
  8
PART_PADS_SMD_TOP
100
AcDbPolyline
 90
        4
 70
         1
 43
0.0
 10
14.4
 20
16.0
 10
13.6
 20
16.0
 10
13.6
 20
17.5
 42
-1.000000
 10
14.4
 20
17.5
  0
LWPOLYLINE
  5
77
100
AcDbEntity
  8
PART_PADS_SMD_TOP
100
AcDbPolyline
 90
        4
 70
         1
 43
0.0
 10
15.4
 20
16.0
 10
14.6
 20
16.0
 10
14.6
 20
17.5
 42
-1.000000
 10
15.4
 20
17.5
  0
LWPOLYLINE
  5
78
100
AcDbEntity
  8
PART_PADS_SMD_TOP
100
AcDbPolyline
 90
        4
 70
         1
 43
0.0
 10
14.6
 20
-16.0
 10
15.4
 20
-16.0
 10
15.4
 20
-17.5
 42
-1.000000
 10
14.6
 20
-17.5
  0
LWPOLYLINE
  5
79
100
AcDbEntity
  8
PART_PADS_SMD_TOP
100
AcDbPolyline
 90
        4
 70
         1
 43
0.0
 10
13.6
 20
-16.0
 10
14.4
 20
-16.0
 10
14.4
 20
-17.5
 42
-1.000000
 10
13.6
 20
-17.5
  0
LWPOLYLINE
  5
7A
100
AcDbEntity
  8
PART_PADS_SMD_TOP
100
AcDbPolyline
 90
        4
 70
         1
 43
0.0
 10
12.6
 20
-16.0
 10
13.4
 20
-16.0
 10
13.4
 20
-17.5
 42
-1.000000
 10
12.6
 20
-17.5
  0
LWPOLYLINE
  5
7B
100
AcDbEntity
  8
PART_PADS_SMD_TOP
100
AcDbPolyline
 90
        4
 70
         1
 43
0.0
 10
11.6
 20
-16.0
 10
12.4
 20
-16.0
 10
12.4
 20
-17.5
 42
-1.000000
 10
11.6
 20
-17.5
  0
LWPOLYLINE
  5
7C
100
AcDbEntity
  8
PART_PADS_SMD_TOP
100
AcDbPolyline
 90
        4
 70
         1
 43
0.0
 10
10.6
 20
-16.0
 10
11.4
 20
-16.0
 10
11.4
 20
-17.5
 42
-1.000000
 10
10.6
 20
-17.5
  0
LWPOLYLINE
  5
7D
100
AcDbEntity
  8
PART_PADS_SMD_TOP
100
AcDbPolyline
 90
        4
 70
         1
 43
0.0
 10
9.6
 20
-16.0
 10
10.4
 20
-16.0
 10
10.4
 20
-17.5
 42
-1.000000
 10
9.6
 20
-17.5
  0
LWPOLYLINE
  5
7E
100
AcDbEntity
  8
PART_PADS_SMD_TOP
100
AcDbPolyline
 90
        4
 70
         1
 43
0.0
 10
8.6
 20
-16.0
 10
9.4
 20
-16.0
 10
9.4
 20
-17.5
 42
-1.000000
 10
8.6
 20
-17.5
  0
LWPOLYLINE
  5
7F
100
AcDbEntity
  8
PART_PADS_SMD_TOP
100
AcDbPolyline
 90
        4
 70
         1
 43
0.0
 10
7.6
 20
-16.0
 10
8.4
 20
-16.0
 10
8.4
 20
-17.5
 42
-1.000000
 10
7.6
 20
-17.5
  0
LWPOLYLINE
  5
80
100
AcDbEntity
  8
PART_PADS_SMD_TOP
100
AcDbPolyline
 90
        4
 70
         1
 43
0.0
 10
6.6
 20
-16.0
 10
7.4
 20
-16.0
 10
7.4
 20
-17.5
 42
-1.000000
 10
6.6
 20
-17.5
  0
LWPOLYLINE
  5
81
100
AcDbEntity
  8
PART_PADS_SMD_TOP
100
AcDbPolyline
 90
        4
 70
         1
 43
0.0
 10
5.6
 20
-16.0
 10
6.4
 20
-16.0
 10
6.4
 20
-17.5
 42
-1.000000
 10
5.6
 20
-17.5
  0
LWPOLYLINE
  5
82
100
AcDbEntity
  8
PART_PADS_SMD_TOP
100
AcDbPolyline
 90
        4
 70
         1
 43
0.0
 10
4.6
 20
-16.0
 10
5.4
 20
-16.0
 10
5.4
 20
-17.5
 42
-1.000000
 10
4.6
 20
-17.5
  0
LWPOLYLINE
  5
83
100
AcDbEntity
  8
PART_PADS_SMD_TOP
100
AcDbPolyline
 90
        4
 70
         1
 43
0.0
 10
3.6
 20
-16.0
 10
4.4
 20
-16.0
 10
4.4
 20
-17.5
 42
-1.000000
 10
3.6
 20
-17.5
  0
LWPOLYLINE
  5
84
100
AcDbEntity
  8
PART_PADS_SMD_TOP
100
AcDbPolyline
 90
        4
 70
         1
 43
0.0
 10
2.6
 20
-16.0
 10
3.4
 20
-16.0
 10
3.4
 20
-17.5
 42
-1.000000
 10
2.6
 20
-17.5
  0
LWPOLYLINE
  5
85
100
AcDbEntity
  8
PART_PADS_SMD_TOP
100
AcDbPolyline
 90
        4
 70
         1
 43
0.0
 10
1.6
 20
-16.0
 10
2.4
 20
-16.0
 10
2.4
 20
-17.5
 42
-1.000000
 10
1.6
 20
-17.5
  0
LWPOLYLINE
  5
86
100
AcDbEntity
  8
PART_PADS_SMD_TOP
100
AcDbPolyline
 90
        4
 70
         1
 43
0.0
 10
0.6
 20
-16.0
 10
1.4
 20
-16.0
 10
1.4
 20
-17.5
 42
-1.000000
 10
0.6
 20
-17.5
  0
LWPOLYLINE
  5
87
100
AcDbEntity
  8
PART_PADS_SMD_TOP
100
AcDbPolyline
 90
        4
 70
         1
 43
0.0
 10
-0.4
 20
-16.0
 10
0.4
 20
-16.0
 10
0.4
 20
-17.5
 42
-1.000000
 10
-0.4
 20
-17.5
  0
LWPOLYLINE
  5
88
100
AcDbEntity
  8
PART_PADS_SMD_TOP
100
AcDbPolyline
 90
        4
 70
         1
 43
0.0
 10
-1.4
 20
-16.0
 10
-0.6
 20
-16.0
 10
-0.6
 20
-17.5
 42
-1.000000
 10
-1.4
 20
-17.5
  0
LWPOLYLINE
  5
89
100
AcDbEntity
  8
PART_PADS_SMD_TOP
100
AcDbPolyline
 90
        4
 70
         1
 43
0.0
 10
-2.4
 20
-16.0
 10
-1.6
 20
-16.0
 10
-1.6
 20
-17.5
 42
-1.000000
 10
-2.4
 20
-17.5
  0
LWPOLYLINE
  5
8A
100
AcDbEntity
  8
PART_PADS_SMD_TOP
100
AcDbPolyline
 90
        4
 70
         1
 43
0.0
 10
-3.4
 20
-16.0
 10
-2.6
 20
-16.0
 10
-2.6
 20
-17.5
 42
-1.000000
 10
-3.4
 20
-17.5
  0
LWPOLYLINE
  5
8B
100
AcDbEntity
  8
PART_PADS_SMD_TOP
100
AcDbPolyline
 90
        4
 70
         1
 43
0.0
 10
-4.4
 20
-16.0
 10
-3.6
 20
-16.0
 10
-3.6
 20
-17.5
 42
-1.000000
 10
-4.4
 20
-17.5
  0
LWPOLYLINE
  5
8C
100
AcDbEntity
  8
PART_PADS_SMD_TOP
100
AcDbPolyline
 90
        4
 70
         1
 43
0.0
 10
-5.4
 20
-16.0
 10
-4.6
 20
-16.0
 10
-4.6
 20
-17.5
 42
-1.000000
 10
-5.4
 20
-17.5
  0
LWPOLYLINE
  5
8D
100
AcDbEntity
  8
PART_PADS_SMD_TOP
100
AcDbPolyline
 90
        4
 70
         1
 43
0.0
 10
-6.4
 20
-16.0
 10
-5.6
 20
-16.0
 10
-5.6
 20
-17.5
 42
-1.000000
 10
-6.4
 20
-17.5
  0
LWPOLYLINE
  5
8E
100
AcDbEntity
  8
PART_PADS_SMD_TOP
100
AcDbPolyline
 90
        4
 70
         1
 43
0.0
 10
-7.4
 20
-16.0
 10
-6.6
 20
-16.0
 10
-6.6
 20
-17.5
 42
-1.000000
 10
-7.4
 20
-17.5
  0
LWPOLYLINE
  5
8F
100
AcDbEntity
  8
PART_PADS_SMD_TOP
100
AcDbPolyline
 90
        4
 70
         1
 43
0.0
 10
-8.4
 20
-16.0
 10
-7.6
 20
-16.0
 10
-7.6
 20
-17.5
 42
-1.000000
 10
-8.4
 20
-17.5
  0
LWPOLYLINE
  5
90
100
AcDbEntity
  8
PART_PADS_SMD_TOP
100
AcDbPolyline
 90
        4
 70
         1
 43
0.0
 10
-9.4
 20
-16.0
 10
-8.6
 20
-16.0
 10
-8.6
 20
-17.5
 42
-1.000000
 10
-9.4
 20
-17.5
  0
LWPOLYLINE
  5
91
100
AcDbEntity
  8
PART_PADS_SMD_TOP
100
AcDbPolyline
 90
        4
 70
         1
 43
0.0
 10
-10.4
 20
-16.0
 10
-9.6
 20
-16.0
 10
-9.6
 20
-17.5
 42
-1.000000
 10
-10.4
 20
-17.5
  0
LWPOLYLINE
  5
92
100
AcDbEntity
  8
PART_PADS_SMD_TOP
100
AcDbPolyline
 90
        4
 70
         1
 43
0.0
 10
-11.4
 20
-16.0
 10
-10.6
 20
-16.0
 10
-10.6
 20
-17.5
 42
-1.000000
 10
-11.4
 20
-17.5
  0
LWPOLYLINE
  5
93
100
AcDbEntity
  8
PART_PADS_SMD_TOP
100
AcDbPolyline
 90
        4
 70
         1
 43
0.0
 10
-12.4
 20
-16.0
 10
-11.6
 20
-16.0
 10
-11.6
 20
-17.5
 42
-1.000000
 10
-12.4
 20
-17.5
  0
LWPOLYLINE
  5
94
100
AcDbEntity
  8
PART_PADS_SMD_TOP
100
AcDbPolyline
 90
        4
 70
         1
 43
0.0
 10
-13.4
 20
-16.0
 10
-12.6
 20
-16.0
 10
-12.6
 20
-17.5
 42
-1.000000
 10
-13.4
 20
-17.5
  0
LWPOLYLINE
  5
95
100
AcDbEntity
  8
PART_PADS_SMD_TOP
100
AcDbPolyline
 90
        4
 70
         1
 43
0.0
 10
-14.4
 20
-16.0
 10
-13.6
 20
-16.0
 10
-13.6
 20
-17.5
 42
-1.000000
 10
-14.4
 20
-17.5
  0
LWPOLYLINE
  5
96
100
AcDbEntity
  8
PART_PADS_SMD_TOP
100
AcDbPolyline
 90
        4
 70
         1
 43
0.0
 10
-15.4
 20
-16.0
 10
-14.6
 20
-16.0
 10
-14.6
 20
-17.5
 42
-1.000000
 10
-15.4
 20
-17.5
  0
LWPOLYLINE
  5
97
100
AcDbEntity
  8
PART_PADS_SMD_TOP
100
AcDbPolyline
 90
        4
 70
         1
 43
0.0
 10
16.0
 20
14.6
 10
16.0
 20
15.4
 10
17.5
 20
15.4
 42
-1.000000
 10
17.5
 20
14.6
  0
LWPOLYLINE
  5
98
100
AcDbEntity
  8
PART_PADS_SMD_TOP
100
AcDbPolyline
 90
        4
 70
         1
 43
0.0
 10
16.0
 20
13.6
 10
16.0
 20
14.4
 10
17.5
 20
14.4
 42
-1.000000
 10
17.5
 20
13.6
  0
LWPOLYLINE
  5
99
100
AcDbEntity
  8
PART_PADS_SMD_TOP
100
AcDbPolyline
 90
        4
 70
         1
 43
0.0
 10
16.0
 20
12.6
 10
16.0
 20
13.4
 10
17.5
 20
13.4
 42
-1.000000
 10
17.5
 20
12.6
  0
LWPOLYLINE
  5
9A
100
AcDbEntity
  8
PART_PADS_SMD_TOP
100
AcDbPolyline
 90
        4
 70
         1
 43
0.0
 10
16.0
 20
11.6
 10
16.0
 20
12.4
 10
17.5
 20
12.4
 42
-1.000000
 10
17.5
 20
11.6
  0
LWPOLYLINE
  5
9B
100
AcDbEntity
  8
PART_PADS_SMD_TOP
100
AcDbPolyline
 90
        4
 70
         1
 43
0.0
 10
16.0
 20
10.6
 10
16.0
 20
11.4
 10
17.5
 20
11.4
 42
-1.000000
 10
17.5
 20
10.6
  0
LWPOLYLINE
  5
9C
100
AcDbEntity
  8
PART_PADS_SMD_TOP
100
AcDbPolyline
 90
        4
 70
         1
 43
0.0
 10
16.0
 20
9.6
 10
16.0
 20
10.4
 10
17.5
 20
10.4
 42
-1.000000
 10
17.5
 20
9.6
  0
LWPOLYLINE
  5
9D
100
AcDbEntity
  8
PART_PADS_SMD_TOP
100
AcDbPolyline
 90
        4
 70
         1
 43
0.0
 10
16.0
 20
8.6
 10
16.0
 20
9.4
 10
17.5
 20
9.4
 42
-1.000000
 10
17.5
 20
8.6
  0
LWPOLYLINE
  5
9E
100
AcDbEntity
  8
PART_PADS_SMD_TOP
100
AcDbPolyline
 90
        4
 70
         1
 43
0.0
 10
16.0
 20
7.6
 10
16.0
 20
8.4
 10
17.5
 20
8.4
 42
-1.000000
 10
17.5
 20
7.6
  0
LWPOLYLINE
  5
9F
100
AcDbEntity
  8
PART_PADS_SMD_TOP
100
AcDbPolyline
 90
        4
 70
         1
 43
0.0
 10
16.0
 20
6.6
 10
16.0
 20
7.4
 10
17.5
 20
7.4
 42
-1.000000
 10
17.5
 20
6.6
  0
LWPOLYLINE
  5
A0
100
AcDbEntity
  8
PART_PADS_SMD_TOP
100
AcDbPolyline
 90
        4
 70
         1
 43
0.0
 10
16.0
 20
5.6
 10
16.0
 20
6.4
 10
17.5
 20
6.4
 42
-1.000000
 10
17.5
 20
5.6
  0
LWPOLYLINE
  5
A1
100
AcDbEntity
  8
PART_PADS_SMD_TOP
100
AcDbPolyline
 90
        4
 70
         1
 43
0.0
 10
16.0
 20
4.6
 10
16.0
 20
5.4
 10
17.5
 20
5.4
 42
-1.000000
 10
17.5
 20
4.6
  0
LWPOLYLINE
  5
A2
100
AcDbEntity
  8
PART_PADS_SMD_TOP
100
AcDbPolyline
 90
        4
 70
         1
 43
0.0
 10
16.0
 20
3.6
 10
16.0
 20
4.4
 10
17.5
 20
4.4
 42
-1.000000
 10
17.5
 20
3.6
  0
LWPOLYLINE
  5
A3
100
AcDbEntity
  8
PART_PADS_SMD_TOP
100
AcDbPolyline
 90
        4
 70
         1
 43
0.0
 10
16.0
 20
2.6
 10
16.0
 20
3.4
 10
17.5
 20
3.4
 42
-1.000000
 10
17.5
 20
2.6
  0
LWPOLYLINE
  5
A4
100
AcDbEntity
  8
PART_PADS_SMD_TOP
100
AcDbPolyline
 90
        4
 70
         1
 43
0.0
 10
16.0
 20
1.6
 10
16.0
 20
2.4
 10
17.5
 20
2.4
 42
-1.000000
 10
17.5
 20
1.6
  0
LWPOLYLINE
  5
A5
100
AcDbEntity
  8
PART_PADS_SMD_TOP
100
AcDbPolyline
 90
        4
 70
         1
 43
0.0
 10
16.0
 20
0.6
 10
16.0
 20
1.4
 10
17.5
 20
1.4
 42
-1.000000
 10
17.5
 20
0.6
  0
LWPOLYLINE
  5
A6
100
AcDbEntity
  8
PART_PADS_SMD_TOP
100
AcDbPolyline
 90
        4
 70
         1
 43
0.0
 10
16.0
 20
-0.4
 10
16.0
 20
0.4
 10
17.5
 20
0.4
 42
-1.000000
 10
17.5
 20
-0.4
  0
LWPOLYLINE
  5
A7
100
AcDbEntity
  8
PART_PADS_SMD_TOP
100
AcDbPolyline
 90
        4
 70
         1
 43
0.0
 10
16.0
 20
-1.4
 10
16.0
 20
-0.6
 10
17.5
 20
-0.6
 42
-1.000000
 10
17.5
 20
-1.4
  0
LWPOLYLINE
  5
A8
100
AcDbEntity
  8
PART_PADS_SMD_TOP
100
AcDbPolyline
 90
        4
 70
         1
 43
0.0
 10
16.0
 20
-2.4
 10
16.0
 20
-1.6
 10
17.5
 20
-1.6
 42
-1.000000
 10
17.5
 20
-2.4
  0
LWPOLYLINE
  5
A9
100
AcDbEntity
  8
PART_PADS_SMD_TOP
100
AcDbPolyline
 90
        4
 70
         1
 43
0.0
 10
16.0
 20
-3.4
 10
16.0
 20
-2.6
 10
17.5
 20
-2.6
 42
-1.000000
 10
17.5
 20
-3.4
  0
LWPOLYLINE
  5
AA
100
AcDbEntity
  8
PART_PADS_SMD_TOP
100
AcDbPolyline
 90
        4
 70
         1
 43
0.0
 10
16.0
 20
-4.4
 10
16.0
 20
-3.6
 10
17.5
 20
-3.6
 42
-1.000000
 10
17.5
 20
-4.4
  0
LWPOLYLINE
  5
AB
100
AcDbEntity
  8
PART_PADS_SMD_TOP
100
AcDbPolyline
 90
        4
 70
         1
 43
0.0
 10
16.0
 20
-5.4
 10
16.0
 20
-4.6
 10
17.5
 20
-4.6
 42
-1.000000
 10
17.5
 20
-5.4
  0
LWPOLYLINE
  5
AC
100
AcDbEntity
  8
PART_PADS_SMD_TOP
100
AcDbPolyline
 90
        4
 70
         1
 43
0.0
 10
16.0
 20
-6.4
 10
16.0
 20
-5.6
 10
17.5
 20
-5.6
 42
-1.000000
 10
17.5
 20
-6.4
  0
LWPOLYLINE
  5
AD
100
AcDbEntity
  8
PART_PADS_SMD_TOP
100
AcDbPolyline
 90
        4
 70
         1
 43
0.0
 10
16.0
 20
-7.4
 10
16.0
 20
-6.6
 10
17.5
 20
-6.6
 42
-1.000000
 10
17.5
 20
-7.4
  0
LWPOLYLINE
  5
AE
100
AcDbEntity
  8
PART_PADS_SMD_TOP
100
AcDbPolyline
 90
        4
 70
         1
 43
0.0
 10
16.0
 20
-8.4
 10
16.0
 20
-7.6
 10
17.5
 20
-7.6
 42
-1.000000
 10
17.5
 20
-8.4
  0
LWPOLYLINE
  5
AF
100
AcDbEntity
  8
PART_PADS_SMD_TOP
100
AcDbPolyline
 90
        4
 70
         1
 43
0.0
 10
16.0
 20
-9.4
 10
16.0
 20
-8.6
 10
17.5
 20
-8.6
 42
-1.000000
 10
17.5
 20
-9.4
  0
LWPOLYLINE
  5
B0
100
AcDbEntity
  8
PART_PADS_SMD_TOP
100
AcDbPolyline
 90
        4
 70
         1
 43
0.0
 10
16.0
 20
-10.4
 10
16.0
 20
-9.6
 10
17.5
 20
-9.6
 42
-1.000000
 10
17.5
 20
-10.4
  0
LWPOLYLINE
  5
B1
100
AcDbEntity
  8
PART_PADS_SMD_TOP
100
AcDbPolyline
 90
        4
 70
         1
 43
0.0
 10
16.0
 20
-11.4
 10
16.0
 20
-10.6
 10
17.5
 20
-10.6
 42
-1.000000
 10
17.5
 20
-11.4
  0
LWPOLYLINE
  5
B2
100
AcDbEntity
  8
PART_PADS_SMD_TOP
100
AcDbPolyline
 90
        4
 70
         1
 43
0.0
 10
16.0
 20
-12.4
 10
16.0
 20
-11.6
 10
17.5
 20
-11.6
 42
-1.000000
 10
17.5
 20
-12.4
  0
LWPOLYLINE
  5
B3
100
AcDbEntity
  8
PART_PADS_SMD_TOP
100
AcDbPolyline
 90
        4
 70
         1
 43
0.0
 10
16.0
 20
-13.4
 10
16.0
 20
-12.6
 10
17.5
 20
-12.6
 42
-1.000000
 10
17.5
 20
-13.4
  0
LWPOLYLINE
  5
B4
100
AcDbEntity
  8
PART_PADS_SMD_TOP
100
AcDbPolyline
 90
        4
 70
         1
 43
0.0
 10
16.0
 20
-14.4
 10
16.0
 20
-13.6
 10
17.5
 20
-13.6
 42
-1.000000
 10
17.5
 20
-14.4
  0
LWPOLYLINE
  5
B5
100
AcDbEntity
  8
PART_PADS_SMD_TOP
100
AcDbPolyline
 90
        4
 70
         1
 43
0.0
 10
16.0
 20
-15.4
 10
16.0
 20
-14.6
 10
17.5
 20
-14.6
 42
-1.000000
 10
17.5
 20
-15.4
  0
LWPOLYLINE
  5
B6
100
AcDbEntity
  8
PART_PADS_SMD_TOP
100
AcDbPolyline
 90
        4
 70
         1
 43
0.0
 10
-16.0
 20
-14.6
 10
-16.0
 20
-15.4
 10
-17.5
 20
-15.4
 42
-1.000000
 10
-17.5
 20
-14.6
  0
LWPOLYLINE
  5
B7
100
AcDbEntity
  8
PART_PADS_SMD_TOP
100
AcDbPolyline
 90
        4
 70
         1
 43
0.0
 10
-16.0
 20
-13.6
 10
-16.0
 20
-14.4
 10
-17.5
 20
-14.4
 42
-1.000000
 10
-17.5
 20
-13.6
  0
LWPOLYLINE
  5
B8
100
AcDbEntity
  8
PART_PADS_SMD_TOP
100
AcDbPolyline
 90
        4
 70
         1
 43
0.0
 10
-16.0
 20
-12.6
 10
-16.0
 20
-13.4
 10
-17.5
 20
-13.4
 42
-1.000000
 10
-17.5
 20
-12.6
  0
LWPOLYLINE
  5
B9
100
AcDbEntity
  8
PART_PADS_SMD_TOP
100
AcDbPolyline
 90
        4
 70
         1
 43
0.0
 10
-16.0
 20
-11.6
 10
-16.0
 20
-12.4
 10
-17.5
 20
-12.4
 42
-1.000000
 10
-17.5
 20
-11.6
  0
LWPOLYLINE
  5
BA
100
AcDbEntity
  8
PART_PADS_SMD_TOP
100
AcDbPolyline
 90
        4
 70
         1
 43
0.0
 10
-16.0
 20
-10.6
 10
-16.0
 20
-11.4
 10
-17.5
 20
-11.4
 42
-1.000000
 10
-17.5
 20
-10.6
  0
LWPOLYLINE
  5
BB
100
AcDbEntity
  8
PART_PADS_SMD_TOP
100
AcDbPolyline
 90
        4
 70
         1
 43
0.0
 10
-16.0
 20
-9.6
 10
-16.0
 20
-10.4
 10
-17.5
 20
-10.4
 42
-1.000000
 10
-17.5
 20
-9.6
  0
LWPOLYLINE
  5
BC
100
AcDbEntity
  8
PART_PADS_SMD_TOP
100
AcDbPolyline
 90
        4
 70
         1
 43
0.0
 10
-16.0
 20
-8.6
 10
-16.0
 20
-9.4
 10
-17.5
 20
-9.4
 42
-1.000000
 10
-17.5
 20
-8.6
  0
LWPOLYLINE
  5
BD
100
AcDbEntity
  8
PART_PADS_SMD_TOP
100
AcDbPolyline
 90
        4
 70
         1
 43
0.0
 10
-16.0
 20
-7.6
 10
-16.0
 20
-8.4
 10
-17.5
 20
-8.4
 42
-1.000000
 10
-17.5
 20
-7.6
  0
LWPOLYLINE
  5
BE
100
AcDbEntity
  8
PART_PADS_SMD_TOP
100
AcDbPolyline
 90
        4
 70
         1
 43
0.0
 10
-16.0
 20
-6.6
 10
-16.0
 20
-7.4
 10
-17.5
 20
-7.4
 42
-1.000000
 10
-17.5
 20
-6.6
  0
LWPOLYLINE
  5
BF
100
AcDbEntity
  8
PART_PADS_SMD_TOP
100
AcDbPolyline
 90
        4
 70
         1
 43
0.0
 10
-16.0
 20
-5.6
 10
-16.0
 20
-6.4
 10
-17.5
 20
-6.4
 42
-1.000000
 10
-17.5
 20
-5.6
  0
LWPOLYLINE
  5
C0
100
AcDbEntity
  8
PART_PADS_SMD_TOP
100
AcDbPolyline
 90
        4
 70
         1
 43
0.0
 10
-16.0
 20
-4.6
 10
-16.0
 20
-5.4
 10
-17.5
 20
-5.4
 42
-1.000000
 10
-17.5
 20
-4.6
  0
LWPOLYLINE
  5
C1
100
AcDbEntity
  8
PART_PADS_SMD_TOP
100
AcDbPolyline
 90
        4
 70
         1
 43
0.0
 10
-16.0
 20
-3.6
 10
-16.0
 20
-4.4
 10
-17.5
 20
-4.4
 42
-1.000000
 10
-17.5
 20
-3.6
  0
LWPOLYLINE
  5
C2
100
AcDbEntity
  8
PART_PADS_SMD_TOP
100
AcDbPolyline
 90
        4
 70
         1
 43
0.0
 10
-16.0
 20
-2.6
 10
-16.0
 20
-3.4
 10
-17.5
 20
-3.4
 42
-1.000000
 10
-17.5
 20
-2.6
  0
LWPOLYLINE
  5
C3
100
AcDbEntity
  8
PART_PADS_SMD_TOP
100
AcDbPolyline
 90
        4
 70
         1
 43
0.0
 10
-16.0
 20
-1.6
 10
-16.0
 20
-2.4
 10
-17.5
 20
-2.4
 42
-1.000000
 10
-17.5
 20
-1.6
  0
LWPOLYLINE
  5
C4
100
AcDbEntity
  8
PART_PADS_SMD_TOP
100
AcDbPolyline
 90
        4
 70
         1
 43
0.0
 10
-16.0
 20
-0.6
 10
-16.0
 20
-1.4
 10
-17.5
 20
-1.4
 42
-1.000000
 10
-17.5
 20
-0.6
  0
LWPOLYLINE
  5
C5
100
AcDbEntity
  8
PART_PADS_SMD_TOP
100
AcDbPolyline
 90
        4
 70
         1
 43
0.0
 10
-16.0
 20
0.4
 10
-16.0
 20
-0.4
 10
-17.5
 20
-0.4
 42
-1.000000
 10
-17.5
 20
0.4
  0
LWPOLYLINE
  5
C6
100
AcDbEntity
  8
PART_PADS_SMD_TOP
100
AcDbPolyline
 90
        4
 70
         1
 43
0.0
 10
-16.0
 20
1.4
 10
-16.0
 20
0.6
 10
-17.5
 20
0.6
 42
-1.000000
 10
-17.5
 20
1.4
  0
LWPOLYLINE
  5
C7
100
AcDbEntity
  8
PART_PADS_SMD_TOP
100
AcDbPolyline
 90
        4
 70
         1
 43
0.0
 10
-16.0
 20
2.4
 10
-16.0
 20
1.6
 10
-17.5
 20
1.6
 42
-1.000000
 10
-17.5
 20
2.4
  0
LWPOLYLINE
  5
C8
100
AcDbEntity
  8
PART_PADS_SMD_TOP
100
AcDbPolyline
 90
        4
 70
         1
 43
0.0
 10
-16.0
 20
3.4
 10
-16.0
 20
2.6
 10
-17.5
 20
2.6
 42
-1.000000
 10
-17.5
 20
3.4
  0
LWPOLYLINE
  5
C9
100
AcDbEntity
  8
PART_PADS_SMD_TOP
100
AcDbPolyline
 90
        4
 70
         1
 43
0.0
 10
-16.0
 20
4.4
 10
-16.0
 20
3.6
 10
-17.5
 20
3.6
 42
-1.000000
 10
-17.5
 20
4.4
  0
LWPOLYLINE
  5
CA
100
AcDbEntity
  8
PART_PADS_SMD_TOP
100
AcDbPolyline
 90
        4
 70
         1
 43
0.0
 10
-16.0
 20
5.4
 10
-16.0
 20
4.6
 10
-17.5
 20
4.6
 42
-1.000000
 10
-17.5
 20
5.4
  0
LWPOLYLINE
  5
CB
100
AcDbEntity
  8
PART_PADS_SMD_TOP
100
AcDbPolyline
 90
        4
 70
         1
 43
0.0
 10
-16.0
 20
6.4
 10
-16.0
 20
5.6
 10
-17.5
 20
5.6
 42
-1.000000
 10
-17.5
 20
6.4
  0
LWPOLYLINE
  5
CC
100
AcDbEntity
  8
PART_PADS_SMD_TOP
100
AcDbPolyline
 90
        4
 70
         1
 43
0.0
 10
-16.0
 20
7.4
 10
-16.0
 20
6.6
 10
-17.5
 20
6.6
 42
-1.000000
 10
-17.5
 20
7.4
  0
LWPOLYLINE
  5
CD
100
AcDbEntity
  8
PART_PADS_SMD_TOP
100
AcDbPolyline
 90
        4
 70
         1
 43
0.0
 10
-16.0
 20
8.4
 10
-16.0
 20
7.6
 10
-17.5
 20
7.6
 42
-1.000000
 10
-17.5
 20
8.4
  0
LWPOLYLINE
  5
CE
100
AcDbEntity
  8
PART_PADS_SMD_TOP
100
AcDbPolyline
 90
        4
 70
         1
 43
0.0
 10
-16.0
 20
9.4
 10
-16.0
 20
8.6
 10
-17.5
 20
8.6
 42
-1.000000
 10
-17.5
 20
9.4
  0
LWPOLYLINE
  5
CF
100
AcDbEntity
  8
PART_PADS_SMD_TOP
100
AcDbPolyline
 90
        4
 70
         1
 43
0.0
 10
-16.0
 20
10.4
 10
-16.0
 20
9.6
 10
-17.5
 20
9.6
 42
-1.000000
 10
-17.5
 20
10.4
  0
LWPOLYLINE
  5
D0
100
AcDbEntity
  8
PART_PADS_SMD_TOP
100
AcDbPolyline
 90
        4
 70
         1
 43
0.0
 10
-16.0
 20
11.4
 10
-16.0
 20
10.6
 10
-17.5
 20
10.6
 42
-1.000000
 10
-17.5
 20
11.4
  0
LWPOLYLINE
  5
D1
100
AcDbEntity
  8
PART_PADS_SMD_TOP
100
AcDbPolyline
 90
        4
 70
         1
 43
0.0
 10
-16.0
 20
12.4
 10
-16.0
 20
11.6
 10
-17.5
 20
11.6
 42
-1.000000
 10
-17.5
 20
12.4
  0
LWPOLYLINE
  5
D2
100
AcDbEntity
  8
PART_PADS_SMD_TOP
100
AcDbPolyline
 90
        4
 70
         1
 43
0.0
 10
-16.0
 20
13.4
 10
-16.0
 20
12.6
 10
-17.5
 20
12.6
 42
-1.000000
 10
-17.5
 20
13.4
  0
LWPOLYLINE
  5
D3
100
AcDbEntity
  8
PART_PADS_SMD_TOP
100
AcDbPolyline
 90
        4
 70
         1
 43
0.0
 10
-16.0
 20
14.4
 10
-16.0
 20
13.6
 10
-17.5
 20
13.6
 42
-1.000000
 10
-17.5
 20
14.4
  0
LWPOLYLINE
  5
D4
100
AcDbEntity
  8
PART_PADS_SMD_TOP
100
AcDbPolyline
 90
        4
 70
         1
 43
0.0
 10
-16.0
 20
15.4
 10
-16.0
 20
14.6
 10
-17.5
 20
14.6
 42
-1.000000
 10
-17.5
 20
15.4
  0
TEXT
  5
D5
100
AcDbEntity
  8
PIN_NUMBERS_TOP
100
AcDbText
 10
10.346204
 20
-0.222504
 30
0.0
 40
0.508000
 41
1.000000
  1
139
  7
COURIER_NEW
 72
 1
 11
11.0
 21
0.0
 31
0.0
100
AcDbText
 73
 2
  0
TEXT
  5
D6
100
AcDbEntity
  8
PIN_NUMBERS_TOP
100
AcDbText
 10
8.346204
 20
-0.222504
 30
0.0
 40
0.508000
 41
1.000000
  1
140
  7
COURIER_NEW
 72
 1
 11
9.0
 21
0.0
 31
0.0
100
AcDbText
 73
 2
  0
TEXT
  5
D7
100
AcDbEntity
  8
PIN_NUMBERS_TOP
100
AcDbText
 10
6.346204
 20
-0.222504
 30
0.0
 40
0.508000
 41
1.000000
  1
141
  7
COURIER_NEW
 72
 1
 11
7.0
 21
0.0
 31
0.0
100
AcDbText
 73
 2
  0
TEXT
  5
D8
100
AcDbEntity
  8
PIN_NUMBERS_TOP
100
AcDbText
 10
-11.653796
 20
-0.222504
 30
0.0
 40
0.508000
 41
1.000000
  1
157
  7
COURIER_NEW
 72
 1
 11
-11.0
 21
0.0
 31
0.0
100
AcDbText
 73
 2
  0
TEXT
  5
D9
100
AcDbEntity
  8
PIN_NUMBERS_TOP
100
AcDbText
 10
-9.653796
 20
-0.222504
 30
0.0
 40
0.508000
 41
1.000000
  1
158
  7
COURIER_NEW
 72
 1
 11
-9.0
 21
0.0
 31
0.0
100
AcDbText
 73
 2
  0
TEXT
  5
DA
100
AcDbEntity
  8
PIN_NUMBERS_TOP
100
AcDbText
 10
-7.653796
 20
-0.222504
 30
0.0
 40
0.508000
 41
1.000000
  1
159
  7
COURIER_NEW
 72
 1
 11
-7.0
 21
0.0
 31
0.0
100
AcDbText
 73
 2
  0
TEXT
  5
DB
100
AcDbEntity
  8
PIN_NUMBERS_TOP
100
AcDbText
 10
-13.653796
 20
13.777496
 30
0.0
 40
0.508000
 41
1.000000
  1
155
  7
COURIER_NEW
 72
 1
 11
-13.0
 21
14.0
 31
0.0
100
AcDbText
 73
 2
  0
TEXT
  5
DC
100
AcDbEntity
  8
PIN_NUMBERS_TOP
100
AcDbText
 10
-10.653796
 20
13.777496
 30
0.0
 40
0.508000
 41
1.000000
  1
156
  7
COURIER_NEW
 72
 1
 11
-10.0
 21
14.0
 31
0.0
100
AcDbText
 73
 2
  0
TEXT
  5
DD
100
AcDbEntity
  8
PIN_NUMBERS_TOP
100
AcDbText
 10
-10.653796
 20
11.777496
 30
0.0
 40
0.508000
 41
1.000000
  1
154
  7
COURIER_NEW
 72
 1
 11
-10.0
 21
12.0
 31
0.0
100
AcDbText
 73
 2
  0
TEXT
  5
DE
100
AcDbEntity
  8
PIN_NUMBERS_TOP
100
AcDbText
 10
-10.653796
 20
9.777496
 30
0.0
 40
0.508000
 41
1.000000
  1
152
  7
COURIER_NEW
 72
 1
 11
-10.0
 21
10.0
 31
0.0
100
AcDbText
 73
 2
  0
TEXT
  5
DF
100
AcDbEntity
  8
PIN_NUMBERS_TOP
100
AcDbText
 10
-13.653796
 20
11.777496
 30
0.0
 40
0.508000
 41
1.000000
  1
153
  7
COURIER_NEW
 72
 1
 11
-13.0
 21
12.0
 31
0.0
100
AcDbText
 73
 2
  0
TEXT
  5
E0
100
AcDbEntity
  8
PIN_NUMBERS_TOP
100
AcDbText
 10
-13.653796
 20
9.777496
 30
0.0
 40
0.508000
 41
1.000000
  1
151
  7
COURIER_NEW
 72
 1
 11
-13.0
 21
10.0
 31
0.0
100
AcDbText
 73
 2
  0
TEXT
  5
E1
100
AcDbEntity
  8
PIN_NUMBERS_TOP
100
AcDbText
 10
-0.653796
 20
10.777496
 30
0.0
 40
0.508000
 41
1.000000
  1
148
  7
COURIER_NEW
 72
 1
 11
0.0
 21
11.0
 31
0.0
100
AcDbText
 73
 2
  0
TEXT
  5
E2
100
AcDbEntity
  8
PIN_NUMBERS_TOP
100
AcDbText
 10
-0.653796
 20
8.777496
 30
0.0
 40
0.508000
 41
1.000000
  1
149
  7
COURIER_NEW
 72
 1
 11
0.0
 21
9.0
 31
0.0
100
AcDbText
 73
 2
  0
TEXT
  5
E3
100
AcDbEntity
  8
PIN_NUMBERS_TOP
100
AcDbText
 10
-0.653796
 20
6.777496
 30
0.0
 40
0.508000
 41
1.000000
  1
150
  7
COURIER_NEW
 72
 1
 11
0.0
 21
7.0
 31
0.0
100
AcDbText
 73
 2
  0
TEXT
  5
E4
100
AcDbEntity
  8
PIN_NUMBERS_TOP
100
AcDbText
 10
9.346204
 20
9.777496
 30
0.0
 40
0.508000
 41
1.000000
  1
142
  7
COURIER_NEW
 72
 1
 11
10.0
 21
10.0
 31
0.0
100
AcDbText
 73
 2
  0
TEXT
  5
E5
100
AcDbEntity
  8
PIN_NUMBERS_TOP
100
AcDbText
 10
12.346204
 20
9.777496
 30
0.0
 40
0.508000
 41
1.000000
  1
143
  7
COURIER_NEW
 72
 1
 11
13.0
 21
10.0
 31
0.0
100
AcDbText
 73
 2
  0
TEXT
  5
E6
100
AcDbEntity
  8
PIN_NUMBERS_TOP
100
AcDbText
 10
9.346204
 20
11.777496
 30
0.0
 40
0.508000
 41
1.000000
  1
144
  7
COURIER_NEW
 72
 1
 11
10.0
 21
12.0
 31
0.0
100
AcDbText
 73
 2
  0
TEXT
  5
E7
100
AcDbEntity
  8
PIN_NUMBERS_TOP
100
AcDbText
 10
9.346204
 20
13.777496
 30
0.0
 40
0.508000
 41
1.000000
  1
146
  7
COURIER_NEW
 72
 1
 11
10.0
 21
14.0
 31
0.0
100
AcDbText
 73
 2
  0
TEXT
  5
E8
100
AcDbEntity
  8
PIN_NUMBERS_TOP
100
AcDbText
 10
12.346204
 20
11.777496
 30
0.0
 40
0.508000
 41
1.000000
  1
145
  7
COURIER_NEW
 72
 1
 11
13.0
 21
12.0
 31
0.0
100
AcDbText
 73
 2
  0
TEXT
  5
E9
100
AcDbEntity
  8
PIN_NUMBERS_TOP
100
AcDbText
 10
12.346204
 20
13.777496
 30
0.0
 40
0.508000
 41
1.000000
  1
147
  7
COURIER_NEW
 72
 1
 11
13.0
 21
14.0
 31
0.0
100
AcDbText
 73
 2
  0
TEXT
  5
EA
100
AcDbEntity
  8
PIN_NUMBERS_TOP
100
AcDbText
 10
-10.653796
 20
-14.222504
 30
0.0
 40
0.508000
 41
1.000000
  1
125
  7
COURIER_NEW
 72
 1
 11
-10.0
 21
-14.0
 31
0.0
100
AcDbText
 73
 2
  0
TEXT
  5
EB
100
AcDbEntity
  8
PIN_NUMBERS_TOP
100
AcDbText
 10
-13.653796
 20
-12.222504
 30
0.0
 40
0.508000
 41
1.000000
  1
126
  7
COURIER_NEW
 72
 1
 11
-13.0
 21
-12.0
 31
0.0
100
AcDbText
 73
 2
  0
TEXT
  5
EC
100
AcDbEntity
  8
PIN_NUMBERS_TOP
100
AcDbText
 10
-10.653796
 20
-12.222504
 30
0.0
 40
0.508000
 41
1.000000
  1
127
  7
COURIER_NEW
 72
 1
 11
-10.0
 21
-12.0
 31
0.0
100
AcDbText
 73
 2
  0
TEXT
  5
ED
100
AcDbEntity
  8
PIN_NUMBERS_TOP
100
AcDbText
 10
-13.653796
 20
-10.222504
 30
0.0
 40
0.508000
 41
1.000000
  1
128
  7
COURIER_NEW
 72
 1
 11
-13.0
 21
-10.0
 31
0.0
100
AcDbText
 73
 2
  0
TEXT
  5
EE
100
AcDbEntity
  8
PIN_NUMBERS_TOP
100
AcDbText
 10
-10.653796
 20
-10.222504
 30
0.0
 40
0.508000
 41
1.000000
  1
129
  7
COURIER_NEW
 72
 1
 11
-10.0
 21
-10.0
 31
0.0
100
AcDbText
 73
 2
  0
TEXT
  5
EF
100
AcDbEntity
  8
PIN_NUMBERS_TOP
100
AcDbText
 10
-0.653796
 20
-11.222504
 30
0.0
 40
0.508000
 41
1.000000
  1
130
  7
COURIER_NEW
 72
 1
 11
0.0
 21
-11.0
 31
0.0
100
AcDbText
 73
 2
  0
TEXT
  5
F0
100
AcDbEntity
  8
PIN_NUMBERS_TOP
100
AcDbText
 10
-0.653796
 20
-9.222504
 30
0.0
 40
0.508000
 41
1.000000
  1
131
  7
COURIER_NEW
 72
 1
 11
0.0
 21
-9.0
 31
0.0
100
AcDbText
 73
 2
  0
TEXT
  5
F1
100
AcDbEntity
  8
PIN_NUMBERS_TOP
100
AcDbText
 10
-0.653796
 20
-7.222504
 30
0.0
 40
0.508000
 41
1.000000
  1
132
  7
COURIER_NEW
 72
 1
 11
0.0
 21
-7.0
 31
0.0
100
AcDbText
 73
 2
  0
TEXT
  5
F2
100
AcDbEntity
  8
PIN_NUMBERS_TOP
100
AcDbText
 10
9.346204
 20
-14.222504
 30
0.0
 40
0.508000
 41
1.000000
  1
133
  7
COURIER_NEW
 72
 1
 11
10.0
 21
-14.0
 31
0.0
100
AcDbText
 73
 2
  0
TEXT
  5
F3
100
AcDbEntity
  8
PIN_NUMBERS_TOP
100
AcDbText
 10
12.346204
 20
-14.222504
 30
0.0
 40
0.508000
 41
1.000000
  1
134
  7
COURIER_NEW
 72
 1
 11
13.0
 21
-14.0
 31
0.0
100
AcDbText
 73
 2
  0
TEXT
  5
F4
100
AcDbEntity
  8
PIN_NUMBERS_TOP
100
AcDbText
 10
9.346204
 20
-12.222504
 30
0.0
 40
0.508000
 41
1.000000
  1
135
  7
COURIER_NEW
 72
 1
 11
10.0
 21
-12.0
 31
0.0
100
AcDbText
 73
 2
  0
TEXT
  5
F5
100
AcDbEntity
  8
PIN_NUMBERS_TOP
100
AcDbText
 10
12.346204
 20
-12.222504
 30
0.0
 40
0.508000
 41
1.000000
  1
136
  7
COURIER_NEW
 72
 1
 11
13.0
 21
-12.0
 31
0.0
100
AcDbText
 73
 2
  0
TEXT
  5
F6
100
AcDbEntity
  8
PIN_NUMBERS_TOP
100
AcDbText
 10
9.346204
 20
-10.222504
 30
0.0
 40
0.508000
 41
1.000000
  1
137
  7
COURIER_NEW
 72
 1
 11
10.0
 21
-10.0
 31
0.0
100
AcDbText
 73
 2
  0
TEXT
  5
F7
100
AcDbEntity
  8
PIN_NUMBERS_TOP
100
AcDbText
 10
12.346204
 20
-10.222504
 30
0.0
 40
0.508000
 41
1.000000
  1
138
  7
COURIER_NEW
 72
 1
 11
13.0
 21
-10.0
 31
0.0
100
AcDbText
 73
 2
  0
TEXT
  5
F8
100
AcDbEntity
  8
PIN_NUMBERS_TOP
100
AcDbText
 10
-15.435864
 20
16.777496
 30
0.0
 40
0.508000
 41
1.000000
  1
32
  7
COURIER_NEW
 72
 1
 11
-15.0
 21
17.0
 31
0.0
100
AcDbText
 73
 2
  0
TEXT
  5
F9
100
AcDbEntity
  8
PIN_NUMBERS_TOP
100
AcDbText
 10
-14.435864
 20
16.777496
 30
0.0
 40
0.508000
 41
1.000000
  1
33
  7
COURIER_NEW
 72
 1
 11
-14.0
 21
17.0
 31
0.0
100
AcDbText
 73
 2
  0
TEXT
  5
FA
100
AcDbEntity
  8
PIN_NUMBERS_TOP
100
AcDbText
 10
-13.435864
 20
16.777496
 30
0.0
 40
0.508000
 41
1.000000
  1
34
  7
COURIER_NEW
 72
 1
 11
-13.0
 21
17.0
 31
0.0
100
AcDbText
 73
 2
  0
TEXT
  5
FB
100
AcDbEntity
  8
PIN_NUMBERS_TOP
100
AcDbText
 10
-12.435864
 20
16.777496
 30
0.0
 40
0.508000
 41
1.000000
  1
35
  7
COURIER_NEW
 72
 1
 11
-12.0
 21
17.0
 31
0.0
100
AcDbText
 73
 2
  0
TEXT
  5
FC
100
AcDbEntity
  8
PIN_NUMBERS_TOP
100
AcDbText
 10
-11.435864
 20
16.777496
 30
0.0
 40
0.508000
 41
1.000000
  1
36
  7
COURIER_NEW
 72
 1
 11
-11.0
 21
17.0
 31
0.0
100
AcDbText
 73
 2
  0
TEXT
  5
FD
100
AcDbEntity
  8
PIN_NUMBERS_TOP
100
AcDbText
 10
-10.435864
 20
16.777496
 30
0.0
 40
0.508000
 41
1.000000
  1
37
  7
COURIER_NEW
 72
 1
 11
-10.0
 21
17.0
 31
0.0
100
AcDbText
 73
 2
  0
TEXT
  5
FE
100
AcDbEntity
  8
PIN_NUMBERS_TOP
100
AcDbText
 10
-9.435864
 20
16.777496
 30
0.0
 40
0.508000
 41
1.000000
  1
38
  7
COURIER_NEW
 72
 1
 11
-9.0
 21
17.0
 31
0.0
100
AcDbText
 73
 2
  0
TEXT
  5
FF
100
AcDbEntity
  8
PIN_NUMBERS_TOP
100
AcDbText
 10
-8.435864
 20
16.777496
 30
0.0
 40
0.508000
 41
1.000000
  1
39
  7
COURIER_NEW
 72
 1
 11
-8.0
 21
17.0
 31
0.0
100
AcDbText
 73
 2
  0
TEXT
  5
100
100
AcDbEntity
  8
PIN_NUMBERS_TOP
100
AcDbText
 10
-7.435864
 20
16.777496
 30
0.0
 40
0.508000
 41
1.000000
  1
40
  7
COURIER_NEW
 72
 1
 11
-7.0
 21
17.0
 31
0.0
100
AcDbText
 73
 2
  0
TEXT
  5
101
100
AcDbEntity
  8
PIN_NUMBERS_TOP
100
AcDbText
 10
-6.435864
 20
16.777496
 30
0.0
 40
0.508000
 41
1.000000
  1
41
  7
COURIER_NEW
 72
 1
 11
-6.0
 21
17.0
 31
0.0
100
AcDbText
 73
 2
  0
TEXT
  5
102
100
AcDbEntity
  8
PIN_NUMBERS_TOP
100
AcDbText
 10
-5.435864
 20
16.777496
 30
0.0
 40
0.508000
 41
1.000000
  1
42
  7
COURIER_NEW
 72
 1
 11
-5.0
 21
17.0
 31
0.0
100
AcDbText
 73
 2
  0
TEXT
  5
103
100
AcDbEntity
  8
PIN_NUMBERS_TOP
100
AcDbText
 10
-4.435864
 20
16.777496
 30
0.0
 40
0.508000
 41
1.000000
  1
43
  7
COURIER_NEW
 72
 1
 11
-4.0
 21
17.0
 31
0.0
100
AcDbText
 73
 2
  0
TEXT
  5
104
100
AcDbEntity
  8
PIN_NUMBERS_TOP
100
AcDbText
 10
-3.435864
 20
16.777496
 30
0.0
 40
0.508000
 41
1.000000
  1
44
  7
COURIER_NEW
 72
 1
 11
-3.0
 21
17.0
 31
0.0
100
AcDbText
 73
 2
  0
TEXT
  5
105
100
AcDbEntity
  8
PIN_NUMBERS_TOP
100
AcDbText
 10
-2.435864
 20
16.777496
 30
0.0
 40
0.508000
 41
1.000000
  1
45
  7
COURIER_NEW
 72
 1
 11
-2.0
 21
17.0
 31
0.0
100
AcDbText
 73
 2
  0
TEXT
  5
106
100
AcDbEntity
  8
PIN_NUMBERS_TOP
100
AcDbText
 10
-1.435864
 20
16.777496
 30
0.0
 40
0.508000
 41
1.000000
  1
46
  7
COURIER_NEW
 72
 1
 11
-1.0
 21
17.0
 31
0.0
100
AcDbText
 73
 2
  0
TEXT
  5
107
100
AcDbEntity
  8
PIN_NUMBERS_TOP
100
AcDbText
 10
-0.435864
 20
16.777496
 30
0.0
 40
0.508000
 41
1.000000
  1
47
  7
COURIER_NEW
 72
 1
 11
0.0
 21
17.0
 31
0.0
100
AcDbText
 73
 2
  0
TEXT
  5
108
100
AcDbEntity
  8
PIN_NUMBERS_TOP
100
AcDbText
 10
0.564136
 20
16.777496
 30
0.0
 40
0.508000
 41
1.000000
  1
48
  7
COURIER_NEW
 72
 1
 11
1.0
 21
17.0
 31
0.0
100
AcDbText
 73
 2
  0
TEXT
  5
109
100
AcDbEntity
  8
PIN_NUMBERS_TOP
100
AcDbText
 10
1.564136
 20
16.777496
 30
0.0
 40
0.508000
 41
1.000000
  1
49
  7
COURIER_NEW
 72
 1
 11
2.0
 21
17.0
 31
0.0
100
AcDbText
 73
 2
  0
TEXT
  5
10A
100
AcDbEntity
  8
PIN_NUMBERS_TOP
100
AcDbText
 10
2.564136
 20
16.777496
 30
0.0
 40
0.508000
 41
1.000000
  1
50
  7
COURIER_NEW
 72
 1
 11
3.0
 21
17.0
 31
0.0
100
AcDbText
 73
 2
  0
TEXT
  5
10B
100
AcDbEntity
  8
PIN_NUMBERS_TOP
100
AcDbText
 10
3.564136
 20
16.777496
 30
0.0
 40
0.508000
 41
1.000000
  1
51
  7
COURIER_NEW
 72
 1
 11
4.0
 21
17.0
 31
0.0
100
AcDbText
 73
 2
  0
TEXT
  5
10C
100
AcDbEntity
  8
PIN_NUMBERS_TOP
100
AcDbText
 10
4.564136
 20
16.777496
 30
0.0
 40
0.508000
 41
1.000000
  1
52
  7
COURIER_NEW
 72
 1
 11
5.0
 21
17.0
 31
0.0
100
AcDbText
 73
 2
  0
TEXT
  5
10D
100
AcDbEntity
  8
PIN_NUMBERS_TOP
100
AcDbText
 10
5.564136
 20
16.777496
 30
0.0
 40
0.508000
 41
1.000000
  1
53
  7
COURIER_NEW
 72
 1
 11
6.0
 21
17.0
 31
0.0
100
AcDbText
 73
 2
  0
TEXT
  5
10E
100
AcDbEntity
  8
PIN_NUMBERS_TOP
100
AcDbText
 10
6.564136
 20
16.777496
 30
0.0
 40
0.508000
 41
1.000000
  1
54
  7
COURIER_NEW
 72
 1
 11
7.0
 21
17.0
 31
0.0
100
AcDbText
 73
 2
  0
TEXT
  5
10F
100
AcDbEntity
  8
PIN_NUMBERS_TOP
100
AcDbText
 10
7.564136
 20
16.777496
 30
0.0
 40
0.508000
 41
1.000000
  1
55
  7
COURIER_NEW
 72
 1
 11
8.0
 21
17.0
 31
0.0
100
AcDbText
 73
 2
  0
TEXT
  5
110
100
AcDbEntity
  8
PIN_NUMBERS_TOP
100
AcDbText
 10
8.564136
 20
16.777496
 30
0.0
 40
0.508000
 41
1.000000
  1
56
  7
COURIER_NEW
 72
 1
 11
9.0
 21
17.0
 31
0.0
100
AcDbText
 73
 2
  0
TEXT
  5
111
100
AcDbEntity
  8
PIN_NUMBERS_TOP
100
AcDbText
 10
9.564136
 20
16.777496
 30
0.0
 40
0.508000
 41
1.000000
  1
57
  7
COURIER_NEW
 72
 1
 11
10.0
 21
17.0
 31
0.0
100
AcDbText
 73
 2
  0
TEXT
  5
112
100
AcDbEntity
  8
PIN_NUMBERS_TOP
100
AcDbText
 10
10.564136
 20
16.777496
 30
0.0
 40
0.508000
 41
1.000000
  1
58
  7
COURIER_NEW
 72
 1
 11
11.0
 21
17.0
 31
0.0
100
AcDbText
 73
 2
  0
TEXT
  5
113
100
AcDbEntity
  8
PIN_NUMBERS_TOP
100
AcDbText
 10
11.564136
 20
16.777496
 30
0.0
 40
0.508000
 41
1.000000
  1
59
  7
COURIER_NEW
 72
 1
 11
12.0
 21
17.0
 31
0.0
100
AcDbText
 73
 2
  0
TEXT
  5
114
100
AcDbEntity
  8
PIN_NUMBERS_TOP
100
AcDbText
 10
12.564136
 20
16.777496
 30
0.0
 40
0.508000
 41
1.000000
  1
60
  7
COURIER_NEW
 72
 1
 11
13.0
 21
17.0
 31
0.0
100
AcDbText
 73
 2
  0
TEXT
  5
115
100
AcDbEntity
  8
PIN_NUMBERS_TOP
100
AcDbText
 10
13.564136
 20
16.777496
 30
0.0
 40
0.508000
 41
1.000000
  1
61
  7
COURIER_NEW
 72
 1
 11
14.0
 21
17.0
 31
0.0
100
AcDbText
 73
 2
  0
TEXT
  5
116
100
AcDbEntity
  8
PIN_NUMBERS_TOP
100
AcDbText
 10
14.564136
 20
16.777496
 30
0.0
 40
0.508000
 41
1.000000
  1
62
  7
COURIER_NEW
 72
 1
 11
15.0
 21
17.0
 31
0.0
100
AcDbText
 73
 2
  0
TEXT
  5
117
100
AcDbEntity
  8
PIN_NUMBERS_TOP
100
AcDbText
 10
14.564136
 20
-17.222504
 30
0.0
 40
0.508000
 41
1.000000
  1
94
  7
COURIER_NEW
 72
 1
 11
15.0
 21
-17.0
 31
0.0
100
AcDbText
 73
 2
  0
TEXT
  5
118
100
AcDbEntity
  8
PIN_NUMBERS_TOP
100
AcDbText
 10
13.564136
 20
-17.222504
 30
0.0
 40
0.508000
 41
1.000000
  1
95
  7
COURIER_NEW
 72
 1
 11
14.0
 21
-17.0
 31
0.0
100
AcDbText
 73
 2
  0
TEXT
  5
119
100
AcDbEntity
  8
PIN_NUMBERS_TOP
100
AcDbText
 10
12.564136
 20
-17.222504
 30
0.0
 40
0.508000
 41
1.000000
  1
96
  7
COURIER_NEW
 72
 1
 11
13.0
 21
-17.0
 31
0.0
100
AcDbText
 73
 2
  0
TEXT
  5
11A
100
AcDbEntity
  8
PIN_NUMBERS_TOP
100
AcDbText
 10
11.564136
 20
-17.222504
 30
0.0
 40
0.508000
 41
1.000000
  1
97
  7
COURIER_NEW
 72
 1
 11
12.0
 21
-17.0
 31
0.0
100
AcDbText
 73
 2
  0
TEXT
  5
11B
100
AcDbEntity
  8
PIN_NUMBERS_TOP
100
AcDbText
 10
10.564136
 20
-17.222504
 30
0.0
 40
0.508000
 41
1.000000
  1
98
  7
COURIER_NEW
 72
 1
 11
11.0
 21
-17.0
 31
0.0
100
AcDbText
 73
 2
  0
TEXT
  5
11C
100
AcDbEntity
  8
PIN_NUMBERS_TOP
100
AcDbText
 10
9.564136
 20
-17.222504
 30
0.0
 40
0.508000
 41
1.000000
  1
99
  7
COURIER_NEW
 72
 1
 11
10.0
 21
-17.0
 31
0.0
100
AcDbText
 73
 2
  0
TEXT
  5
11D
100
AcDbEntity
  8
PIN_NUMBERS_TOP
100
AcDbText
 10
8.346204
 20
-17.222504
 30
0.0
 40
0.508000
 41
1.000000
  1
100
  7
COURIER_NEW
 72
 1
 11
9.0
 21
-17.0
 31
0.0
100
AcDbText
 73
 2
  0
TEXT
  5
11E
100
AcDbEntity
  8
PIN_NUMBERS_TOP
100
AcDbText
 10
7.346204
 20
-17.222504
 30
0.0
 40
0.508000
 41
1.000000
  1
101
  7
COURIER_NEW
 72
 1
 11
8.0
 21
-17.0
 31
0.0
100
AcDbText
 73
 2
  0
TEXT
  5
11F
100
AcDbEntity
  8
PIN_NUMBERS_TOP
100
AcDbText
 10
6.346204
 20
-17.222504
 30
0.0
 40
0.508000
 41
1.000000
  1
102
  7
COURIER_NEW
 72
 1
 11
7.0
 21
-17.0
 31
0.0
100
AcDbText
 73
 2
  0
TEXT
  5
120
100
AcDbEntity
  8
PIN_NUMBERS_TOP
100
AcDbText
 10
5.346204
 20
-17.222504
 30
0.0
 40
0.508000
 41
1.000000
  1
103
  7
COURIER_NEW
 72
 1
 11
6.0
 21
-17.0
 31
0.0
100
AcDbText
 73
 2
  0
TEXT
  5
121
100
AcDbEntity
  8
PIN_NUMBERS_TOP
100
AcDbText
 10
4.346204
 20
-17.222504
 30
0.0
 40
0.508000
 41
1.000000
  1
104
  7
COURIER_NEW
 72
 1
 11
5.0
 21
-17.0
 31
0.0
100
AcDbText
 73
 2
  0
TEXT
  5
122
100
AcDbEntity
  8
PIN_NUMBERS_TOP
100
AcDbText
 10
3.346204
 20
-17.222504
 30
0.0
 40
0.508000
 41
1.000000
  1
105
  7
COURIER_NEW
 72
 1
 11
4.0
 21
-17.0
 31
0.0
100
AcDbText
 73
 2
  0
TEXT
  5
123
100
AcDbEntity
  8
PIN_NUMBERS_TOP
100
AcDbText
 10
2.346204
 20
-17.222504
 30
0.0
 40
0.508000
 41
1.000000
  1
106
  7
COURIER_NEW
 72
 1
 11
3.0
 21
-17.0
 31
0.0
100
AcDbText
 73
 2
  0
TEXT
  5
124
100
AcDbEntity
  8
PIN_NUMBERS_TOP
100
AcDbText
 10
1.346204
 20
-17.222504
 30
0.0
 40
0.508000
 41
1.000000
  1
107
  7
COURIER_NEW
 72
 1
 11
2.0
 21
-17.0
 31
0.0
100
AcDbText
 73
 2
  0
TEXT
  5
125
100
AcDbEntity
  8
PIN_NUMBERS_TOP
100
AcDbText
 10
0.346204
 20
-17.222504
 30
0.0
 40
0.508000
 41
1.000000
  1
108
  7
COURIER_NEW
 72
 1
 11
1.0
 21
-17.0
 31
0.0
100
AcDbText
 73
 2
  0
TEXT
  5
126
100
AcDbEntity
  8
PIN_NUMBERS_TOP
100
AcDbText
 10
-0.653796
 20
-17.222504
 30
0.0
 40
0.508000
 41
1.000000
  1
109
  7
COURIER_NEW
 72
 1
 11
0.0
 21
-17.0
 31
0.0
100
AcDbText
 73
 2
  0
TEXT
  5
127
100
AcDbEntity
  8
PIN_NUMBERS_TOP
100
AcDbText
 10
-1.653796
 20
-17.222504
 30
0.0
 40
0.508000
 41
1.000000
  1
110
  7
COURIER_NEW
 72
 1
 11
-1.0
 21
-17.0
 31
0.0
100
AcDbText
 73
 2
  0
TEXT
  5
128
100
AcDbEntity
  8
PIN_NUMBERS_TOP
100
AcDbText
 10
-2.653796
 20
-17.222504
 30
0.0
 40
0.508000
 41
1.000000
  1
111
  7
COURIER_NEW
 72
 1
 11
-2.0
 21
-17.0
 31
0.0
100
AcDbText
 73
 2
  0
TEXT
  5
129
100
AcDbEntity
  8
PIN_NUMBERS_TOP
100
AcDbText
 10
-3.653796
 20
-17.222504
 30
0.0
 40
0.508000
 41
1.000000
  1
112
  7
COURIER_NEW
 72
 1
 11
-3.0
 21
-17.0
 31
0.0
100
AcDbText
 73
 2
  0
TEXT
  5
12A
100
AcDbEntity
  8
PIN_NUMBERS_TOP
100
AcDbText
 10
-4.653796
 20
-17.222504
 30
0.0
 40
0.508000
 41
1.000000
  1
113
  7
COURIER_NEW
 72
 1
 11
-4.0
 21
-17.0
 31
0.0
100
AcDbText
 73
 2
  0
TEXT
  5
12B
100
AcDbEntity
  8
PIN_NUMBERS_TOP
100
AcDbText
 10
-5.653796
 20
-17.222504
 30
0.0
 40
0.508000
 41
1.000000
  1
114
  7
COURIER_NEW
 72
 1
 11
-5.0
 21
-17.0
 31
0.0
100
AcDbText
 73
 2
  0
TEXT
  5
12C
100
AcDbEntity
  8
PIN_NUMBERS_TOP
100
AcDbText
 10
-6.653796
 20
-17.222504
 30
0.0
 40
0.508000
 41
1.000000
  1
115
  7
COURIER_NEW
 72
 1
 11
-6.0
 21
-17.0
 31
0.0
100
AcDbText
 73
 2
  0
TEXT
  5
12D
100
AcDbEntity
  8
PIN_NUMBERS_TOP
100
AcDbText
 10
-7.653796
 20
-17.222504
 30
0.0
 40
0.508000
 41
1.000000
  1
116
  7
COURIER_NEW
 72
 1
 11
-7.0
 21
-17.0
 31
0.0
100
AcDbText
 73
 2
  0
TEXT
  5
12E
100
AcDbEntity
  8
PIN_NUMBERS_TOP
100
AcDbText
 10
-8.653796
 20
-17.222504
 30
0.0
 40
0.508000
 41
1.000000
  1
117
  7
COURIER_NEW
 72
 1
 11
-8.0
 21
-17.0
 31
0.0
100
AcDbText
 73
 2
  0
TEXT
  5
12F
100
AcDbEntity
  8
PIN_NUMBERS_TOP
100
AcDbText
 10
-9.653796
 20
-17.222504
 30
0.0
 40
0.508000
 41
1.000000
  1
118
  7
COURIER_NEW
 72
 1
 11
-9.0
 21
-17.0
 31
0.0
100
AcDbText
 73
 2
  0
TEXT
  5
130
100
AcDbEntity
  8
PIN_NUMBERS_TOP
100
AcDbText
 10
-10.653796
 20
-17.222504
 30
0.0
 40
0.508000
 41
1.000000
  1
119
  7
COURIER_NEW
 72
 1
 11
-10.0
 21
-17.0
 31
0.0
100
AcDbText
 73
 2
  0
TEXT
  5
131
100
AcDbEntity
  8
PIN_NUMBERS_TOP
100
AcDbText
 10
-11.653796
 20
-17.222504
 30
0.0
 40
0.508000
 41
1.000000
  1
120
  7
COURIER_NEW
 72
 1
 11
-11.0
 21
-17.0
 31
0.0
100
AcDbText
 73
 2
  0
TEXT
  5
132
100
AcDbEntity
  8
PIN_NUMBERS_TOP
100
AcDbText
 10
-12.653796
 20
-17.222504
 30
0.0
 40
0.508000
 41
1.000000
  1
121
  7
COURIER_NEW
 72
 1
 11
-12.0
 21
-17.0
 31
0.0
100
AcDbText
 73
 2
  0
TEXT
  5
133
100
AcDbEntity
  8
PIN_NUMBERS_TOP
100
AcDbText
 10
-13.653796
 20
-17.222504
 30
0.0
 40
0.508000
 41
1.000000
  1
122
  7
COURIER_NEW
 72
 1
 11
-13.0
 21
-17.0
 31
0.0
100
AcDbText
 73
 2
  0
TEXT
  5
134
100
AcDbEntity
  8
PIN_NUMBERS_TOP
100
AcDbText
 10
-14.653796
 20
-17.222504
 30
0.0
 40
0.508000
 41
1.000000
  1
123
  7
COURIER_NEW
 72
 1
 11
-14.0
 21
-17.0
 31
0.0
100
AcDbText
 73
 2
  0
TEXT
  5
135
100
AcDbEntity
  8
PIN_NUMBERS_TOP
100
AcDbText
 10
-15.653796
 20
-17.222504
 30
0.0
 40
0.508000
 41
1.000000
  1
124
  7
COURIER_NEW
 72
 1
 11
-15.0
 21
-17.0
 31
0.0
100
AcDbText
 73
 2
  0
TEXT
  5
136
100
AcDbEntity
  8
PIN_NUMBERS_TOP
100
AcDbText
 10
16.564136
 20
14.777496
 30
0.0
 40
0.508000
 41
1.000000
  1
63
  7
COURIER_NEW
 72
 1
 11
17.0
 21
15.0
 31
0.0
100
AcDbText
 73
 2
  0
TEXT
  5
137
100
AcDbEntity
  8
PIN_NUMBERS_TOP
100
AcDbText
 10
16.564136
 20
13.777496
 30
0.0
 40
0.508000
 41
1.000000
  1
64
  7
COURIER_NEW
 72
 1
 11
17.0
 21
14.0
 31
0.0
100
AcDbText
 73
 2
  0
TEXT
  5
138
100
AcDbEntity
  8
PIN_NUMBERS_TOP
100
AcDbText
 10
16.564136
 20
12.777496
 30
0.0
 40
0.508000
 41
1.000000
  1
65
  7
COURIER_NEW
 72
 1
 11
17.0
 21
13.0
 31
0.0
100
AcDbText
 73
 2
  0
TEXT
  5
139
100
AcDbEntity
  8
PIN_NUMBERS_TOP
100
AcDbText
 10
16.564136
 20
11.777496
 30
0.0
 40
0.508000
 41
1.000000
  1
66
  7
COURIER_NEW
 72
 1
 11
17.0
 21
12.0
 31
0.0
100
AcDbText
 73
 2
  0
TEXT
  5
13A
100
AcDbEntity
  8
PIN_NUMBERS_TOP
100
AcDbText
 10
16.564136
 20
10.777496
 30
0.0
 40
0.508000
 41
1.000000
  1
67
  7
COURIER_NEW
 72
 1
 11
17.0
 21
11.0
 31
0.0
100
AcDbText
 73
 2
  0
TEXT
  5
13B
100
AcDbEntity
  8
PIN_NUMBERS_TOP
100
AcDbText
 10
16.564136
 20
9.777496
 30
0.0
 40
0.508000
 41
1.000000
  1
68
  7
COURIER_NEW
 72
 1
 11
17.0
 21
10.0
 31
0.0
100
AcDbText
 73
 2
  0
TEXT
  5
13C
100
AcDbEntity
  8
PIN_NUMBERS_TOP
100
AcDbText
 10
16.564136
 20
8.777496
 30
0.0
 40
0.508000
 41
1.000000
  1
69
  7
COURIER_NEW
 72
 1
 11
17.0
 21
9.0
 31
0.0
100
AcDbText
 73
 2
  0
TEXT
  5
13D
100
AcDbEntity
  8
PIN_NUMBERS_TOP
100
AcDbText
 10
16.564136
 20
7.777496
 30
0.0
 40
0.508000
 41
1.000000
  1
70
  7
COURIER_NEW
 72
 1
 11
17.0
 21
8.0
 31
0.0
100
AcDbText
 73
 2
  0
TEXT
  5
13E
100
AcDbEntity
  8
PIN_NUMBERS_TOP
100
AcDbText
 10
16.564136
 20
6.777496
 30
0.0
 40
0.508000
 41
1.000000
  1
71
  7
COURIER_NEW
 72
 1
 11
17.0
 21
7.0
 31
0.0
100
AcDbText
 73
 2
  0
TEXT
  5
13F
100
AcDbEntity
  8
PIN_NUMBERS_TOP
100
AcDbText
 10
16.564136
 20
5.777496
 30
0.0
 40
0.508000
 41
1.000000
  1
72
  7
COURIER_NEW
 72
 1
 11
17.0
 21
6.0
 31
0.0
100
AcDbText
 73
 2
  0
TEXT
  5
140
100
AcDbEntity
  8
PIN_NUMBERS_TOP
100
AcDbText
 10
16.564136
 20
4.777496
 30
0.0
 40
0.508000
 41
1.000000
  1
73
  7
COURIER_NEW
 72
 1
 11
17.0
 21
5.0
 31
0.0
100
AcDbText
 73
 2
  0
TEXT
  5
141
100
AcDbEntity
  8
PIN_NUMBERS_TOP
100
AcDbText
 10
16.564136
 20
3.777496
 30
0.0
 40
0.508000
 41
1.000000
  1
74
  7
COURIER_NEW
 72
 1
 11
17.0
 21
4.0
 31
0.0
100
AcDbText
 73
 2
  0
TEXT
  5
142
100
AcDbEntity
  8
PIN_NUMBERS_TOP
100
AcDbText
 10
16.564136
 20
2.777496
 30
0.0
 40
0.508000
 41
1.000000
  1
75
  7
COURIER_NEW
 72
 1
 11
17.0
 21
3.0
 31
0.0
100
AcDbText
 73
 2
  0
TEXT
  5
143
100
AcDbEntity
  8
PIN_NUMBERS_TOP
100
AcDbText
 10
16.564136
 20
1.777496
 30
0.0
 40
0.508000
 41
1.000000
  1
76
  7
COURIER_NEW
 72
 1
 11
17.0
 21
2.0
 31
0.0
100
AcDbText
 73
 2
  0
TEXT
  5
144
100
AcDbEntity
  8
PIN_NUMBERS_TOP
100
AcDbText
 10
16.564136
 20
0.777496
 30
0.0
 40
0.508000
 41
1.000000
  1
77
  7
COURIER_NEW
 72
 1
 11
17.0
 21
1.0
 31
0.0
100
AcDbText
 73
 2
  0
TEXT
  5
145
100
AcDbEntity
  8
PIN_NUMBERS_TOP
100
AcDbText
 10
16.564136
 20
-0.222504
 30
0.0
 40
0.508000
 41
1.000000
  1
78
  7
COURIER_NEW
 72
 1
 11
17.0
 21
0.0
 31
0.0
100
AcDbText
 73
 2
  0
TEXT
  5
146
100
AcDbEntity
  8
PIN_NUMBERS_TOP
100
AcDbText
 10
16.564136
 20
-1.222504
 30
0.0
 40
0.508000
 41
1.000000
  1
79
  7
COURIER_NEW
 72
 1
 11
17.0
 21
-1.0
 31
0.0
100
AcDbText
 73
 2
  0
TEXT
  5
147
100
AcDbEntity
  8
PIN_NUMBERS_TOP
100
AcDbText
 10
16.564136
 20
-2.222504
 30
0.0
 40
0.508000
 41
1.000000
  1
80
  7
COURIER_NEW
 72
 1
 11
17.0
 21
-2.0
 31
0.0
100
AcDbText
 73
 2
  0
TEXT
  5
148
100
AcDbEntity
  8
PIN_NUMBERS_TOP
100
AcDbText
 10
16.564136
 20
-3.222504
 30
0.0
 40
0.508000
 41
1.000000
  1
81
  7
COURIER_NEW
 72
 1
 11
17.0
 21
-3.0
 31
0.0
100
AcDbText
 73
 2
  0
TEXT
  5
149
100
AcDbEntity
  8
PIN_NUMBERS_TOP
100
AcDbText
 10
16.564136
 20
-4.222504
 30
0.0
 40
0.508000
 41
1.000000
  1
82
  7
COURIER_NEW
 72
 1
 11
17.0
 21
-4.0
 31
0.0
100
AcDbText
 73
 2
  0
TEXT
  5
14A
100
AcDbEntity
  8
PIN_NUMBERS_TOP
100
AcDbText
 10
16.564136
 20
-5.222504
 30
0.0
 40
0.508000
 41
1.000000
  1
83
  7
COURIER_NEW
 72
 1
 11
17.0
 21
-5.0
 31
0.0
100
AcDbText
 73
 2
  0
TEXT
  5
14B
100
AcDbEntity
  8
PIN_NUMBERS_TOP
100
AcDbText
 10
16.564136
 20
-6.222504
 30
0.0
 40
0.508000
 41
1.000000
  1
84
  7
COURIER_NEW
 72
 1
 11
17.0
 21
-6.0
 31
0.0
100
AcDbText
 73
 2
  0
TEXT
  5
14C
100
AcDbEntity
  8
PIN_NUMBERS_TOP
100
AcDbText
 10
16.564136
 20
-7.222504
 30
0.0
 40
0.508000
 41
1.000000
  1
85
  7
COURIER_NEW
 72
 1
 11
17.0
 21
-7.0
 31
0.0
100
AcDbText
 73
 2
  0
TEXT
  5
14D
100
AcDbEntity
  8
PIN_NUMBERS_TOP
100
AcDbText
 10
16.564136
 20
-8.222504
 30
0.0
 40
0.508000
 41
1.000000
  1
86
  7
COURIER_NEW
 72
 1
 11
17.0
 21
-8.0
 31
0.0
100
AcDbText
 73
 2
  0
TEXT
  5
14E
100
AcDbEntity
  8
PIN_NUMBERS_TOP
100
AcDbText
 10
16.564136
 20
-9.222504
 30
0.0
 40
0.508000
 41
1.000000
  1
87
  7
COURIER_NEW
 72
 1
 11
17.0
 21
-9.0
 31
0.0
100
AcDbText
 73
 2
  0
TEXT
  5
14F
100
AcDbEntity
  8
PIN_NUMBERS_TOP
100
AcDbText
 10
16.564136
 20
-10.222504
 30
0.0
 40
0.508000
 41
1.000000
  1
88
  7
COURIER_NEW
 72
 1
 11
17.0
 21
-10.0
 31
0.0
100
AcDbText
 73
 2
  0
TEXT
  5
150
100
AcDbEntity
  8
PIN_NUMBERS_TOP
100
AcDbText
 10
16.564136
 20
-11.222504
 30
0.0
 40
0.508000
 41
1.000000
  1
89
  7
COURIER_NEW
 72
 1
 11
17.0
 21
-11.0
 31
0.0
100
AcDbText
 73
 2
  0
TEXT
  5
151
100
AcDbEntity
  8
PIN_NUMBERS_TOP
100
AcDbText
 10
16.564136
 20
-12.222504
 30
0.0
 40
0.508000
 41
1.000000
  1
90
  7
COURIER_NEW
 72
 1
 11
17.0
 21
-12.0
 31
0.0
100
AcDbText
 73
 2
  0
TEXT
  5
152
100
AcDbEntity
  8
PIN_NUMBERS_TOP
100
AcDbText
 10
16.564136
 20
-13.222504
 30
0.0
 40
0.508000
 41
1.000000
  1
91
  7
COURIER_NEW
 72
 1
 11
17.0
 21
-13.0
 31
0.0
100
AcDbText
 73
 2
  0
TEXT
  5
153
100
AcDbEntity
  8
PIN_NUMBERS_TOP
100
AcDbText
 10
16.564136
 20
-14.222504
 30
0.0
 40
0.508000
 41
1.000000
  1
92
  7
COURIER_NEW
 72
 1
 11
17.0
 21
-14.0
 31
0.0
100
AcDbText
 73
 2
  0
TEXT
  5
154
100
AcDbEntity
  8
PIN_NUMBERS_TOP
100
AcDbText
 10
16.564136
 20
-15.222504
 30
0.0
 40
0.508000
 41
1.000000
  1
93
  7
COURIER_NEW
 72
 1
 11
17.0
 21
-15.0
 31
0.0
100
AcDbText
 73
 2
  0
TEXT
  5
155
100
AcDbEntity
  8
PIN_NUMBERS_TOP
100
AcDbText
 10
-17.217932
 20
-15.222504
 30
0.0
 40
0.508000
 41
1.000000
  1
1
  7
COURIER_NEW
 72
 1
 11
-17.0
 21
-15.0
 31
0.0
100
AcDbText
 73
 2
  0
TEXT
  5
156
100
AcDbEntity
  8
PIN_NUMBERS_TOP
100
AcDbText
 10
-17.217932
 20
-14.222504
 30
0.0
 40
0.508000
 41
1.000000
  1
2
  7
COURIER_NEW
 72
 1
 11
-17.0
 21
-14.0
 31
0.0
100
AcDbText
 73
 2
  0
TEXT
  5
157
100
AcDbEntity
  8
PIN_NUMBERS_TOP
100
AcDbText
 10
-17.217932
 20
-13.222504
 30
0.0
 40
0.508000
 41
1.000000
  1
3
  7
COURIER_NEW
 72
 1
 11
-17.0
 21
-13.0
 31
0.0
100
AcDbText
 73
 2
  0
TEXT
  5
158
100
AcDbEntity
  8
PIN_NUMBERS_TOP
100
AcDbText
 10
-17.217932
 20
-12.222504
 30
0.0
 40
0.508000
 41
1.000000
  1
4
  7
COURIER_NEW
 72
 1
 11
-17.0
 21
-12.0
 31
0.0
100
AcDbText
 73
 2
  0
TEXT
  5
159
100
AcDbEntity
  8
PIN_NUMBERS_TOP
100
AcDbText
 10
-17.217932
 20
-11.222504
 30
0.0
 40
0.508000
 41
1.000000
  1
5
  7
COURIER_NEW
 72
 1
 11
-17.0
 21
-11.0
 31
0.0
100
AcDbText
 73
 2
  0
TEXT
  5
15A
100
AcDbEntity
  8
PIN_NUMBERS_TOP
100
AcDbText
 10
-17.217932
 20
-10.222504
 30
0.0
 40
0.508000
 41
1.000000
  1
6
  7
COURIER_NEW
 72
 1
 11
-17.0
 21
-10.0
 31
0.0
100
AcDbText
 73
 2
  0
TEXT
  5
15B
100
AcDbEntity
  8
PIN_NUMBERS_TOP
100
AcDbText
 10
-17.217932
 20
-9.222504
 30
0.0
 40
0.508000
 41
1.000000
  1
7
  7
COURIER_NEW
 72
 1
 11
-17.0
 21
-9.0
 31
0.0
100
AcDbText
 73
 2
  0
TEXT
  5
15C
100
AcDbEntity
  8
PIN_NUMBERS_TOP
100
AcDbText
 10
-17.217932
 20
-8.222504
 30
0.0
 40
0.508000
 41
1.000000
  1
8
  7
COURIER_NEW
 72
 1
 11
-17.0
 21
-8.0
 31
0.0
100
AcDbText
 73
 2
  0
TEXT
  5
15D
100
AcDbEntity
  8
PIN_NUMBERS_TOP
100
AcDbText
 10
-17.217932
 20
-7.222504
 30
0.0
 40
0.508000
 41
1.000000
  1
9
  7
COURIER_NEW
 72
 1
 11
-17.0
 21
-7.0
 31
0.0
100
AcDbText
 73
 2
  0
TEXT
  5
15E
100
AcDbEntity
  8
PIN_NUMBERS_TOP
100
AcDbText
 10
-17.435864
 20
-6.222504
 30
0.0
 40
0.508000
 41
1.000000
  1
10
  7
COURIER_NEW
 72
 1
 11
-17.0
 21
-6.0
 31
0.0
100
AcDbText
 73
 2
  0
TEXT
  5
15F
100
AcDbEntity
  8
PIN_NUMBERS_TOP
100
AcDbText
 10
-17.435864
 20
-5.222504
 30
0.0
 40
0.508000
 41
1.000000
  1
11
  7
COURIER_NEW
 72
 1
 11
-17.0
 21
-5.0
 31
0.0
100
AcDbText
 73
 2
  0
TEXT
  5
160
100
AcDbEntity
  8
PIN_NUMBERS_TOP
100
AcDbText
 10
-17.435864
 20
-4.222504
 30
0.0
 40
0.508000
 41
1.000000
  1
12
  7
COURIER_NEW
 72
 1
 11
-17.0
 21
-4.0
 31
0.0
100
AcDbText
 73
 2
  0
TEXT
  5
161
100
AcDbEntity
  8
PIN_NUMBERS_TOP
100
AcDbText
 10
-17.435864
 20
-3.222504
 30
0.0
 40
0.508000
 41
1.000000
  1
13
  7
COURIER_NEW
 72
 1
 11
-17.0
 21
-3.0
 31
0.0
100
AcDbText
 73
 2
  0
TEXT
  5
162
100
AcDbEntity
  8
PIN_NUMBERS_TOP
100
AcDbText
 10
-17.435864
 20
-2.222504
 30
0.0
 40
0.508000
 41
1.000000
  1
14
  7
COURIER_NEW
 72
 1
 11
-17.0
 21
-2.0
 31
0.0
100
AcDbText
 73
 2
  0
TEXT
  5
163
100
AcDbEntity
  8
PIN_NUMBERS_TOP
100
AcDbText
 10
-17.435864
 20
-1.222504
 30
0.0
 40
0.508000
 41
1.000000
  1
15
  7
COURIER_NEW
 72
 1
 11
-17.0
 21
-1.0
 31
0.0
100
AcDbText
 73
 2
  0
TEXT
  5
164
100
AcDbEntity
  8
PIN_NUMBERS_TOP
100
AcDbText
 10
-17.435864
 20
-0.222504
 30
0.0
 40
0.508000
 41
1.000000
  1
16
  7
COURIER_NEW
 72
 1
 11
-17.0
 21
0.0
 31
0.0
100
AcDbText
 73
 2
  0
TEXT
  5
165
100
AcDbEntity
  8
PIN_NUMBERS_TOP
100
AcDbText
 10
-17.435864
 20
0.777496
 30
0.0
 40
0.508000
 41
1.000000
  1
17
  7
COURIER_NEW
 72
 1
 11
-17.0
 21
1.0
 31
0.0
100
AcDbText
 73
 2
  0
TEXT
  5
166
100
AcDbEntity
  8
PIN_NUMBERS_TOP
100
AcDbText
 10
-17.435864
 20
1.777496
 30
0.0
 40
0.508000
 41
1.000000
  1
18
  7
COURIER_NEW
 72
 1
 11
-17.0
 21
2.0
 31
0.0
100
AcDbText
 73
 2
  0
TEXT
  5
167
100
AcDbEntity
  8
PIN_NUMBERS_TOP
100
AcDbText
 10
-17.435864
 20
2.777496
 30
0.0
 40
0.508000
 41
1.000000
  1
19
  7
COURIER_NEW
 72
 1
 11
-17.0
 21
3.0
 31
0.0
100
AcDbText
 73
 2
  0
TEXT
  5
168
100
AcDbEntity
  8
PIN_NUMBERS_TOP
100
AcDbText
 10
-17.435864
 20
3.777496
 30
0.0
 40
0.508000
 41
1.000000
  1
20
  7
COURIER_NEW
 72
 1
 11
-17.0
 21
4.0
 31
0.0
100
AcDbText
 73
 2
  0
TEXT
  5
169
100
AcDbEntity
  8
PIN_NUMBERS_TOP
100
AcDbText
 10
-17.435864
 20
4.777496
 30
0.0
 40
0.508000
 41
1.000000
  1
21
  7
COURIER_NEW
 72
 1
 11
-17.0
 21
5.0
 31
0.0
100
AcDbText
 73
 2
  0
TEXT
  5
16A
100
AcDbEntity
  8
PIN_NUMBERS_TOP
100
AcDbText
 10
-17.435864
 20
5.777496
 30
0.0
 40
0.508000
 41
1.000000
  1
22
  7
COURIER_NEW
 72
 1
 11
-17.0
 21
6.0
 31
0.0
100
AcDbText
 73
 2
  0
TEXT
  5
16B
100
AcDbEntity
  8
PIN_NUMBERS_TOP
100
AcDbText
 10
-17.435864
 20
6.777496
 30
0.0
 40
0.508000
 41
1.000000
  1
23
  7
COURIER_NEW
 72
 1
 11
-17.0
 21
7.0
 31
0.0
100
AcDbText
 73
 2
  0
TEXT
  5
16C
100
AcDbEntity
  8
PIN_NUMBERS_TOP
100
AcDbText
 10
-17.435864
 20
7.777496
 30
0.0
 40
0.508000
 41
1.000000
  1
24
  7
COURIER_NEW
 72
 1
 11
-17.0
 21
8.0
 31
0.0
100
AcDbText
 73
 2
  0
TEXT
  5
16D
100
AcDbEntity
  8
PIN_NUMBERS_TOP
100
AcDbText
 10
-17.435864
 20
8.777496
 30
0.0
 40
0.508000
 41
1.000000
  1
25
  7
COURIER_NEW
 72
 1
 11
-17.0
 21
9.0
 31
0.0
100
AcDbText
 73
 2
  0
TEXT
  5
16E
100
AcDbEntity
  8
PIN_NUMBERS_TOP
100
AcDbText
 10
-17.435864
 20
9.777496
 30
0.0
 40
0.508000
 41
1.000000
  1
26
  7
COURIER_NEW
 72
 1
 11
-17.0
 21
10.0
 31
0.0
100
AcDbText
 73
 2
  0
TEXT
  5
16F
100
AcDbEntity
  8
PIN_NUMBERS_TOP
100
AcDbText
 10
-17.435864
 20
10.777496
 30
0.0
 40
0.508000
 41
1.000000
  1
27
  7
COURIER_NEW
 72
 1
 11
-17.0
 21
11.0
 31
0.0
100
AcDbText
 73
 2
  0
TEXT
  5
170
100
AcDbEntity
  8
PIN_NUMBERS_TOP
100
AcDbText
 10
-17.435864
 20
11.777496
 30
0.0
 40
0.508000
 41
1.000000
  1
28
  7
COURIER_NEW
 72
 1
 11
-17.0
 21
12.0
 31
0.0
100
AcDbText
 73
 2
  0
TEXT
  5
171
100
AcDbEntity
  8
PIN_NUMBERS_TOP
100
AcDbText
 10
-17.435864
 20
12.777496
 30
0.0
 40
0.508000
 41
1.000000
  1
29
  7
COURIER_NEW
 72
 1
 11
-17.0
 21
13.0
 31
0.0
100
AcDbText
 73
 2
  0
TEXT
  5
172
100
AcDbEntity
  8
PIN_NUMBERS_TOP
100
AcDbText
 10
-17.435864
 20
13.777496
 30
0.0
 40
0.508000
 41
1.000000
  1
30
  7
COURIER_NEW
 72
 1
 11
-17.0
 21
14.0
 31
0.0
100
AcDbText
 73
 2
  0
TEXT
  5
173
100
AcDbEntity
  8
PIN_NUMBERS_TOP
100
AcDbText
 10
-17.435864
 20
14.777496
 30
0.0
 40
0.508000
 41
1.000000
  1
31
  7
COURIER_NEW
 72
 1
 11
-17.0
 21
15.0
 31
0.0
100
AcDbText
 73
 2
  0
LWPOLYLINE
  5
174
100
AcDbEntity
  8
SOLDERMASK_PADS_TOP
100
AcDbPolyline
 90
        4
 70
         1
 43
0.0
 10
10.6
 20
-0.75
 10
10.6
 20
0.75
 10
11.4
 20
0.75
 10
11.4
 20
-0.75
  0
LWPOLYLINE
  5
175
100
AcDbEntity
  8
SOLDERMASK_PADS_TOP
100
AcDbPolyline
 90
        4
 70
         1
 43
0.0
 10
8.6
 20
-0.75
 10
8.6
 20
0.75
 10
9.4
 20
0.75
 10
9.4
 20
-0.75
  0
LWPOLYLINE
  5
176
100
AcDbEntity
  8
SOLDERMASK_PADS_TOP
100
AcDbPolyline
 90
        4
 70
         1
 43
0.0
 10
6.6
 20
-0.75
 10
6.6
 20
0.75
 10
7.4
 20
0.75
 10
7.4
 20
-0.75
  0
LWPOLYLINE
  5
177
100
AcDbEntity
  8
SOLDERMASK_PADS_TOP
100
AcDbPolyline
 90
        4
 70
         1
 43
0.0
 10
-11.4
 20
-0.75
 10
-11.4
 20
0.75
 10
-10.6
 20
0.75
 10
-10.6
 20
-0.75
  0
LWPOLYLINE
  5
178
100
AcDbEntity
  8
SOLDERMASK_PADS_TOP
100
AcDbPolyline
 90
        4
 70
         1
 43
0.0
 10
-9.4
 20
-0.75
 10
-9.4
 20
0.75
 10
-8.6
 20
0.75
 10
-8.6
 20
-0.75
  0
LWPOLYLINE
  5
179
100
AcDbEntity
  8
SOLDERMASK_PADS_TOP
100
AcDbPolyline
 90
        4
 70
         1
 43
0.0
 10
-7.4
 20
-0.75
 10
-7.4
 20
0.75
 10
-6.6
 20
0.75
 10
-6.6
 20
-0.75
  0
LWPOLYLINE
  5
17A
100
AcDbEntity
  8
SOLDERMASK_PADS_TOP
100
AcDbPolyline
 90
        4
 70
         1
 43
0.0
 10
-13.75
 20
13.6
 10
-13.75
 20
14.4
 10
-12.25
 20
14.4
 10
-12.25
 20
13.6
  0
LWPOLYLINE
  5
17B
100
AcDbEntity
  8
SOLDERMASK_PADS_TOP
100
AcDbPolyline
 90
        4
 70
         1
 43
0.0
 10
-10.75
 20
13.6
 10
-10.75
 20
14.4
 10
-9.25
 20
14.4
 10
-9.25
 20
13.6
  0
LWPOLYLINE
  5
17C
100
AcDbEntity
  8
SOLDERMASK_PADS_TOP
100
AcDbPolyline
 90
        4
 70
         1
 43
0.0
 10
-10.75
 20
11.6
 10
-10.75
 20
12.4
 10
-9.25
 20
12.4
 10
-9.25
 20
11.6
  0
LWPOLYLINE
  5
17D
100
AcDbEntity
  8
SOLDERMASK_PADS_TOP
100
AcDbPolyline
 90
        4
 70
         1
 43
0.0
 10
-10.75
 20
9.6
 10
-10.75
 20
10.4
 10
-9.25
 20
10.4
 10
-9.25
 20
9.6
  0
LWPOLYLINE
  5
17E
100
AcDbEntity
  8
SOLDERMASK_PADS_TOP
100
AcDbPolyline
 90
        4
 70
         1
 43
0.0
 10
-13.75
 20
11.6
 10
-13.75
 20
12.4
 10
-12.25
 20
12.4
 10
-12.25
 20
11.6
  0
LWPOLYLINE
  5
17F
100
AcDbEntity
  8
SOLDERMASK_PADS_TOP
100
AcDbPolyline
 90
        4
 70
         1
 43
0.0
 10
-13.75
 20
9.6
 10
-13.75
 20
10.4
 10
-12.25
 20
10.4
 10
-12.25
 20
9.6
  0
LWPOLYLINE
  5
180
100
AcDbEntity
  8
SOLDERMASK_PADS_TOP
100
AcDbPolyline
 90
        4
 70
         1
 43
0.0
 10
-0.75
 20
10.6
 10
-0.75
 20
11.4
 10
0.75
 20
11.4
 10
0.75
 20
10.6
  0
LWPOLYLINE
  5
181
100
AcDbEntity
  8
SOLDERMASK_PADS_TOP
100
AcDbPolyline
 90
        4
 70
         1
 43
0.0
 10
-0.75
 20
8.6
 10
-0.75
 20
9.4
 10
0.75
 20
9.4
 10
0.75
 20
8.6
  0
LWPOLYLINE
  5
182
100
AcDbEntity
  8
SOLDERMASK_PADS_TOP
100
AcDbPolyline
 90
        4
 70
         1
 43
0.0
 10
-0.75
 20
6.6
 10
-0.75
 20
7.4
 10
0.75
 20
7.4
 10
0.75
 20
6.6
  0
LWPOLYLINE
  5
183
100
AcDbEntity
  8
SOLDERMASK_PADS_TOP
100
AcDbPolyline
 90
        4
 70
         1
 43
0.0
 10
9.25
 20
9.6
 10
9.25
 20
10.4
 10
10.75
 20
10.4
 10
10.75
 20
9.6
  0
LWPOLYLINE
  5
184
100
AcDbEntity
  8
SOLDERMASK_PADS_TOP
100
AcDbPolyline
 90
        4
 70
         1
 43
0.0
 10
12.25
 20
9.6
 10
12.25
 20
10.4
 10
13.75
 20
10.4
 10
13.75
 20
9.6
  0
LWPOLYLINE
  5
185
100
AcDbEntity
  8
SOLDERMASK_PADS_TOP
100
AcDbPolyline
 90
        4
 70
         1
 43
0.0
 10
9.25
 20
11.6
 10
9.25
 20
12.4
 10
10.75
 20
12.4
 10
10.75
 20
11.6
  0
LWPOLYLINE
  5
186
100
AcDbEntity
  8
SOLDERMASK_PADS_TOP
100
AcDbPolyline
 90
        4
 70
         1
 43
0.0
 10
9.25
 20
13.6
 10
9.25
 20
14.4
 10
10.75
 20
14.4
 10
10.75
 20
13.6
  0
LWPOLYLINE
  5
187
100
AcDbEntity
  8
SOLDERMASK_PADS_TOP
100
AcDbPolyline
 90
        4
 70
         1
 43
0.0
 10
12.25
 20
11.6
 10
12.25
 20
12.4
 10
13.75
 20
12.4
 10
13.75
 20
11.6
  0
LWPOLYLINE
  5
188
100
AcDbEntity
  8
SOLDERMASK_PADS_TOP
100
AcDbPolyline
 90
        4
 70
         1
 43
0.0
 10
12.25
 20
13.6
 10
12.25
 20
14.4
 10
13.75
 20
14.4
 10
13.75
 20
13.6
  0
LWPOLYLINE
  5
189
100
AcDbEntity
  8
SOLDERMASK_PADS_TOP
100
AcDbPolyline
 90
        4
 70
         1
 43
0.0
 10
-10.75
 20
-14.4
 10
-10.75
 20
-13.6
 10
-9.25
 20
-13.6
 10
-9.25
 20
-14.4
  0
LWPOLYLINE
  5
18A
100
AcDbEntity
  8
SOLDERMASK_PADS_TOP
100
AcDbPolyline
 90
        4
 70
         1
 43
0.0
 10
-13.75
 20
-12.4
 10
-13.75
 20
-11.6
 10
-12.25
 20
-11.6
 10
-12.25
 20
-12.4
  0
LWPOLYLINE
  5
18B
100
AcDbEntity
  8
SOLDERMASK_PADS_TOP
100
AcDbPolyline
 90
        4
 70
         1
 43
0.0
 10
-10.75
 20
-12.4
 10
-10.75
 20
-11.6
 10
-9.25
 20
-11.6
 10
-9.25
 20
-12.4
  0
LWPOLYLINE
  5
18C
100
AcDbEntity
  8
SOLDERMASK_PADS_TOP
100
AcDbPolyline
 90
        4
 70
         1
 43
0.0
 10
-13.75
 20
-10.4
 10
-13.75
 20
-9.6
 10
-12.25
 20
-9.6
 10
-12.25
 20
-10.4
  0
LWPOLYLINE
  5
18D
100
AcDbEntity
  8
SOLDERMASK_PADS_TOP
100
AcDbPolyline
 90
        4
 70
         1
 43
0.0
 10
-10.75
 20
-10.4
 10
-10.75
 20
-9.6
 10
-9.25
 20
-9.6
 10
-9.25
 20
-10.4
  0
LWPOLYLINE
  5
18E
100
AcDbEntity
  8
SOLDERMASK_PADS_TOP
100
AcDbPolyline
 90
        4
 70
         1
 43
0.0
 10
-0.75
 20
-11.4
 10
-0.75
 20
-10.6
 10
0.75
 20
-10.6
 10
0.75
 20
-11.4
  0
LWPOLYLINE
  5
18F
100
AcDbEntity
  8
SOLDERMASK_PADS_TOP
100
AcDbPolyline
 90
        4
 70
         1
 43
0.0
 10
-0.75
 20
-9.4
 10
-0.75
 20
-8.6
 10
0.75
 20
-8.6
 10
0.75
 20
-9.4
  0
LWPOLYLINE
  5
190
100
AcDbEntity
  8
SOLDERMASK_PADS_TOP
100
AcDbPolyline
 90
        4
 70
         1
 43
0.0
 10
-0.75
 20
-7.4
 10
-0.75
 20
-6.6
 10
0.75
 20
-6.6
 10
0.75
 20
-7.4
  0
LWPOLYLINE
  5
191
100
AcDbEntity
  8
SOLDERMASK_PADS_TOP
100
AcDbPolyline
 90
        4
 70
         1
 43
0.0
 10
9.25
 20
-14.4
 10
9.25
 20
-13.6
 10
10.75
 20
-13.6
 10
10.75
 20
-14.4
  0
LWPOLYLINE
  5
192
100
AcDbEntity
  8
SOLDERMASK_PADS_TOP
100
AcDbPolyline
 90
        4
 70
         1
 43
0.0
 10
12.25
 20
-14.4
 10
12.25
 20
-13.6
 10
13.75
 20
-13.6
 10
13.75
 20
-14.4
  0
LWPOLYLINE
  5
193
100
AcDbEntity
  8
SOLDERMASK_PADS_TOP
100
AcDbPolyline
 90
        4
 70
         1
 43
0.0
 10
9.25
 20
-12.4
 10
9.25
 20
-11.6
 10
10.75
 20
-11.6
 10
10.75
 20
-12.4
  0
LWPOLYLINE
  5
194
100
AcDbEntity
  8
SOLDERMASK_PADS_TOP
100
AcDbPolyline
 90
        4
 70
         1
 43
0.0
 10
12.25
 20
-12.4
 10
12.25
 20
-11.6
 10
13.75
 20
-11.6
 10
13.75
 20
-12.4
  0
LWPOLYLINE
  5
195
100
AcDbEntity
  8
SOLDERMASK_PADS_TOP
100
AcDbPolyline
 90
        4
 70
         1
 43
0.0
 10
9.25
 20
-10.4
 10
9.25
 20
-9.6
 10
10.75
 20
-9.6
 10
10.75
 20
-10.4
  0
LWPOLYLINE
  5
196
100
AcDbEntity
  8
SOLDERMASK_PADS_TOP
100
AcDbPolyline
 90
        4
 70
         1
 43
0.0
 10
12.25
 20
-10.4
 10
12.25
 20
-9.6
 10
13.75
 20
-9.6
 10
13.75
 20
-10.4
  0
LWPOLYLINE
  5
197
100
AcDbEntity
  8
SOLDERMASK_PADS_TOP
100
AcDbPolyline
 90
        4
 70
         1
 43
0.0
 10
-14.6
 20
16.0
 10
-15.4
 20
16.0
 10
-15.4
 20
17.5
 42
-1.000000
 10
-14.6
 20
17.5
  0
LWPOLYLINE
  5
198
100
AcDbEntity
  8
SOLDERMASK_PADS_TOP
100
AcDbPolyline
 90
        4
 70
         1
 43
0.0
 10
-13.6
 20
16.0
 10
-14.4
 20
16.0
 10
-14.4
 20
17.5
 42
-1.000000
 10
-13.6
 20
17.5
  0
LWPOLYLINE
  5
199
100
AcDbEntity
  8
SOLDERMASK_PADS_TOP
100
AcDbPolyline
 90
        4
 70
         1
 43
0.0
 10
-12.6
 20
16.0
 10
-13.4
 20
16.0
 10
-13.4
 20
17.5
 42
-1.000000
 10
-12.6
 20
17.5
  0
LWPOLYLINE
  5
19A
100
AcDbEntity
  8
SOLDERMASK_PADS_TOP
100
AcDbPolyline
 90
        4
 70
         1
 43
0.0
 10
-11.6
 20
16.0
 10
-12.4
 20
16.0
 10
-12.4
 20
17.5
 42
-1.000000
 10
-11.6
 20
17.5
  0
LWPOLYLINE
  5
19B
100
AcDbEntity
  8
SOLDERMASK_PADS_TOP
100
AcDbPolyline
 90
        4
 70
         1
 43
0.0
 10
-10.6
 20
16.0
 10
-11.4
 20
16.0
 10
-11.4
 20
17.5
 42
-1.000000
 10
-10.6
 20
17.5
  0
LWPOLYLINE
  5
19C
100
AcDbEntity
  8
SOLDERMASK_PADS_TOP
100
AcDbPolyline
 90
        4
 70
         1
 43
0.0
 10
-9.6
 20
16.0
 10
-10.4
 20
16.0
 10
-10.4
 20
17.5
 42
-1.000000
 10
-9.6
 20
17.5
  0
LWPOLYLINE
  5
19D
100
AcDbEntity
  8
SOLDERMASK_PADS_TOP
100
AcDbPolyline
 90
        4
 70
         1
 43
0.0
 10
-8.6
 20
16.0
 10
-9.4
 20
16.0
 10
-9.4
 20
17.5
 42
-1.000000
 10
-8.6
 20
17.5
  0
LWPOLYLINE
  5
19E
100
AcDbEntity
  8
SOLDERMASK_PADS_TOP
100
AcDbPolyline
 90
        4
 70
         1
 43
0.0
 10
-7.6
 20
16.0
 10
-8.4
 20
16.0
 10
-8.4
 20
17.5
 42
-1.000000
 10
-7.6
 20
17.5
  0
LWPOLYLINE
  5
19F
100
AcDbEntity
  8
SOLDERMASK_PADS_TOP
100
AcDbPolyline
 90
        4
 70
         1
 43
0.0
 10
-6.6
 20
16.0
 10
-7.4
 20
16.0
 10
-7.4
 20
17.5
 42
-1.000000
 10
-6.6
 20
17.5
  0
LWPOLYLINE
  5
1A0
100
AcDbEntity
  8
SOLDERMASK_PADS_TOP
100
AcDbPolyline
 90
        4
 70
         1
 43
0.0
 10
-5.6
 20
16.0
 10
-6.4
 20
16.0
 10
-6.4
 20
17.5
 42
-1.000000
 10
-5.6
 20
17.5
  0
LWPOLYLINE
  5
1A1
100
AcDbEntity
  8
SOLDERMASK_PADS_TOP
100
AcDbPolyline
 90
        4
 70
         1
 43
0.0
 10
-4.6
 20
16.0
 10
-5.4
 20
16.0
 10
-5.4
 20
17.5
 42
-1.000000
 10
-4.6
 20
17.5
  0
LWPOLYLINE
  5
1A2
100
AcDbEntity
  8
SOLDERMASK_PADS_TOP
100
AcDbPolyline
 90
        4
 70
         1
 43
0.0
 10
-3.6
 20
16.0
 10
-4.4
 20
16.0
 10
-4.4
 20
17.5
 42
-1.000000
 10
-3.6
 20
17.5
  0
LWPOLYLINE
  5
1A3
100
AcDbEntity
  8
SOLDERMASK_PADS_TOP
100
AcDbPolyline
 90
        4
 70
         1
 43
0.0
 10
-2.6
 20
16.0
 10
-3.4
 20
16.0
 10
-3.4
 20
17.5
 42
-1.000000
 10
-2.6
 20
17.5
  0
LWPOLYLINE
  5
1A4
100
AcDbEntity
  8
SOLDERMASK_PADS_TOP
100
AcDbPolyline
 90
        4
 70
         1
 43
0.0
 10
-1.6
 20
16.0
 10
-2.4
 20
16.0
 10
-2.4
 20
17.5
 42
-1.000000
 10
-1.6
 20
17.5
  0
LWPOLYLINE
  5
1A5
100
AcDbEntity
  8
SOLDERMASK_PADS_TOP
100
AcDbPolyline
 90
        4
 70
         1
 43
0.0
 10
-0.6
 20
16.0
 10
-1.4
 20
16.0
 10
-1.4
 20
17.5
 42
-1.000000
 10
-0.6
 20
17.5
  0
LWPOLYLINE
  5
1A6
100
AcDbEntity
  8
SOLDERMASK_PADS_TOP
100
AcDbPolyline
 90
        4
 70
         1
 43
0.0
 10
0.4
 20
16.0
 10
-0.4
 20
16.0
 10
-0.4
 20
17.5
 42
-1.000000
 10
0.4
 20
17.5
  0
LWPOLYLINE
  5
1A7
100
AcDbEntity
  8
SOLDERMASK_PADS_TOP
100
AcDbPolyline
 90
        4
 70
         1
 43
0.0
 10
1.4
 20
16.0
 10
0.6
 20
16.0
 10
0.6
 20
17.5
 42
-1.000000
 10
1.4
 20
17.5
  0
LWPOLYLINE
  5
1A8
100
AcDbEntity
  8
SOLDERMASK_PADS_TOP
100
AcDbPolyline
 90
        4
 70
         1
 43
0.0
 10
2.4
 20
16.0
 10
1.6
 20
16.0
 10
1.6
 20
17.5
 42
-1.000000
 10
2.4
 20
17.5
  0
LWPOLYLINE
  5
1A9
100
AcDbEntity
  8
SOLDERMASK_PADS_TOP
100
AcDbPolyline
 90
        4
 70
         1
 43
0.0
 10
3.4
 20
16.0
 10
2.6
 20
16.0
 10
2.6
 20
17.5
 42
-1.000000
 10
3.4
 20
17.5
  0
LWPOLYLINE
  5
1AA
100
AcDbEntity
  8
SOLDERMASK_PADS_TOP
100
AcDbPolyline
 90
        4
 70
         1
 43
0.0
 10
4.4
 20
16.0
 10
3.6
 20
16.0
 10
3.6
 20
17.5
 42
-1.000000
 10
4.4
 20
17.5
  0
LWPOLYLINE
  5
1AB
100
AcDbEntity
  8
SOLDERMASK_PADS_TOP
100
AcDbPolyline
 90
        4
 70
         1
 43
0.0
 10
5.4
 20
16.0
 10
4.6
 20
16.0
 10
4.6
 20
17.5
 42
-1.000000
 10
5.4
 20
17.5
  0
LWPOLYLINE
  5
1AC
100
AcDbEntity
  8
SOLDERMASK_PADS_TOP
100
AcDbPolyline
 90
        4
 70
         1
 43
0.0
 10
6.4
 20
16.0
 10
5.6
 20
16.0
 10
5.6
 20
17.5
 42
-1.000000
 10
6.4
 20
17.5
  0
LWPOLYLINE
  5
1AD
100
AcDbEntity
  8
SOLDERMASK_PADS_TOP
100
AcDbPolyline
 90
        4
 70
         1
 43
0.0
 10
7.4
 20
16.0
 10
6.6
 20
16.0
 10
6.6
 20
17.5
 42
-1.000000
 10
7.4
 20
17.5
  0
LWPOLYLINE
  5
1AE
100
AcDbEntity
  8
SOLDERMASK_PADS_TOP
100
AcDbPolyline
 90
        4
 70
         1
 43
0.0
 10
8.4
 20
16.0
 10
7.6
 20
16.0
 10
7.6
 20
17.5
 42
-1.000000
 10
8.4
 20
17.5
  0
LWPOLYLINE
  5
1AF
100
AcDbEntity
  8
SOLDERMASK_PADS_TOP
100
AcDbPolyline
 90
        4
 70
         1
 43
0.0
 10
9.4
 20
16.0
 10
8.6
 20
16.0
 10
8.6
 20
17.5
 42
-1.000000
 10
9.4
 20
17.5
  0
LWPOLYLINE
  5
1B0
100
AcDbEntity
  8
SOLDERMASK_PADS_TOP
100
AcDbPolyline
 90
        4
 70
         1
 43
0.0
 10
10.4
 20
16.0
 10
9.6
 20
16.0
 10
9.6
 20
17.5
 42
-1.000000
 10
10.4
 20
17.5
  0
LWPOLYLINE
  5
1B1
100
AcDbEntity
  8
SOLDERMASK_PADS_TOP
100
AcDbPolyline
 90
        4
 70
         1
 43
0.0
 10
11.4
 20
16.0
 10
10.6
 20
16.0
 10
10.6
 20
17.5
 42
-1.000000
 10
11.4
 20
17.5
  0
LWPOLYLINE
  5
1B2
100
AcDbEntity
  8
SOLDERMASK_PADS_TOP
100
AcDbPolyline
 90
        4
 70
         1
 43
0.0
 10
12.4
 20
16.0
 10
11.6
 20
16.0
 10
11.6
 20
17.5
 42
-1.000000
 10
12.4
 20
17.5
  0
LWPOLYLINE
  5
1B3
100
AcDbEntity
  8
SOLDERMASK_PADS_TOP
100
AcDbPolyline
 90
        4
 70
         1
 43
0.0
 10
13.4
 20
16.0
 10
12.6
 20
16.0
 10
12.6
 20
17.5
 42
-1.000000
 10
13.4
 20
17.5
  0
LWPOLYLINE
  5
1B4
100
AcDbEntity
  8
SOLDERMASK_PADS_TOP
100
AcDbPolyline
 90
        4
 70
         1
 43
0.0
 10
14.4
 20
16.0
 10
13.6
 20
16.0
 10
13.6
 20
17.5
 42
-1.000000
 10
14.4
 20
17.5
  0
LWPOLYLINE
  5
1B5
100
AcDbEntity
  8
SOLDERMASK_PADS_TOP
100
AcDbPolyline
 90
        4
 70
         1
 43
0.0
 10
15.4
 20
16.0
 10
14.6
 20
16.0
 10
14.6
 20
17.5
 42
-1.000000
 10
15.4
 20
17.5
  0
LWPOLYLINE
  5
1B6
100
AcDbEntity
  8
SOLDERMASK_PADS_TOP
100
AcDbPolyline
 90
        4
 70
         1
 43
0.0
 10
14.6
 20
-16.0
 10
15.4
 20
-16.0
 10
15.4
 20
-17.5
 42
-1.000000
 10
14.6
 20
-17.5
  0
LWPOLYLINE
  5
1B7
100
AcDbEntity
  8
SOLDERMASK_PADS_TOP
100
AcDbPolyline
 90
        4
 70
         1
 43
0.0
 10
13.6
 20
-16.0
 10
14.4
 20
-16.0
 10
14.4
 20
-17.5
 42
-1.000000
 10
13.6
 20
-17.5
  0
LWPOLYLINE
  5
1B8
100
AcDbEntity
  8
SOLDERMASK_PADS_TOP
100
AcDbPolyline
 90
        4
 70
         1
 43
0.0
 10
12.6
 20
-16.0
 10
13.4
 20
-16.0
 10
13.4
 20
-17.5
 42
-1.000000
 10
12.6
 20
-17.5
  0
LWPOLYLINE
  5
1B9
100
AcDbEntity
  8
SOLDERMASK_PADS_TOP
100
AcDbPolyline
 90
        4
 70
         1
 43
0.0
 10
11.6
 20
-16.0
 10
12.4
 20
-16.0
 10
12.4
 20
-17.5
 42
-1.000000
 10
11.6
 20
-17.5
  0
LWPOLYLINE
  5
1BA
100
AcDbEntity
  8
SOLDERMASK_PADS_TOP
100
AcDbPolyline
 90
        4
 70
         1
 43
0.0
 10
10.6
 20
-16.0
 10
11.4
 20
-16.0
 10
11.4
 20
-17.5
 42
-1.000000
 10
10.6
 20
-17.5
  0
LWPOLYLINE
  5
1BB
100
AcDbEntity
  8
SOLDERMASK_PADS_TOP
100
AcDbPolyline
 90
        4
 70
         1
 43
0.0
 10
9.6
 20
-16.0
 10
10.4
 20
-16.0
 10
10.4
 20
-17.5
 42
-1.000000
 10
9.6
 20
-17.5
  0
LWPOLYLINE
  5
1BC
100
AcDbEntity
  8
SOLDERMASK_PADS_TOP
100
AcDbPolyline
 90
        4
 70
         1
 43
0.0
 10
8.6
 20
-16.0
 10
9.4
 20
-16.0
 10
9.4
 20
-17.5
 42
-1.000000
 10
8.6
 20
-17.5
  0
LWPOLYLINE
  5
1BD
100
AcDbEntity
  8
SOLDERMASK_PADS_TOP
100
AcDbPolyline
 90
        4
 70
         1
 43
0.0
 10
7.6
 20
-16.0
 10
8.4
 20
-16.0
 10
8.4
 20
-17.5
 42
-1.000000
 10
7.6
 20
-17.5
  0
LWPOLYLINE
  5
1BE
100
AcDbEntity
  8
SOLDERMASK_PADS_TOP
100
AcDbPolyline
 90
        4
 70
         1
 43
0.0
 10
6.6
 20
-16.0
 10
7.4
 20
-16.0
 10
7.4
 20
-17.5
 42
-1.000000
 10
6.6
 20
-17.5
  0
LWPOLYLINE
  5
1BF
100
AcDbEntity
  8
SOLDERMASK_PADS_TOP
100
AcDbPolyline
 90
        4
 70
         1
 43
0.0
 10
5.6
 20
-16.0
 10
6.4
 20
-16.0
 10
6.4
 20
-17.5
 42
-1.000000
 10
5.6
 20
-17.5
  0
LWPOLYLINE
  5
1C0
100
AcDbEntity
  8
SOLDERMASK_PADS_TOP
100
AcDbPolyline
 90
        4
 70
         1
 43
0.0
 10
4.6
 20
-16.0
 10
5.4
 20
-16.0
 10
5.4
 20
-17.5
 42
-1.000000
 10
4.6
 20
-17.5
  0
LWPOLYLINE
  5
1C1
100
AcDbEntity
  8
SOLDERMASK_PADS_TOP
100
AcDbPolyline
 90
        4
 70
         1
 43
0.0
 10
3.6
 20
-16.0
 10
4.4
 20
-16.0
 10
4.4
 20
-17.5
 42
-1.000000
 10
3.6
 20
-17.5
  0
LWPOLYLINE
  5
1C2
100
AcDbEntity
  8
SOLDERMASK_PADS_TOP
100
AcDbPolyline
 90
        4
 70
         1
 43
0.0
 10
2.6
 20
-16.0
 10
3.4
 20
-16.0
 10
3.4
 20
-17.5
 42
-1.000000
 10
2.6
 20
-17.5
  0
LWPOLYLINE
  5
1C3
100
AcDbEntity
  8
SOLDERMASK_PADS_TOP
100
AcDbPolyline
 90
        4
 70
         1
 43
0.0
 10
1.6
 20
-16.0
 10
2.4
 20
-16.0
 10
2.4
 20
-17.5
 42
-1.000000
 10
1.6
 20
-17.5
  0
LWPOLYLINE
  5
1C4
100
AcDbEntity
  8
SOLDERMASK_PADS_TOP
100
AcDbPolyline
 90
        4
 70
         1
 43
0.0
 10
0.6
 20
-16.0
 10
1.4
 20
-16.0
 10
1.4
 20
-17.5
 42
-1.000000
 10
0.6
 20
-17.5
  0
LWPOLYLINE
  5
1C5
100
AcDbEntity
  8
SOLDERMASK_PADS_TOP
100
AcDbPolyline
 90
        4
 70
         1
 43
0.0
 10
-0.4
 20
-16.0
 10
0.4
 20
-16.0
 10
0.4
 20
-17.5
 42
-1.000000
 10
-0.4
 20
-17.5
  0
LWPOLYLINE
  5
1C6
100
AcDbEntity
  8
SOLDERMASK_PADS_TOP
100
AcDbPolyline
 90
        4
 70
         1
 43
0.0
 10
-1.4
 20
-16.0
 10
-0.6
 20
-16.0
 10
-0.6
 20
-17.5
 42
-1.000000
 10
-1.4
 20
-17.5
  0
LWPOLYLINE
  5
1C7
100
AcDbEntity
  8
SOLDERMASK_PADS_TOP
100
AcDbPolyline
 90
        4
 70
         1
 43
0.0
 10
-2.4
 20
-16.0
 10
-1.6
 20
-16.0
 10
-1.6
 20
-17.5
 42
-1.000000
 10
-2.4
 20
-17.5
  0
LWPOLYLINE
  5
1C8
100
AcDbEntity
  8
SOLDERMASK_PADS_TOP
100
AcDbPolyline
 90
        4
 70
         1
 43
0.0
 10
-3.4
 20
-16.0
 10
-2.6
 20
-16.0
 10
-2.6
 20
-17.5
 42
-1.000000
 10
-3.4
 20
-17.5
  0
LWPOLYLINE
  5
1C9
100
AcDbEntity
  8
SOLDERMASK_PADS_TOP
100
AcDbPolyline
 90
        4
 70
         1
 43
0.0
 10
-4.4
 20
-16.0
 10
-3.6
 20
-16.0
 10
-3.6
 20
-17.5
 42
-1.000000
 10
-4.4
 20
-17.5
  0
LWPOLYLINE
  5
1CA
100
AcDbEntity
  8
SOLDERMASK_PADS_TOP
100
AcDbPolyline
 90
        4
 70
         1
 43
0.0
 10
-5.4
 20
-16.0
 10
-4.6
 20
-16.0
 10
-4.6
 20
-17.5
 42
-1.000000
 10
-5.4
 20
-17.5
  0
LWPOLYLINE
  5
1CB
100
AcDbEntity
  8
SOLDERMASK_PADS_TOP
100
AcDbPolyline
 90
        4
 70
         1
 43
0.0
 10
-6.4
 20
-16.0
 10
-5.6
 20
-16.0
 10
-5.6
 20
-17.5
 42
-1.000000
 10
-6.4
 20
-17.5
  0
LWPOLYLINE
  5
1CC
100
AcDbEntity
  8
SOLDERMASK_PADS_TOP
100
AcDbPolyline
 90
        4
 70
         1
 43
0.0
 10
-7.4
 20
-16.0
 10
-6.6
 20
-16.0
 10
-6.6
 20
-17.5
 42
-1.000000
 10
-7.4
 20
-17.5
  0
LWPOLYLINE
  5
1CD
100
AcDbEntity
  8
SOLDERMASK_PADS_TOP
100
AcDbPolyline
 90
        4
 70
         1
 43
0.0
 10
-8.4
 20
-16.0
 10
-7.6
 20
-16.0
 10
-7.6
 20
-17.5
 42
-1.000000
 10
-8.4
 20
-17.5
  0
LWPOLYLINE
  5
1CE
100
AcDbEntity
  8
SOLDERMASK_PADS_TOP
100
AcDbPolyline
 90
        4
 70
         1
 43
0.0
 10
-9.4
 20
-16.0
 10
-8.6
 20
-16.0
 10
-8.6
 20
-17.5
 42
-1.000000
 10
-9.4
 20
-17.5
  0
LWPOLYLINE
  5
1CF
100
AcDbEntity
  8
SOLDERMASK_PADS_TOP
100
AcDbPolyline
 90
        4
 70
         1
 43
0.0
 10
-10.4
 20
-16.0
 10
-9.6
 20
-16.0
 10
-9.6
 20
-17.5
 42
-1.000000
 10
-10.4
 20
-17.5
  0
LWPOLYLINE
  5
1D0
100
AcDbEntity
  8
SOLDERMASK_PADS_TOP
100
AcDbPolyline
 90
        4
 70
         1
 43
0.0
 10
-11.4
 20
-16.0
 10
-10.6
 20
-16.0
 10
-10.6
 20
-17.5
 42
-1.000000
 10
-11.4
 20
-17.5
  0
LWPOLYLINE
  5
1D1
100
AcDbEntity
  8
SOLDERMASK_PADS_TOP
100
AcDbPolyline
 90
        4
 70
         1
 43
0.0
 10
-12.4
 20
-16.0
 10
-11.6
 20
-16.0
 10
-11.6
 20
-17.5
 42
-1.000000
 10
-12.4
 20
-17.5
  0
LWPOLYLINE
  5
1D2
100
AcDbEntity
  8
SOLDERMASK_PADS_TOP
100
AcDbPolyline
 90
        4
 70
         1
 43
0.0
 10
-13.4
 20
-16.0
 10
-12.6
 20
-16.0
 10
-12.6
 20
-17.5
 42
-1.000000
 10
-13.4
 20
-17.5
  0
LWPOLYLINE
  5
1D3
100
AcDbEntity
  8
SOLDERMASK_PADS_TOP
100
AcDbPolyline
 90
        4
 70
         1
 43
0.0
 10
-14.4
 20
-16.0
 10
-13.6
 20
-16.0
 10
-13.6
 20
-17.5
 42
-1.000000
 10
-14.4
 20
-17.5
  0
LWPOLYLINE
  5
1D4
100
AcDbEntity
  8
SOLDERMASK_PADS_TOP
100
AcDbPolyline
 90
        4
 70
         1
 43
0.0
 10
-15.4
 20
-16.0
 10
-14.6
 20
-16.0
 10
-14.6
 20
-17.5
 42
-1.000000
 10
-15.4
 20
-17.5
  0
LWPOLYLINE
  5
1D5
100
AcDbEntity
  8
SOLDERMASK_PADS_TOP
100
AcDbPolyline
 90
        4
 70
         1
 43
0.0
 10
16.0
 20
14.6
 10
16.0
 20
15.4
 10
17.5
 20
15.4
 42
-1.000000
 10
17.5
 20
14.6
  0
LWPOLYLINE
  5
1D6
100
AcDbEntity
  8
SOLDERMASK_PADS_TOP
100
AcDbPolyline
 90
        4
 70
         1
 43
0.0
 10
16.0
 20
13.6
 10
16.0
 20
14.4
 10
17.5
 20
14.4
 42
-1.000000
 10
17.5
 20
13.6
  0
LWPOLYLINE
  5
1D7
100
AcDbEntity
  8
SOLDERMASK_PADS_TOP
100
AcDbPolyline
 90
        4
 70
         1
 43
0.0
 10
16.0
 20
12.6
 10
16.0
 20
13.4
 10
17.5
 20
13.4
 42
-1.000000
 10
17.5
 20
12.6
  0
LWPOLYLINE
  5
1D8
100
AcDbEntity
  8
SOLDERMASK_PADS_TOP
100
AcDbPolyline
 90
        4
 70
         1
 43
0.0
 10
16.0
 20
11.6
 10
16.0
 20
12.4
 10
17.5
 20
12.4
 42
-1.000000
 10
17.5
 20
11.6
  0
LWPOLYLINE
  5
1D9
100
AcDbEntity
  8
SOLDERMASK_PADS_TOP
100
AcDbPolyline
 90
        4
 70
         1
 43
0.0
 10
16.0
 20
10.6
 10
16.0
 20
11.4
 10
17.5
 20
11.4
 42
-1.000000
 10
17.5
 20
10.6
  0
LWPOLYLINE
  5
1DA
100
AcDbEntity
  8
SOLDERMASK_PADS_TOP
100
AcDbPolyline
 90
        4
 70
         1
 43
0.0
 10
16.0
 20
9.6
 10
16.0
 20
10.4
 10
17.5
 20
10.4
 42
-1.000000
 10
17.5
 20
9.6
  0
LWPOLYLINE
  5
1DB
100
AcDbEntity
  8
SOLDERMASK_PADS_TOP
100
AcDbPolyline
 90
        4
 70
         1
 43
0.0
 10
16.0
 20
8.6
 10
16.0
 20
9.4
 10
17.5
 20
9.4
 42
-1.000000
 10
17.5
 20
8.6
  0
LWPOLYLINE
  5
1DC
100
AcDbEntity
  8
SOLDERMASK_PADS_TOP
100
AcDbPolyline
 90
        4
 70
         1
 43
0.0
 10
16.0
 20
7.6
 10
16.0
 20
8.4
 10
17.5
 20
8.4
 42
-1.000000
 10
17.5
 20
7.6
  0
LWPOLYLINE
  5
1DD
100
AcDbEntity
  8
SOLDERMASK_PADS_TOP
100
AcDbPolyline
 90
        4
 70
         1
 43
0.0
 10
16.0
 20
6.6
 10
16.0
 20
7.4
 10
17.5
 20
7.4
 42
-1.000000
 10
17.5
 20
6.6
  0
LWPOLYLINE
  5
1DE
100
AcDbEntity
  8
SOLDERMASK_PADS_TOP
100
AcDbPolyline
 90
        4
 70
         1
 43
0.0
 10
16.0
 20
5.6
 10
16.0
 20
6.4
 10
17.5
 20
6.4
 42
-1.000000
 10
17.5
 20
5.6
  0
LWPOLYLINE
  5
1DF
100
AcDbEntity
  8
SOLDERMASK_PADS_TOP
100
AcDbPolyline
 90
        4
 70
         1
 43
0.0
 10
16.0
 20
4.6
 10
16.0
 20
5.4
 10
17.5
 20
5.4
 42
-1.000000
 10
17.5
 20
4.6
  0
LWPOLYLINE
  5
1E0
100
AcDbEntity
  8
SOLDERMASK_PADS_TOP
100
AcDbPolyline
 90
        4
 70
         1
 43
0.0
 10
16.0
 20
3.6
 10
16.0
 20
4.4
 10
17.5
 20
4.4
 42
-1.000000
 10
17.5
 20
3.6
  0
LWPOLYLINE
  5
1E1
100
AcDbEntity
  8
SOLDERMASK_PADS_TOP
100
AcDbPolyline
 90
        4
 70
         1
 43
0.0
 10
16.0
 20
2.6
 10
16.0
 20
3.4
 10
17.5
 20
3.4
 42
-1.000000
 10
17.5
 20
2.6
  0
LWPOLYLINE
  5
1E2
100
AcDbEntity
  8
SOLDERMASK_PADS_TOP
100
AcDbPolyline
 90
        4
 70
         1
 43
0.0
 10
16.0
 20
1.6
 10
16.0
 20
2.4
 10
17.5
 20
2.4
 42
-1.000000
 10
17.5
 20
1.6
  0
LWPOLYLINE
  5
1E3
100
AcDbEntity
  8
SOLDERMASK_PADS_TOP
100
AcDbPolyline
 90
        4
 70
         1
 43
0.0
 10
16.0
 20
0.6
 10
16.0
 20
1.4
 10
17.5
 20
1.4
 42
-1.000000
 10
17.5
 20
0.6
  0
LWPOLYLINE
  5
1E4
100
AcDbEntity
  8
SOLDERMASK_PADS_TOP
100
AcDbPolyline
 90
        4
 70
         1
 43
0.0
 10
16.0
 20
-0.4
 10
16.0
 20
0.4
 10
17.5
 20
0.4
 42
-1.000000
 10
17.5
 20
-0.4
  0
LWPOLYLINE
  5
1E5
100
AcDbEntity
  8
SOLDERMASK_PADS_TOP
100
AcDbPolyline
 90
        4
 70
         1
 43
0.0
 10
16.0
 20
-1.4
 10
16.0
 20
-0.6
 10
17.5
 20
-0.6
 42
-1.000000
 10
17.5
 20
-1.4
  0
LWPOLYLINE
  5
1E6
100
AcDbEntity
  8
SOLDERMASK_PADS_TOP
100
AcDbPolyline
 90
        4
 70
         1
 43
0.0
 10
16.0
 20
-2.4
 10
16.0
 20
-1.6
 10
17.5
 20
-1.6
 42
-1.000000
 10
17.5
 20
-2.4
  0
LWPOLYLINE
  5
1E7
100
AcDbEntity
  8
SOLDERMASK_PADS_TOP
100
AcDbPolyline
 90
        4
 70
         1
 43
0.0
 10
16.0
 20
-3.4
 10
16.0
 20
-2.6
 10
17.5
 20
-2.6
 42
-1.000000
 10
17.5
 20
-3.4
  0
LWPOLYLINE
  5
1E8
100
AcDbEntity
  8
SOLDERMASK_PADS_TOP
100
AcDbPolyline
 90
        4
 70
         1
 43
0.0
 10
16.0
 20
-4.4
 10
16.0
 20
-3.6
 10
17.5
 20
-3.6
 42
-1.000000
 10
17.5
 20
-4.4
  0
LWPOLYLINE
  5
1E9
100
AcDbEntity
  8
SOLDERMASK_PADS_TOP
100
AcDbPolyline
 90
        4
 70
         1
 43
0.0
 10
16.0
 20
-5.4
 10
16.0
 20
-4.6
 10
17.5
 20
-4.6
 42
-1.000000
 10
17.5
 20
-5.4
  0
LWPOLYLINE
  5
1EA
100
AcDbEntity
  8
SOLDERMASK_PADS_TOP
100
AcDbPolyline
 90
        4
 70
         1
 43
0.0
 10
16.0
 20
-6.4
 10
16.0
 20
-5.6
 10
17.5
 20
-5.6
 42
-1.000000
 10
17.5
 20
-6.4
  0
LWPOLYLINE
  5
1EB
100
AcDbEntity
  8
SOLDERMASK_PADS_TOP
100
AcDbPolyline
 90
        4
 70
         1
 43
0.0
 10
16.0
 20
-7.4
 10
16.0
 20
-6.6
 10
17.5
 20
-6.6
 42
-1.000000
 10
17.5
 20
-7.4
  0
LWPOLYLINE
  5
1EC
100
AcDbEntity
  8
SOLDERMASK_PADS_TOP
100
AcDbPolyline
 90
        4
 70
         1
 43
0.0
 10
16.0
 20
-8.4
 10
16.0
 20
-7.6
 10
17.5
 20
-7.6
 42
-1.000000
 10
17.5
 20
-8.4
  0
LWPOLYLINE
  5
1ED
100
AcDbEntity
  8
SOLDERMASK_PADS_TOP
100
AcDbPolyline
 90
        4
 70
         1
 43
0.0
 10
16.0
 20
-9.4
 10
16.0
 20
-8.6
 10
17.5
 20
-8.6
 42
-1.000000
 10
17.5
 20
-9.4
  0
LWPOLYLINE
  5
1EE
100
AcDbEntity
  8
SOLDERMASK_PADS_TOP
100
AcDbPolyline
 90
        4
 70
         1
 43
0.0
 10
16.0
 20
-10.4
 10
16.0
 20
-9.6
 10
17.5
 20
-9.6
 42
-1.000000
 10
17.5
 20
-10.4
  0
LWPOLYLINE
  5
1EF
100
AcDbEntity
  8
SOLDERMASK_PADS_TOP
100
AcDbPolyline
 90
        4
 70
         1
 43
0.0
 10
16.0
 20
-11.4
 10
16.0
 20
-10.6
 10
17.5
 20
-10.6
 42
-1.000000
 10
17.5
 20
-11.4
  0
LWPOLYLINE
  5
1F0
100
AcDbEntity
  8
SOLDERMASK_PADS_TOP
100
AcDbPolyline
 90
        4
 70
         1
 43
0.0
 10
16.0
 20
-12.4
 10
16.0
 20
-11.6
 10
17.5
 20
-11.6
 42
-1.000000
 10
17.5
 20
-12.4
  0
LWPOLYLINE
  5
1F1
100
AcDbEntity
  8
SOLDERMASK_PADS_TOP
100
AcDbPolyline
 90
        4
 70
         1
 43
0.0
 10
16.0
 20
-13.4
 10
16.0
 20
-12.6
 10
17.5
 20
-12.6
 42
-1.000000
 10
17.5
 20
-13.4
  0
LWPOLYLINE
  5
1F2
100
AcDbEntity
  8
SOLDERMASK_PADS_TOP
100
AcDbPolyline
 90
        4
 70
         1
 43
0.0
 10
16.0
 20
-14.4
 10
16.0
 20
-13.6
 10
17.5
 20
-13.6
 42
-1.000000
 10
17.5
 20
-14.4
  0
LWPOLYLINE
  5
1F3
100
AcDbEntity
  8
SOLDERMASK_PADS_TOP
100
AcDbPolyline
 90
        4
 70
         1
 43
0.0
 10
16.0
 20
-15.4
 10
16.0
 20
-14.6
 10
17.5
 20
-14.6
 42
-1.000000
 10
17.5
 20
-15.4
  0
LWPOLYLINE
  5
1F4
100
AcDbEntity
  8
SOLDERMASK_PADS_TOP
100
AcDbPolyline
 90
        4
 70
         1
 43
0.0
 10
-16.0
 20
-14.6
 10
-16.0
 20
-15.4
 10
-17.5
 20
-15.4
 42
-1.000000
 10
-17.5
 20
-14.6
  0
LWPOLYLINE
  5
1F5
100
AcDbEntity
  8
SOLDERMASK_PADS_TOP
100
AcDbPolyline
 90
        4
 70
         1
 43
0.0
 10
-16.0
 20
-13.6
 10
-16.0
 20
-14.4
 10
-17.5
 20
-14.4
 42
-1.000000
 10
-17.5
 20
-13.6
  0
LWPOLYLINE
  5
1F6
100
AcDbEntity
  8
SOLDERMASK_PADS_TOP
100
AcDbPolyline
 90
        4
 70
         1
 43
0.0
 10
-16.0
 20
-12.6
 10
-16.0
 20
-13.4
 10
-17.5
 20
-13.4
 42
-1.000000
 10
-17.5
 20
-12.6
  0
LWPOLYLINE
  5
1F7
100
AcDbEntity
  8
SOLDERMASK_PADS_TOP
100
AcDbPolyline
 90
        4
 70
         1
 43
0.0
 10
-16.0
 20
-11.6
 10
-16.0
 20
-12.4
 10
-17.5
 20
-12.4
 42
-1.000000
 10
-17.5
 20
-11.6
  0
LWPOLYLINE
  5
1F8
100
AcDbEntity
  8
SOLDERMASK_PADS_TOP
100
AcDbPolyline
 90
        4
 70
         1
 43
0.0
 10
-16.0
 20
-10.6
 10
-16.0
 20
-11.4
 10
-17.5
 20
-11.4
 42
-1.000000
 10
-17.5
 20
-10.6
  0
LWPOLYLINE
  5
1F9
100
AcDbEntity
  8
SOLDERMASK_PADS_TOP
100
AcDbPolyline
 90
        4
 70
         1
 43
0.0
 10
-16.0
 20
-9.6
 10
-16.0
 20
-10.4
 10
-17.5
 20
-10.4
 42
-1.000000
 10
-17.5
 20
-9.6
  0
LWPOLYLINE
  5
1FA
100
AcDbEntity
  8
SOLDERMASK_PADS_TOP
100
AcDbPolyline
 90
        4
 70
         1
 43
0.0
 10
-16.0
 20
-8.6
 10
-16.0
 20
-9.4
 10
-17.5
 20
-9.4
 42
-1.000000
 10
-17.5
 20
-8.6
  0
LWPOLYLINE
  5
1FB
100
AcDbEntity
  8
SOLDERMASK_PADS_TOP
100
AcDbPolyline
 90
        4
 70
         1
 43
0.0
 10
-16.0
 20
-7.6
 10
-16.0
 20
-8.4
 10
-17.5
 20
-8.4
 42
-1.000000
 10
-17.5
 20
-7.6
  0
LWPOLYLINE
  5
1FC
100
AcDbEntity
  8
SOLDERMASK_PADS_TOP
100
AcDbPolyline
 90
        4
 70
         1
 43
0.0
 10
-16.0
 20
-6.6
 10
-16.0
 20
-7.4
 10
-17.5
 20
-7.4
 42
-1.000000
 10
-17.5
 20
-6.6
  0
LWPOLYLINE
  5
1FD
100
AcDbEntity
  8
SOLDERMASK_PADS_TOP
100
AcDbPolyline
 90
        4
 70
         1
 43
0.0
 10
-16.0
 20
-5.6
 10
-16.0
 20
-6.4
 10
-17.5
 20
-6.4
 42
-1.000000
 10
-17.5
 20
-5.6
  0
LWPOLYLINE
  5
1FE
100
AcDbEntity
  8
SOLDERMASK_PADS_TOP
100
AcDbPolyline
 90
        4
 70
         1
 43
0.0
 10
-16.0
 20
-4.6
 10
-16.0
 20
-5.4
 10
-17.5
 20
-5.4
 42
-1.000000
 10
-17.5
 20
-4.6
  0
LWPOLYLINE
  5
1FF
100
AcDbEntity
  8
SOLDERMASK_PADS_TOP
100
AcDbPolyline
 90
        4
 70
         1
 43
0.0
 10
-16.0
 20
-3.6
 10
-16.0
 20
-4.4
 10
-17.5
 20
-4.4
 42
-1.000000
 10
-17.5
 20
-3.6
  0
LWPOLYLINE
  5
200
100
AcDbEntity
  8
SOLDERMASK_PADS_TOP
100
AcDbPolyline
 90
        4
 70
         1
 43
0.0
 10
-16.0
 20
-2.6
 10
-16.0
 20
-3.4
 10
-17.5
 20
-3.4
 42
-1.000000
 10
-17.5
 20
-2.6
  0
LWPOLYLINE
  5
201
100
AcDbEntity
  8
SOLDERMASK_PADS_TOP
100
AcDbPolyline
 90
        4
 70
         1
 43
0.0
 10
-16.0
 20
-1.6
 10
-16.0
 20
-2.4
 10
-17.5
 20
-2.4
 42
-1.000000
 10
-17.5
 20
-1.6
  0
LWPOLYLINE
  5
202
100
AcDbEntity
  8
SOLDERMASK_PADS_TOP
100
AcDbPolyline
 90
        4
 70
         1
 43
0.0
 10
-16.0
 20
-0.6
 10
-16.0
 20
-1.4
 10
-17.5
 20
-1.4
 42
-1.000000
 10
-17.5
 20
-0.6
  0
LWPOLYLINE
  5
203
100
AcDbEntity
  8
SOLDERMASK_PADS_TOP
100
AcDbPolyline
 90
        4
 70
         1
 43
0.0
 10
-16.0
 20
0.4
 10
-16.0
 20
-0.4
 10
-17.5
 20
-0.4
 42
-1.000000
 10
-17.5
 20
0.4
  0
LWPOLYLINE
  5
204
100
AcDbEntity
  8
SOLDERMASK_PADS_TOP
100
AcDbPolyline
 90
        4
 70
         1
 43
0.0
 10
-16.0
 20
1.4
 10
-16.0
 20
0.6
 10
-17.5
 20
0.6
 42
-1.000000
 10
-17.5
 20
1.4
  0
LWPOLYLINE
  5
205
100
AcDbEntity
  8
SOLDERMASK_PADS_TOP
100
AcDbPolyline
 90
        4
 70
         1
 43
0.0
 10
-16.0
 20
2.4
 10
-16.0
 20
1.6
 10
-17.5
 20
1.6
 42
-1.000000
 10
-17.5
 20
2.4
  0
LWPOLYLINE
  5
206
100
AcDbEntity
  8
SOLDERMASK_PADS_TOP
100
AcDbPolyline
 90
        4
 70
         1
 43
0.0
 10
-16.0
 20
3.4
 10
-16.0
 20
2.6
 10
-17.5
 20
2.6
 42
-1.000000
 10
-17.5
 20
3.4
  0
LWPOLYLINE
  5
207
100
AcDbEntity
  8
SOLDERMASK_PADS_TOP
100
AcDbPolyline
 90
        4
 70
         1
 43
0.0
 10
-16.0
 20
4.4
 10
-16.0
 20
3.6
 10
-17.5
 20
3.6
 42
-1.000000
 10
-17.5
 20
4.4
  0
LWPOLYLINE
  5
208
100
AcDbEntity
  8
SOLDERMASK_PADS_TOP
100
AcDbPolyline
 90
        4
 70
         1
 43
0.0
 10
-16.0
 20
5.4
 10
-16.0
 20
4.6
 10
-17.5
 20
4.6
 42
-1.000000
 10
-17.5
 20
5.4
  0
LWPOLYLINE
  5
209
100
AcDbEntity
  8
SOLDERMASK_PADS_TOP
100
AcDbPolyline
 90
        4
 70
         1
 43
0.0
 10
-16.0
 20
6.4
 10
-16.0
 20
5.6
 10
-17.5
 20
5.6
 42
-1.000000
 10
-17.5
 20
6.4
  0
LWPOLYLINE
  5
20A
100
AcDbEntity
  8
SOLDERMASK_PADS_TOP
100
AcDbPolyline
 90
        4
 70
         1
 43
0.0
 10
-16.0
 20
7.4
 10
-16.0
 20
6.6
 10
-17.5
 20
6.6
 42
-1.000000
 10
-17.5
 20
7.4
  0
LWPOLYLINE
  5
20B
100
AcDbEntity
  8
SOLDERMASK_PADS_TOP
100
AcDbPolyline
 90
        4
 70
         1
 43
0.0
 10
-16.0
 20
8.4
 10
-16.0
 20
7.6
 10
-17.5
 20
7.6
 42
-1.000000
 10
-17.5
 20
8.4
  0
LWPOLYLINE
  5
20C
100
AcDbEntity
  8
SOLDERMASK_PADS_TOP
100
AcDbPolyline
 90
        4
 70
         1
 43
0.0
 10
-16.0
 20
9.4
 10
-16.0
 20
8.6
 10
-17.5
 20
8.6
 42
-1.000000
 10
-17.5
 20
9.4
  0
LWPOLYLINE
  5
20D
100
AcDbEntity
  8
SOLDERMASK_PADS_TOP
100
AcDbPolyline
 90
        4
 70
         1
 43
0.0
 10
-16.0
 20
10.4
 10
-16.0
 20
9.6
 10
-17.5
 20
9.6
 42
-1.000000
 10
-17.5
 20
10.4
  0
LWPOLYLINE
  5
20E
100
AcDbEntity
  8
SOLDERMASK_PADS_TOP
100
AcDbPolyline
 90
        4
 70
         1
 43
0.0
 10
-16.0
 20
11.4
 10
-16.0
 20
10.6
 10
-17.5
 20
10.6
 42
-1.000000
 10
-17.5
 20
11.4
  0
LWPOLYLINE
  5
20F
100
AcDbEntity
  8
SOLDERMASK_PADS_TOP
100
AcDbPolyline
 90
        4
 70
         1
 43
0.0
 10
-16.0
 20
12.4
 10
-16.0
 20
11.6
 10
-17.5
 20
11.6
 42
-1.000000
 10
-17.5
 20
12.4
  0
LWPOLYLINE
  5
210
100
AcDbEntity
  8
SOLDERMASK_PADS_TOP
100
AcDbPolyline
 90
        4
 70
         1
 43
0.0
 10
-16.0
 20
13.4
 10
-16.0
 20
12.6
 10
-17.5
 20
12.6
 42
-1.000000
 10
-17.5
 20
13.4
  0
LWPOLYLINE
  5
211
100
AcDbEntity
  8
SOLDERMASK_PADS_TOP
100
AcDbPolyline
 90
        4
 70
         1
 43
0.0
 10
-16.0
 20
14.4
 10
-16.0
 20
13.6
 10
-17.5
 20
13.6
 42
-1.000000
 10
-17.5
 20
14.4
  0
LWPOLYLINE
  5
212
100
AcDbEntity
  8
SOLDERMASK_PADS_TOP
100
AcDbPolyline
 90
        4
 70
         1
 43
0.0
 10
-16.0
 20
15.4
 10
-16.0
 20
14.6
 10
-17.5
 20
14.6
 42
-1.000000
 10
-17.5
 20
15.4
  0
LWPOLYLINE
  5
213
100
AcDbEntity
  8
SOLDERMASK_TOP
100
AcDbPolyline
 90
        6
 70
         1
 43
0.0
 10
-17.934
 20
-18.034
 10
-16.61
 20
-18.034
 10
-16.580711
 20
-17.963289
 10
-17.863289
 20
-16.680711
 10
-18.034
 20
-16.751421
 10
-18.034
 20
-17.934
  0
HATCH
  5
214
100
AcDbEntity
  8
SOLDERMASK_TOP
100
AcDbHatch
 10
0.0
 20
0.0
 30
0.0
 210
0.0
 220
0.0
 230
1.0
  2
SOLID
 70
         1
 71
        1
 91
        1
  92
     2
 72
     0
 73
     1
  93
     6
 10
-17.934
 20
-18.034
 10
-16.61
 20
-18.034
 10
-16.580711
 20
-17.963289
 10
-17.863289
 20
-16.680711
 10
-18.034
 20
-16.751421
 10
-18.034
 20
-17.934
  97
     1
  330
    531
 75
     0
 76
     1
  98
     1
 10
0.0
 20
0.0
  0
LWPOLYLINE
  5
215
100
AcDbEntity
  8
SOLDERPASTE_PADS_TOP
100
AcDbPolyline
 90
        4
 70
         1
 43
0.0
 10
10.65
 20
-0.7
 10
10.65
 20
0.7
 10
11.35
 20
0.7
 10
11.35
 20
-0.7
  0
LWPOLYLINE
  5
216
100
AcDbEntity
  8
SOLDERPASTE_PADS_TOP
100
AcDbPolyline
 90
        4
 70
         1
 43
0.0
 10
8.65
 20
-0.7
 10
8.65
 20
0.7
 10
9.35
 20
0.7
 10
9.35
 20
-0.7
  0
LWPOLYLINE
  5
217
100
AcDbEntity
  8
SOLDERPASTE_PADS_TOP
100
AcDbPolyline
 90
        4
 70
         1
 43
0.0
 10
6.65
 20
-0.7
 10
6.65
 20
0.7
 10
7.35
 20
0.7
 10
7.35
 20
-0.7
  0
LWPOLYLINE
  5
218
100
AcDbEntity
  8
SOLDERPASTE_PADS_TOP
100
AcDbPolyline
 90
        4
 70
         1
 43
0.0
 10
-11.35
 20
-0.7
 10
-11.35
 20
0.7
 10
-10.65
 20
0.7
 10
-10.65
 20
-0.7
  0
LWPOLYLINE
  5
219
100
AcDbEntity
  8
SOLDERPASTE_PADS_TOP
100
AcDbPolyline
 90
        4
 70
         1
 43
0.0
 10
-9.35
 20
-0.7
 10
-9.35
 20
0.7
 10
-8.65
 20
0.7
 10
-8.65
 20
-0.7
  0
LWPOLYLINE
  5
21A
100
AcDbEntity
  8
SOLDERPASTE_PADS_TOP
100
AcDbPolyline
 90
        4
 70
         1
 43
0.0
 10
-7.35
 20
-0.7
 10
-7.35
 20
0.7
 10
-6.65
 20
0.7
 10
-6.65
 20
-0.7
  0
LWPOLYLINE
  5
21B
100
AcDbEntity
  8
SOLDERPASTE_PADS_TOP
100
AcDbPolyline
 90
        4
 70
         1
 43
0.0
 10
-13.7
 20
13.65
 10
-13.7
 20
14.35
 10
-12.3
 20
14.35
 10
-12.3
 20
13.65
  0
LWPOLYLINE
  5
21C
100
AcDbEntity
  8
SOLDERPASTE_PADS_TOP
100
AcDbPolyline
 90
        4
 70
         1
 43
0.0
 10
-10.7
 20
13.65
 10
-10.7
 20
14.35
 10
-9.3
 20
14.35
 10
-9.3
 20
13.65
  0
LWPOLYLINE
  5
21D
100
AcDbEntity
  8
SOLDERPASTE_PADS_TOP
100
AcDbPolyline
 90
        4
 70
         1
 43
0.0
 10
-10.7
 20
11.65
 10
-10.7
 20
12.35
 10
-9.3
 20
12.35
 10
-9.3
 20
11.65
  0
LWPOLYLINE
  5
21E
100
AcDbEntity
  8
SOLDERPASTE_PADS_TOP
100
AcDbPolyline
 90
        4
 70
         1
 43
0.0
 10
-10.7
 20
9.65
 10
-10.7
 20
10.35
 10
-9.3
 20
10.35
 10
-9.3
 20
9.65
  0
LWPOLYLINE
  5
21F
100
AcDbEntity
  8
SOLDERPASTE_PADS_TOP
100
AcDbPolyline
 90
        4
 70
         1
 43
0.0
 10
-13.7
 20
11.65
 10
-13.7
 20
12.35
 10
-12.3
 20
12.35
 10
-12.3
 20
11.65
  0
LWPOLYLINE
  5
220
100
AcDbEntity
  8
SOLDERPASTE_PADS_TOP
100
AcDbPolyline
 90
        4
 70
         1
 43
0.0
 10
-13.7
 20
9.65
 10
-13.7
 20
10.35
 10
-12.3
 20
10.35
 10
-12.3
 20
9.65
  0
LWPOLYLINE
  5
221
100
AcDbEntity
  8
SOLDERPASTE_PADS_TOP
100
AcDbPolyline
 90
        4
 70
         1
 43
0.0
 10
-0.7
 20
10.65
 10
-0.7
 20
11.35
 10
0.7
 20
11.35
 10
0.7
 20
10.65
  0
LWPOLYLINE
  5
222
100
AcDbEntity
  8
SOLDERPASTE_PADS_TOP
100
AcDbPolyline
 90
        4
 70
         1
 43
0.0
 10
-0.7
 20
8.65
 10
-0.7
 20
9.35
 10
0.7
 20
9.35
 10
0.7
 20
8.65
  0
LWPOLYLINE
  5
223
100
AcDbEntity
  8
SOLDERPASTE_PADS_TOP
100
AcDbPolyline
 90
        4
 70
         1
 43
0.0
 10
-0.7
 20
6.65
 10
-0.7
 20
7.35
 10
0.7
 20
7.35
 10
0.7
 20
6.65
  0
LWPOLYLINE
  5
224
100
AcDbEntity
  8
SOLDERPASTE_PADS_TOP
100
AcDbPolyline
 90
        4
 70
         1
 43
0.0
 10
9.3
 20
9.65
 10
9.3
 20
10.35
 10
10.7
 20
10.35
 10
10.7
 20
9.65
  0
LWPOLYLINE
  5
225
100
AcDbEntity
  8
SOLDERPASTE_PADS_TOP
100
AcDbPolyline
 90
        4
 70
         1
 43
0.0
 10
12.3
 20
9.65
 10
12.3
 20
10.35
 10
13.7
 20
10.35
 10
13.7
 20
9.65
  0
LWPOLYLINE
  5
226
100
AcDbEntity
  8
SOLDERPASTE_PADS_TOP
100
AcDbPolyline
 90
        4
 70
         1
 43
0.0
 10
9.3
 20
11.65
 10
9.3
 20
12.35
 10
10.7
 20
12.35
 10
10.7
 20
11.65
  0
LWPOLYLINE
  5
227
100
AcDbEntity
  8
SOLDERPASTE_PADS_TOP
100
AcDbPolyline
 90
        4
 70
         1
 43
0.0
 10
9.3
 20
13.65
 10
9.3
 20
14.35
 10
10.7
 20
14.35
 10
10.7
 20
13.65
  0
LWPOLYLINE
  5
228
100
AcDbEntity
  8
SOLDERPASTE_PADS_TOP
100
AcDbPolyline
 90
        4
 70
         1
 43
0.0
 10
12.3
 20
11.65
 10
12.3
 20
12.35
 10
13.7
 20
12.35
 10
13.7
 20
11.65
  0
LWPOLYLINE
  5
229
100
AcDbEntity
  8
SOLDERPASTE_PADS_TOP
100
AcDbPolyline
 90
        4
 70
         1
 43
0.0
 10
12.3
 20
13.65
 10
12.3
 20
14.35
 10
13.7
 20
14.35
 10
13.7
 20
13.65
  0
LWPOLYLINE
  5
22A
100
AcDbEntity
  8
SOLDERPASTE_PADS_TOP
100
AcDbPolyline
 90
        4
 70
         1
 43
0.0
 10
-10.7
 20
-14.35
 10
-10.7
 20
-13.65
 10
-9.3
 20
-13.65
 10
-9.3
 20
-14.35
  0
LWPOLYLINE
  5
22B
100
AcDbEntity
  8
SOLDERPASTE_PADS_TOP
100
AcDbPolyline
 90
        4
 70
         1
 43
0.0
 10
-13.7
 20
-12.35
 10
-13.7
 20
-11.65
 10
-12.3
 20
-11.65
 10
-12.3
 20
-12.35
  0
LWPOLYLINE
  5
22C
100
AcDbEntity
  8
SOLDERPASTE_PADS_TOP
100
AcDbPolyline
 90
        4
 70
         1
 43
0.0
 10
-10.7
 20
-12.35
 10
-10.7
 20
-11.65
 10
-9.3
 20
-11.65
 10
-9.3
 20
-12.35
  0
LWPOLYLINE
  5
22D
100
AcDbEntity
  8
SOLDERPASTE_PADS_TOP
100
AcDbPolyline
 90
        4
 70
         1
 43
0.0
 10
-13.7
 20
-10.35
 10
-13.7
 20
-9.65
 10
-12.3
 20
-9.65
 10
-12.3
 20
-10.35
  0
LWPOLYLINE
  5
22E
100
AcDbEntity
  8
SOLDERPASTE_PADS_TOP
100
AcDbPolyline
 90
        4
 70
         1
 43
0.0
 10
-10.7
 20
-10.35
 10
-10.7
 20
-9.65
 10
-9.3
 20
-9.65
 10
-9.3
 20
-10.35
  0
LWPOLYLINE
  5
22F
100
AcDbEntity
  8
SOLDERPASTE_PADS_TOP
100
AcDbPolyline
 90
        4
 70
         1
 43
0.0
 10
-0.7
 20
-11.35
 10
-0.7
 20
-10.65
 10
0.7
 20
-10.65
 10
0.7
 20
-11.35
  0
LWPOLYLINE
  5
230
100
AcDbEntity
  8
SOLDERPASTE_PADS_TOP
100
AcDbPolyline
 90
        4
 70
         1
 43
0.0
 10
-0.7
 20
-9.35
 10
-0.7
 20
-8.65
 10
0.7
 20
-8.65
 10
0.7
 20
-9.35
  0
LWPOLYLINE
  5
231
100
AcDbEntity
  8
SOLDERPASTE_PADS_TOP
100
AcDbPolyline
 90
        4
 70
         1
 43
0.0
 10
-0.7
 20
-7.35
 10
-0.7
 20
-6.65
 10
0.7
 20
-6.65
 10
0.7
 20
-7.35
  0
LWPOLYLINE
  5
232
100
AcDbEntity
  8
SOLDERPASTE_PADS_TOP
100
AcDbPolyline
 90
        4
 70
         1
 43
0.0
 10
9.3
 20
-14.35
 10
9.3
 20
-13.65
 10
10.7
 20
-13.65
 10
10.7
 20
-14.35
  0
LWPOLYLINE
  5
233
100
AcDbEntity
  8
SOLDERPASTE_PADS_TOP
100
AcDbPolyline
 90
        4
 70
         1
 43
0.0
 10
12.3
 20
-14.35
 10
12.3
 20
-13.65
 10
13.7
 20
-13.65
 10
13.7
 20
-14.35
  0
LWPOLYLINE
  5
234
100
AcDbEntity
  8
SOLDERPASTE_PADS_TOP
100
AcDbPolyline
 90
        4
 70
         1
 43
0.0
 10
9.3
 20
-12.35
 10
9.3
 20
-11.65
 10
10.7
 20
-11.65
 10
10.7
 20
-12.35
  0
LWPOLYLINE
  5
235
100
AcDbEntity
  8
SOLDERPASTE_PADS_TOP
100
AcDbPolyline
 90
        4
 70
         1
 43
0.0
 10
12.3
 20
-12.35
 10
12.3
 20
-11.65
 10
13.7
 20
-11.65
 10
13.7
 20
-12.35
  0
LWPOLYLINE
  5
236
100
AcDbEntity
  8
SOLDERPASTE_PADS_TOP
100
AcDbPolyline
 90
        4
 70
         1
 43
0.0
 10
9.3
 20
-10.35
 10
9.3
 20
-9.65
 10
10.7
 20
-9.65
 10
10.7
 20
-10.35
  0
LWPOLYLINE
  5
237
100
AcDbEntity
  8
SOLDERPASTE_PADS_TOP
100
AcDbPolyline
 90
        4
 70
         1
 43
0.0
 10
12.3
 20
-10.35
 10
12.3
 20
-9.65
 10
13.7
 20
-9.65
 10
13.7
 20
-10.35
  0
LWPOLYLINE
  5
238
100
AcDbEntity
  8
SOLDERPASTE_PADS_TOP
100
AcDbPolyline
 90
        4
 70
         1
 43
0.0
 10
-14.6
 20
16.0
 10
-15.4
 20
16.0
 10
-15.4
 20
17.5
 42
-1.000000
 10
-14.6
 20
17.5
  0
LWPOLYLINE
  5
239
100
AcDbEntity
  8
SOLDERPASTE_PADS_TOP
100
AcDbPolyline
 90
        4
 70
         1
 43
0.0
 10
-13.6
 20
16.0
 10
-14.4
 20
16.0
 10
-14.4
 20
17.5
 42
-1.000000
 10
-13.6
 20
17.5
  0
LWPOLYLINE
  5
23A
100
AcDbEntity
  8
SOLDERPASTE_PADS_TOP
100
AcDbPolyline
 90
        4
 70
         1
 43
0.0
 10
-12.6
 20
16.0
 10
-13.4
 20
16.0
 10
-13.4
 20
17.5
 42
-1.000000
 10
-12.6
 20
17.5
  0
LWPOLYLINE
  5
23B
100
AcDbEntity
  8
SOLDERPASTE_PADS_TOP
100
AcDbPolyline
 90
        4
 70
         1
 43
0.0
 10
-11.6
 20
16.0
 10
-12.4
 20
16.0
 10
-12.4
 20
17.5
 42
-1.000000
 10
-11.6
 20
17.5
  0
LWPOLYLINE
  5
23C
100
AcDbEntity
  8
SOLDERPASTE_PADS_TOP
100
AcDbPolyline
 90
        4
 70
         1
 43
0.0
 10
-10.6
 20
16.0
 10
-11.4
 20
16.0
 10
-11.4
 20
17.5
 42
-1.000000
 10
-10.6
 20
17.5
  0
LWPOLYLINE
  5
23D
100
AcDbEntity
  8
SOLDERPASTE_PADS_TOP
100
AcDbPolyline
 90
        4
 70
         1
 43
0.0
 10
-9.6
 20
16.0
 10
-10.4
 20
16.0
 10
-10.4
 20
17.5
 42
-1.000000
 10
-9.6
 20
17.5
  0
LWPOLYLINE
  5
23E
100
AcDbEntity
  8
SOLDERPASTE_PADS_TOP
100
AcDbPolyline
 90
        4
 70
         1
 43
0.0
 10
-8.6
 20
16.0
 10
-9.4
 20
16.0
 10
-9.4
 20
17.5
 42
-1.000000
 10
-8.6
 20
17.5
  0
LWPOLYLINE
  5
23F
100
AcDbEntity
  8
SOLDERPASTE_PADS_TOP
100
AcDbPolyline
 90
        4
 70
         1
 43
0.0
 10
-7.6
 20
16.0
 10
-8.4
 20
16.0
 10
-8.4
 20
17.5
 42
-1.000000
 10
-7.6
 20
17.5
  0
LWPOLYLINE
  5
240
100
AcDbEntity
  8
SOLDERPASTE_PADS_TOP
100
AcDbPolyline
 90
        4
 70
         1
 43
0.0
 10
-6.6
 20
16.0
 10
-7.4
 20
16.0
 10
-7.4
 20
17.5
 42
-1.000000
 10
-6.6
 20
17.5
  0
LWPOLYLINE
  5
241
100
AcDbEntity
  8
SOLDERPASTE_PADS_TOP
100
AcDbPolyline
 90
        4
 70
         1
 43
0.0
 10
-5.6
 20
16.0
 10
-6.4
 20
16.0
 10
-6.4
 20
17.5
 42
-1.000000
 10
-5.6
 20
17.5
  0
LWPOLYLINE
  5
242
100
AcDbEntity
  8
SOLDERPASTE_PADS_TOP
100
AcDbPolyline
 90
        4
 70
         1
 43
0.0
 10
-4.6
 20
16.0
 10
-5.4
 20
16.0
 10
-5.4
 20
17.5
 42
-1.000000
 10
-4.6
 20
17.5
  0
LWPOLYLINE
  5
243
100
AcDbEntity
  8
SOLDERPASTE_PADS_TOP
100
AcDbPolyline
 90
        4
 70
         1
 43
0.0
 10
-3.6
 20
16.0
 10
-4.4
 20
16.0
 10
-4.4
 20
17.5
 42
-1.000000
 10
-3.6
 20
17.5
  0
LWPOLYLINE
  5
244
100
AcDbEntity
  8
SOLDERPASTE_PADS_TOP
100
AcDbPolyline
 90
        4
 70
         1
 43
0.0
 10
-2.6
 20
16.0
 10
-3.4
 20
16.0
 10
-3.4
 20
17.5
 42
-1.000000
 10
-2.6
 20
17.5
  0
LWPOLYLINE
  5
245
100
AcDbEntity
  8
SOLDERPASTE_PADS_TOP
100
AcDbPolyline
 90
        4
 70
         1
 43
0.0
 10
-1.6
 20
16.0
 10
-2.4
 20
16.0
 10
-2.4
 20
17.5
 42
-1.000000
 10
-1.6
 20
17.5
  0
LWPOLYLINE
  5
246
100
AcDbEntity
  8
SOLDERPASTE_PADS_TOP
100
AcDbPolyline
 90
        4
 70
         1
 43
0.0
 10
-0.6
 20
16.0
 10
-1.4
 20
16.0
 10
-1.4
 20
17.5
 42
-1.000000
 10
-0.6
 20
17.5
  0
LWPOLYLINE
  5
247
100
AcDbEntity
  8
SOLDERPASTE_PADS_TOP
100
AcDbPolyline
 90
        4
 70
         1
 43
0.0
 10
0.4
 20
16.0
 10
-0.4
 20
16.0
 10
-0.4
 20
17.5
 42
-1.000000
 10
0.4
 20
17.5
  0
LWPOLYLINE
  5
248
100
AcDbEntity
  8
SOLDERPASTE_PADS_TOP
100
AcDbPolyline
 90
        4
 70
         1
 43
0.0
 10
1.4
 20
16.0
 10
0.6
 20
16.0
 10
0.6
 20
17.5
 42
-1.000000
 10
1.4
 20
17.5
  0
LWPOLYLINE
  5
249
100
AcDbEntity
  8
SOLDERPASTE_PADS_TOP
100
AcDbPolyline
 90
        4
 70
         1
 43
0.0
 10
2.4
 20
16.0
 10
1.6
 20
16.0
 10
1.6
 20
17.5
 42
-1.000000
 10
2.4
 20
17.5
  0
LWPOLYLINE
  5
24A
100
AcDbEntity
  8
SOLDERPASTE_PADS_TOP
100
AcDbPolyline
 90
        4
 70
         1
 43
0.0
 10
3.4
 20
16.0
 10
2.6
 20
16.0
 10
2.6
 20
17.5
 42
-1.000000
 10
3.4
 20
17.5
  0
LWPOLYLINE
  5
24B
100
AcDbEntity
  8
SOLDERPASTE_PADS_TOP
100
AcDbPolyline
 90
        4
 70
         1
 43
0.0
 10
4.4
 20
16.0
 10
3.6
 20
16.0
 10
3.6
 20
17.5
 42
-1.000000
 10
4.4
 20
17.5
  0
LWPOLYLINE
  5
24C
100
AcDbEntity
  8
SOLDERPASTE_PADS_TOP
100
AcDbPolyline
 90
        4
 70
         1
 43
0.0
 10
5.4
 20
16.0
 10
4.6
 20
16.0
 10
4.6
 20
17.5
 42
-1.000000
 10
5.4
 20
17.5
  0
LWPOLYLINE
  5
24D
100
AcDbEntity
  8
SOLDERPASTE_PADS_TOP
100
AcDbPolyline
 90
        4
 70
         1
 43
0.0
 10
6.4
 20
16.0
 10
5.6
 20
16.0
 10
5.6
 20
17.5
 42
-1.000000
 10
6.4
 20
17.5
  0
LWPOLYLINE
  5
24E
100
AcDbEntity
  8
SOLDERPASTE_PADS_TOP
100
AcDbPolyline
 90
        4
 70
         1
 43
0.0
 10
7.4
 20
16.0
 10
6.6
 20
16.0
 10
6.6
 20
17.5
 42
-1.000000
 10
7.4
 20
17.5
  0
LWPOLYLINE
  5
24F
100
AcDbEntity
  8
SOLDERPASTE_PADS_TOP
100
AcDbPolyline
 90
        4
 70
         1
 43
0.0
 10
8.4
 20
16.0
 10
7.6
 20
16.0
 10
7.6
 20
17.5
 42
-1.000000
 10
8.4
 20
17.5
  0
LWPOLYLINE
  5
250
100
AcDbEntity
  8
SOLDERPASTE_PADS_TOP
100
AcDbPolyline
 90
        4
 70
         1
 43
0.0
 10
9.4
 20
16.0
 10
8.6
 20
16.0
 10
8.6
 20
17.5
 42
-1.000000
 10
9.4
 20
17.5
  0
LWPOLYLINE
  5
251
100
AcDbEntity
  8
SOLDERPASTE_PADS_TOP
100
AcDbPolyline
 90
        4
 70
         1
 43
0.0
 10
10.4
 20
16.0
 10
9.6
 20
16.0
 10
9.6
 20
17.5
 42
-1.000000
 10
10.4
 20
17.5
  0
LWPOLYLINE
  5
252
100
AcDbEntity
  8
SOLDERPASTE_PADS_TOP
100
AcDbPolyline
 90
        4
 70
         1
 43
0.0
 10
11.4
 20
16.0
 10
10.6
 20
16.0
 10
10.6
 20
17.5
 42
-1.000000
 10
11.4
 20
17.5
  0
LWPOLYLINE
  5
253
100
AcDbEntity
  8
SOLDERPASTE_PADS_TOP
100
AcDbPolyline
 90
        4
 70
         1
 43
0.0
 10
12.4
 20
16.0
 10
11.6
 20
16.0
 10
11.6
 20
17.5
 42
-1.000000
 10
12.4
 20
17.5
  0
LWPOLYLINE
  5
254
100
AcDbEntity
  8
SOLDERPASTE_PADS_TOP
100
AcDbPolyline
 90
        4
 70
         1
 43
0.0
 10
13.4
 20
16.0
 10
12.6
 20
16.0
 10
12.6
 20
17.5
 42
-1.000000
 10
13.4
 20
17.5
  0
LWPOLYLINE
  5
255
100
AcDbEntity
  8
SOLDERPASTE_PADS_TOP
100
AcDbPolyline
 90
        4
 70
         1
 43
0.0
 10
14.4
 20
16.0
 10
13.6
 20
16.0
 10
13.6
 20
17.5
 42
-1.000000
 10
14.4
 20
17.5
  0
LWPOLYLINE
  5
256
100
AcDbEntity
  8
SOLDERPASTE_PADS_TOP
100
AcDbPolyline
 90
        4
 70
         1
 43
0.0
 10
15.4
 20
16.0
 10
14.6
 20
16.0
 10
14.6
 20
17.5
 42
-1.000000
 10
15.4
 20
17.5
  0
LWPOLYLINE
  5
257
100
AcDbEntity
  8
SOLDERPASTE_PADS_TOP
100
AcDbPolyline
 90
        4
 70
         1
 43
0.0
 10
14.6
 20
-16.0
 10
15.4
 20
-16.0
 10
15.4
 20
-17.5
 42
-1.000000
 10
14.6
 20
-17.5
  0
LWPOLYLINE
  5
258
100
AcDbEntity
  8
SOLDERPASTE_PADS_TOP
100
AcDbPolyline
 90
        4
 70
         1
 43
0.0
 10
13.6
 20
-16.0
 10
14.4
 20
-16.0
 10
14.4
 20
-17.5
 42
-1.000000
 10
13.6
 20
-17.5
  0
LWPOLYLINE
  5
259
100
AcDbEntity
  8
SOLDERPASTE_PADS_TOP
100
AcDbPolyline
 90
        4
 70
         1
 43
0.0
 10
12.6
 20
-16.0
 10
13.4
 20
-16.0
 10
13.4
 20
-17.5
 42
-1.000000
 10
12.6
 20
-17.5
  0
LWPOLYLINE
  5
25A
100
AcDbEntity
  8
SOLDERPASTE_PADS_TOP
100
AcDbPolyline
 90
        4
 70
         1
 43
0.0
 10
11.6
 20
-16.0
 10
12.4
 20
-16.0
 10
12.4
 20
-17.5
 42
-1.000000
 10
11.6
 20
-17.5
  0
LWPOLYLINE
  5
25B
100
AcDbEntity
  8
SOLDERPASTE_PADS_TOP
100
AcDbPolyline
 90
        4
 70
         1
 43
0.0
 10
10.6
 20
-16.0
 10
11.4
 20
-16.0
 10
11.4
 20
-17.5
 42
-1.000000
 10
10.6
 20
-17.5
  0
LWPOLYLINE
  5
25C
100
AcDbEntity
  8
SOLDERPASTE_PADS_TOP
100
AcDbPolyline
 90
        4
 70
         1
 43
0.0
 10
9.6
 20
-16.0
 10
10.4
 20
-16.0
 10
10.4
 20
-17.5
 42
-1.000000
 10
9.6
 20
-17.5
  0
LWPOLYLINE
  5
25D
100
AcDbEntity
  8
SOLDERPASTE_PADS_TOP
100
AcDbPolyline
 90
        4
 70
         1
 43
0.0
 10
8.6
 20
-16.0
 10
9.4
 20
-16.0
 10
9.4
 20
-17.5
 42
-1.000000
 10
8.6
 20
-17.5
  0
LWPOLYLINE
  5
25E
100
AcDbEntity
  8
SOLDERPASTE_PADS_TOP
100
AcDbPolyline
 90
        4
 70
         1
 43
0.0
 10
7.6
 20
-16.0
 10
8.4
 20
-16.0
 10
8.4
 20
-17.5
 42
-1.000000
 10
7.6
 20
-17.5
  0
LWPOLYLINE
  5
25F
100
AcDbEntity
  8
SOLDERPASTE_PADS_TOP
100
AcDbPolyline
 90
        4
 70
         1
 43
0.0
 10
6.6
 20
-16.0
 10
7.4
 20
-16.0
 10
7.4
 20
-17.5
 42
-1.000000
 10
6.6
 20
-17.5
  0
LWPOLYLINE
  5
260
100
AcDbEntity
  8
SOLDERPASTE_PADS_TOP
100
AcDbPolyline
 90
        4
 70
         1
 43
0.0
 10
5.6
 20
-16.0
 10
6.4
 20
-16.0
 10
6.4
 20
-17.5
 42
-1.000000
 10
5.6
 20
-17.5
  0
LWPOLYLINE
  5
261
100
AcDbEntity
  8
SOLDERPASTE_PADS_TOP
100
AcDbPolyline
 90
        4
 70
         1
 43
0.0
 10
4.6
 20
-16.0
 10
5.4
 20
-16.0
 10
5.4
 20
-17.5
 42
-1.000000
 10
4.6
 20
-17.5
  0
LWPOLYLINE
  5
262
100
AcDbEntity
  8
SOLDERPASTE_PADS_TOP
100
AcDbPolyline
 90
        4
 70
         1
 43
0.0
 10
3.6
 20
-16.0
 10
4.4
 20
-16.0
 10
4.4
 20
-17.5
 42
-1.000000
 10
3.6
 20
-17.5
  0
LWPOLYLINE
  5
263
100
AcDbEntity
  8
SOLDERPASTE_PADS_TOP
100
AcDbPolyline
 90
        4
 70
         1
 43
0.0
 10
2.6
 20
-16.0
 10
3.4
 20
-16.0
 10
3.4
 20
-17.5
 42
-1.000000
 10
2.6
 20
-17.5
  0
LWPOLYLINE
  5
264
100
AcDbEntity
  8
SOLDERPASTE_PADS_TOP
100
AcDbPolyline
 90
        4
 70
         1
 43
0.0
 10
1.6
 20
-16.0
 10
2.4
 20
-16.0
 10
2.4
 20
-17.5
 42
-1.000000
 10
1.6
 20
-17.5
  0
LWPOLYLINE
  5
265
100
AcDbEntity
  8
SOLDERPASTE_PADS_TOP
100
AcDbPolyline
 90
        4
 70
         1
 43
0.0
 10
0.6
 20
-16.0
 10
1.4
 20
-16.0
 10
1.4
 20
-17.5
 42
-1.000000
 10
0.6
 20
-17.5
  0
LWPOLYLINE
  5
266
100
AcDbEntity
  8
SOLDERPASTE_PADS_TOP
100
AcDbPolyline
 90
        4
 70
         1
 43
0.0
 10
-0.4
 20
-16.0
 10
0.4
 20
-16.0
 10
0.4
 20
-17.5
 42
-1.000000
 10
-0.4
 20
-17.5
  0
LWPOLYLINE
  5
267
100
AcDbEntity
  8
SOLDERPASTE_PADS_TOP
100
AcDbPolyline
 90
        4
 70
         1
 43
0.0
 10
-1.4
 20
-16.0
 10
-0.6
 20
-16.0
 10
-0.6
 20
-17.5
 42
-1.000000
 10
-1.4
 20
-17.5
  0
LWPOLYLINE
  5
268
100
AcDbEntity
  8
SOLDERPASTE_PADS_TOP
100
AcDbPolyline
 90
        4
 70
         1
 43
0.0
 10
-2.4
 20
-16.0
 10
-1.6
 20
-16.0
 10
-1.6
 20
-17.5
 42
-1.000000
 10
-2.4
 20
-17.5
  0
LWPOLYLINE
  5
269
100
AcDbEntity
  8
SOLDERPASTE_PADS_TOP
100
AcDbPolyline
 90
        4
 70
         1
 43
0.0
 10
-3.4
 20
-16.0
 10
-2.6
 20
-16.0
 10
-2.6
 20
-17.5
 42
-1.000000
 10
-3.4
 20
-17.5
  0
LWPOLYLINE
  5
26A
100
AcDbEntity
  8
SOLDERPASTE_PADS_TOP
100
AcDbPolyline
 90
        4
 70
         1
 43
0.0
 10
-4.4
 20
-16.0
 10
-3.6
 20
-16.0
 10
-3.6
 20
-17.5
 42
-1.000000
 10
-4.4
 20
-17.5
  0
LWPOLYLINE
  5
26B
100
AcDbEntity
  8
SOLDERPASTE_PADS_TOP
100
AcDbPolyline
 90
        4
 70
         1
 43
0.0
 10
-5.4
 20
-16.0
 10
-4.6
 20
-16.0
 10
-4.6
 20
-17.5
 42
-1.000000
 10
-5.4
 20
-17.5
  0
LWPOLYLINE
  5
26C
100
AcDbEntity
  8
SOLDERPASTE_PADS_TOP
100
AcDbPolyline
 90
        4
 70
         1
 43
0.0
 10
-6.4
 20
-16.0
 10
-5.6
 20
-16.0
 10
-5.6
 20
-17.5
 42
-1.000000
 10
-6.4
 20
-17.5
  0
LWPOLYLINE
  5
26D
100
AcDbEntity
  8
SOLDERPASTE_PADS_TOP
100
AcDbPolyline
 90
        4
 70
         1
 43
0.0
 10
-7.4
 20
-16.0
 10
-6.6
 20
-16.0
 10
-6.6
 20
-17.5
 42
-1.000000
 10
-7.4
 20
-17.5
  0
LWPOLYLINE
  5
26E
100
AcDbEntity
  8
SOLDERPASTE_PADS_TOP
100
AcDbPolyline
 90
        4
 70
         1
 43
0.0
 10
-8.4
 20
-16.0
 10
-7.6
 20
-16.0
 10
-7.6
 20
-17.5
 42
-1.000000
 10
-8.4
 20
-17.5
  0
LWPOLYLINE
  5
26F
100
AcDbEntity
  8
SOLDERPASTE_PADS_TOP
100
AcDbPolyline
 90
        4
 70
         1
 43
0.0
 10
-9.4
 20
-16.0
 10
-8.6
 20
-16.0
 10
-8.6
 20
-17.5
 42
-1.000000
 10
-9.4
 20
-17.5
  0
LWPOLYLINE
  5
270
100
AcDbEntity
  8
SOLDERPASTE_PADS_TOP
100
AcDbPolyline
 90
        4
 70
         1
 43
0.0
 10
-10.4
 20
-16.0
 10
-9.6
 20
-16.0
 10
-9.6
 20
-17.5
 42
-1.000000
 10
-10.4
 20
-17.5
  0
LWPOLYLINE
  5
271
100
AcDbEntity
  8
SOLDERPASTE_PADS_TOP
100
AcDbPolyline
 90
        4
 70
         1
 43
0.0
 10
-11.4
 20
-16.0
 10
-10.6
 20
-16.0
 10
-10.6
 20
-17.5
 42
-1.000000
 10
-11.4
 20
-17.5
  0
LWPOLYLINE
  5
272
100
AcDbEntity
  8
SOLDERPASTE_PADS_TOP
100
AcDbPolyline
 90
        4
 70
         1
 43
0.0
 10
-12.4
 20
-16.0
 10
-11.6
 20
-16.0
 10
-11.6
 20
-17.5
 42
-1.000000
 10
-12.4
 20
-17.5
  0
LWPOLYLINE
  5
273
100
AcDbEntity
  8
SOLDERPASTE_PADS_TOP
100
AcDbPolyline
 90
        4
 70
         1
 43
0.0
 10
-13.4
 20
-16.0
 10
-12.6
 20
-16.0
 10
-12.6
 20
-17.5
 42
-1.000000
 10
-13.4
 20
-17.5
  0
LWPOLYLINE
  5
274
100
AcDbEntity
  8
SOLDERPASTE_PADS_TOP
100
AcDbPolyline
 90
        4
 70
         1
 43
0.0
 10
-14.4
 20
-16.0
 10
-13.6
 20
-16.0
 10
-13.6
 20
-17.5
 42
-1.000000
 10
-14.4
 20
-17.5
  0
LWPOLYLINE
  5
275
100
AcDbEntity
  8
SOLDERPASTE_PADS_TOP
100
AcDbPolyline
 90
        4
 70
         1
 43
0.0
 10
-15.4
 20
-16.0
 10
-14.6
 20
-16.0
 10
-14.6
 20
-17.5
 42
-1.000000
 10
-15.4
 20
-17.5
  0
LWPOLYLINE
  5
276
100
AcDbEntity
  8
SOLDERPASTE_PADS_TOP
100
AcDbPolyline
 90
        4
 70
         1
 43
0.0
 10
16.0
 20
14.6
 10
16.0
 20
15.4
 10
17.5
 20
15.4
 42
-1.000000
 10
17.5
 20
14.6
  0
LWPOLYLINE
  5
277
100
AcDbEntity
  8
SOLDERPASTE_PADS_TOP
100
AcDbPolyline
 90
        4
 70
         1
 43
0.0
 10
16.0
 20
13.6
 10
16.0
 20
14.4
 10
17.5
 20
14.4
 42
-1.000000
 10
17.5
 20
13.6
  0
LWPOLYLINE
  5
278
100
AcDbEntity
  8
SOLDERPASTE_PADS_TOP
100
AcDbPolyline
 90
        4
 70
         1
 43
0.0
 10
16.0
 20
12.6
 10
16.0
 20
13.4
 10
17.5
 20
13.4
 42
-1.000000
 10
17.5
 20
12.6
  0
LWPOLYLINE
  5
279
100
AcDbEntity
  8
SOLDERPASTE_PADS_TOP
100
AcDbPolyline
 90
        4
 70
         1
 43
0.0
 10
16.0
 20
11.6
 10
16.0
 20
12.4
 10
17.5
 20
12.4
 42
-1.000000
 10
17.5
 20
11.6
  0
LWPOLYLINE
  5
27A
100
AcDbEntity
  8
SOLDERPASTE_PADS_TOP
100
AcDbPolyline
 90
        4
 70
         1
 43
0.0
 10
16.0
 20
10.6
 10
16.0
 20
11.4
 10
17.5
 20
11.4
 42
-1.000000
 10
17.5
 20
10.6
  0
LWPOLYLINE
  5
27B
100
AcDbEntity
  8
SOLDERPASTE_PADS_TOP
100
AcDbPolyline
 90
        4
 70
         1
 43
0.0
 10
16.0
 20
9.6
 10
16.0
 20
10.4
 10
17.5
 20
10.4
 42
-1.000000
 10
17.5
 20
9.6
  0
LWPOLYLINE
  5
27C
100
AcDbEntity
  8
SOLDERPASTE_PADS_TOP
100
AcDbPolyline
 90
        4
 70
         1
 43
0.0
 10
16.0
 20
8.6
 10
16.0
 20
9.4
 10
17.5
 20
9.4
 42
-1.000000
 10
17.5
 20
8.6
  0
LWPOLYLINE
  5
27D
100
AcDbEntity
  8
SOLDERPASTE_PADS_TOP
100
AcDbPolyline
 90
        4
 70
         1
 43
0.0
 10
16.0
 20
7.6
 10
16.0
 20
8.4
 10
17.5
 20
8.4
 42
-1.000000
 10
17.5
 20
7.6
  0
LWPOLYLINE
  5
27E
100
AcDbEntity
  8
SOLDERPASTE_PADS_TOP
100
AcDbPolyline
 90
        4
 70
         1
 43
0.0
 10
16.0
 20
6.6
 10
16.0
 20
7.4
 10
17.5
 20
7.4
 42
-1.000000
 10
17.5
 20
6.6
  0
LWPOLYLINE
  5
27F
100
AcDbEntity
  8
SOLDERPASTE_PADS_TOP
100
AcDbPolyline
 90
        4
 70
         1
 43
0.0
 10
16.0
 20
5.6
 10
16.0
 20
6.4
 10
17.5
 20
6.4
 42
-1.000000
 10
17.5
 20
5.6
  0
LWPOLYLINE
  5
280
100
AcDbEntity
  8
SOLDERPASTE_PADS_TOP
100
AcDbPolyline
 90
        4
 70
         1
 43
0.0
 10
16.0
 20
4.6
 10
16.0
 20
5.4
 10
17.5
 20
5.4
 42
-1.000000
 10
17.5
 20
4.6
  0
LWPOLYLINE
  5
281
100
AcDbEntity
  8
SOLDERPASTE_PADS_TOP
100
AcDbPolyline
 90
        4
 70
         1
 43
0.0
 10
16.0
 20
3.6
 10
16.0
 20
4.4
 10
17.5
 20
4.4
 42
-1.000000
 10
17.5
 20
3.6
  0
LWPOLYLINE
  5
282
100
AcDbEntity
  8
SOLDERPASTE_PADS_TOP
100
AcDbPolyline
 90
        4
 70
         1
 43
0.0
 10
16.0
 20
2.6
 10
16.0
 20
3.4
 10
17.5
 20
3.4
 42
-1.000000
 10
17.5
 20
2.6
  0
LWPOLYLINE
  5
283
100
AcDbEntity
  8
SOLDERPASTE_PADS_TOP
100
AcDbPolyline
 90
        4
 70
         1
 43
0.0
 10
16.0
 20
1.6
 10
16.0
 20
2.4
 10
17.5
 20
2.4
 42
-1.000000
 10
17.5
 20
1.6
  0
LWPOLYLINE
  5
284
100
AcDbEntity
  8
SOLDERPASTE_PADS_TOP
100
AcDbPolyline
 90
        4
 70
         1
 43
0.0
 10
16.0
 20
0.6
 10
16.0
 20
1.4
 10
17.5
 20
1.4
 42
-1.000000
 10
17.5
 20
0.6
  0
LWPOLYLINE
  5
285
100
AcDbEntity
  8
SOLDERPASTE_PADS_TOP
100
AcDbPolyline
 90
        4
 70
         1
 43
0.0
 10
16.0
 20
-0.4
 10
16.0
 20
0.4
 10
17.5
 20
0.4
 42
-1.000000
 10
17.5
 20
-0.4
  0
LWPOLYLINE
  5
286
100
AcDbEntity
  8
SOLDERPASTE_PADS_TOP
100
AcDbPolyline
 90
        4
 70
         1
 43
0.0
 10
16.0
 20
-1.4
 10
16.0
 20
-0.6
 10
17.5
 20
-0.6
 42
-1.000000
 10
17.5
 20
-1.4
  0
LWPOLYLINE
  5
287
100
AcDbEntity
  8
SOLDERPASTE_PADS_TOP
100
AcDbPolyline
 90
        4
 70
         1
 43
0.0
 10
16.0
 20
-2.4
 10
16.0
 20
-1.6
 10
17.5
 20
-1.6
 42
-1.000000
 10
17.5
 20
-2.4
  0
LWPOLYLINE
  5
288
100
AcDbEntity
  8
SOLDERPASTE_PADS_TOP
100
AcDbPolyline
 90
        4
 70
         1
 43
0.0
 10
16.0
 20
-3.4
 10
16.0
 20
-2.6
 10
17.5
 20
-2.6
 42
-1.000000
 10
17.5
 20
-3.4
  0
LWPOLYLINE
  5
289
100
AcDbEntity
  8
SOLDERPASTE_PADS_TOP
100
AcDbPolyline
 90
        4
 70
         1
 43
0.0
 10
16.0
 20
-4.4
 10
16.0
 20
-3.6
 10
17.5
 20
-3.6
 42
-1.000000
 10
17.5
 20
-4.4
  0
LWPOLYLINE
  5
28A
100
AcDbEntity
  8
SOLDERPASTE_PADS_TOP
100
AcDbPolyline
 90
        4
 70
         1
 43
0.0
 10
16.0
 20
-5.4
 10
16.0
 20
-4.6
 10
17.5
 20
-4.6
 42
-1.000000
 10
17.5
 20
-5.4
  0
LWPOLYLINE
  5
28B
100
AcDbEntity
  8
SOLDERPASTE_PADS_TOP
100
AcDbPolyline
 90
        4
 70
         1
 43
0.0
 10
16.0
 20
-6.4
 10
16.0
 20
-5.6
 10
17.5
 20
-5.6
 42
-1.000000
 10
17.5
 20
-6.4
  0
LWPOLYLINE
  5
28C
100
AcDbEntity
  8
SOLDERPASTE_PADS_TOP
100
AcDbPolyline
 90
        4
 70
         1
 43
0.0
 10
16.0
 20
-7.4
 10
16.0
 20
-6.6
 10
17.5
 20
-6.6
 42
-1.000000
 10
17.5
 20
-7.4
  0
LWPOLYLINE
  5
28D
100
AcDbEntity
  8
SOLDERPASTE_PADS_TOP
100
AcDbPolyline
 90
        4
 70
         1
 43
0.0
 10
16.0
 20
-8.4
 10
16.0
 20
-7.6
 10
17.5
 20
-7.6
 42
-1.000000
 10
17.5
 20
-8.4
  0
LWPOLYLINE
  5
28E
100
AcDbEntity
  8
SOLDERPASTE_PADS_TOP
100
AcDbPolyline
 90
        4
 70
         1
 43
0.0
 10
16.0
 20
-9.4
 10
16.0
 20
-8.6
 10
17.5
 20
-8.6
 42
-1.000000
 10
17.5
 20
-9.4
  0
LWPOLYLINE
  5
28F
100
AcDbEntity
  8
SOLDERPASTE_PADS_TOP
100
AcDbPolyline
 90
        4
 70
         1
 43
0.0
 10
16.0
 20
-10.4
 10
16.0
 20
-9.6
 10
17.5
 20
-9.6
 42
-1.000000
 10
17.5
 20
-10.4
  0
LWPOLYLINE
  5
290
100
AcDbEntity
  8
SOLDERPASTE_PADS_TOP
100
AcDbPolyline
 90
        4
 70
         1
 43
0.0
 10
16.0
 20
-11.4
 10
16.0
 20
-10.6
 10
17.5
 20
-10.6
 42
-1.000000
 10
17.5
 20
-11.4
  0
LWPOLYLINE
  5
291
100
AcDbEntity
  8
SOLDERPASTE_PADS_TOP
100
AcDbPolyline
 90
        4
 70
         1
 43
0.0
 10
16.0
 20
-12.4
 10
16.0
 20
-11.6
 10
17.5
 20
-11.6
 42
-1.000000
 10
17.5
 20
-12.4
  0
LWPOLYLINE
  5
292
100
AcDbEntity
  8
SOLDERPASTE_PADS_TOP
100
AcDbPolyline
 90
        4
 70
         1
 43
0.0
 10
16.0
 20
-13.4
 10
16.0
 20
-12.6
 10
17.5
 20
-12.6
 42
-1.000000
 10
17.5
 20
-13.4
  0
LWPOLYLINE
  5
293
100
AcDbEntity
  8
SOLDERPASTE_PADS_TOP
100
AcDbPolyline
 90
        4
 70
         1
 43
0.0
 10
16.0
 20
-14.4
 10
16.0
 20
-13.6
 10
17.5
 20
-13.6
 42
-1.000000
 10
17.5
 20
-14.4
  0
LWPOLYLINE
  5
294
100
AcDbEntity
  8
SOLDERPASTE_PADS_TOP
100
AcDbPolyline
 90
        4
 70
         1
 43
0.0
 10
16.0
 20
-15.4
 10
16.0
 20
-14.6
 10
17.5
 20
-14.6
 42
-1.000000
 10
17.5
 20
-15.4
  0
LWPOLYLINE
  5
295
100
AcDbEntity
  8
SOLDERPASTE_PADS_TOP
100
AcDbPolyline
 90
        4
 70
         1
 43
0.0
 10
-16.0
 20
-14.6
 10
-16.0
 20
-15.4
 10
-17.5
 20
-15.4
 42
-1.000000
 10
-17.5
 20
-14.6
  0
LWPOLYLINE
  5
296
100
AcDbEntity
  8
SOLDERPASTE_PADS_TOP
100
AcDbPolyline
 90
        4
 70
         1
 43
0.0
 10
-16.0
 20
-13.6
 10
-16.0
 20
-14.4
 10
-17.5
 20
-14.4
 42
-1.000000
 10
-17.5
 20
-13.6
  0
LWPOLYLINE
  5
297
100
AcDbEntity
  8
SOLDERPASTE_PADS_TOP
100
AcDbPolyline
 90
        4
 70
         1
 43
0.0
 10
-16.0
 20
-12.6
 10
-16.0
 20
-13.4
 10
-17.5
 20
-13.4
 42
-1.000000
 10
-17.5
 20
-12.6
  0
LWPOLYLINE
  5
298
100
AcDbEntity
  8
SOLDERPASTE_PADS_TOP
100
AcDbPolyline
 90
        4
 70
         1
 43
0.0
 10
-16.0
 20
-11.6
 10
-16.0
 20
-12.4
 10
-17.5
 20
-12.4
 42
-1.000000
 10
-17.5
 20
-11.6
  0
LWPOLYLINE
  5
299
100
AcDbEntity
  8
SOLDERPASTE_PADS_TOP
100
AcDbPolyline
 90
        4
 70
         1
 43
0.0
 10
-16.0
 20
-10.6
 10
-16.0
 20
-11.4
 10
-17.5
 20
-11.4
 42
-1.000000
 10
-17.5
 20
-10.6
  0
LWPOLYLINE
  5
29A
100
AcDbEntity
  8
SOLDERPASTE_PADS_TOP
100
AcDbPolyline
 90
        4
 70
         1
 43
0.0
 10
-16.0
 20
-9.6
 10
-16.0
 20
-10.4
 10
-17.5
 20
-10.4
 42
-1.000000
 10
-17.5
 20
-9.6
  0
LWPOLYLINE
  5
29B
100
AcDbEntity
  8
SOLDERPASTE_PADS_TOP
100
AcDbPolyline
 90
        4
 70
         1
 43
0.0
 10
-16.0
 20
-8.6
 10
-16.0
 20
-9.4
 10
-17.5
 20
-9.4
 42
-1.000000
 10
-17.5
 20
-8.6
  0
LWPOLYLINE
  5
29C
100
AcDbEntity
  8
SOLDERPASTE_PADS_TOP
100
AcDbPolyline
 90
        4
 70
         1
 43
0.0
 10
-16.0
 20
-7.6
 10
-16.0
 20
-8.4
 10
-17.5
 20
-8.4
 42
-1.000000
 10
-17.5
 20
-7.6
  0
LWPOLYLINE
  5
29D
100
AcDbEntity
  8
SOLDERPASTE_PADS_TOP
100
AcDbPolyline
 90
        4
 70
         1
 43
0.0
 10
-16.0
 20
-6.6
 10
-16.0
 20
-7.4
 10
-17.5
 20
-7.4
 42
-1.000000
 10
-17.5
 20
-6.6
  0
LWPOLYLINE
  5
29E
100
AcDbEntity
  8
SOLDERPASTE_PADS_TOP
100
AcDbPolyline
 90
        4
 70
         1
 43
0.0
 10
-16.0
 20
-5.6
 10
-16.0
 20
-6.4
 10
-17.5
 20
-6.4
 42
-1.000000
 10
-17.5
 20
-5.6
  0
LWPOLYLINE
  5
29F
100
AcDbEntity
  8
SOLDERPASTE_PADS_TOP
100
AcDbPolyline
 90
        4
 70
         1
 43
0.0
 10
-16.0
 20
-4.6
 10
-16.0
 20
-5.4
 10
-17.5
 20
-5.4
 42
-1.000000
 10
-17.5
 20
-4.6
  0
LWPOLYLINE
  5
2A0
100
AcDbEntity
  8
SOLDERPASTE_PADS_TOP
100
AcDbPolyline
 90
        4
 70
         1
 43
0.0
 10
-16.0
 20
-3.6
 10
-16.0
 20
-4.4
 10
-17.5
 20
-4.4
 42
-1.000000
 10
-17.5
 20
-3.6
  0
LWPOLYLINE
  5
2A1
100
AcDbEntity
  8
SOLDERPASTE_PADS_TOP
100
AcDbPolyline
 90
        4
 70
         1
 43
0.0
 10
-16.0
 20
-2.6
 10
-16.0
 20
-3.4
 10
-17.5
 20
-3.4
 42
-1.000000
 10
-17.5
 20
-2.6
  0
LWPOLYLINE
  5
2A2
100
AcDbEntity
  8
SOLDERPASTE_PADS_TOP
100
AcDbPolyline
 90
        4
 70
         1
 43
0.0
 10
-16.0
 20
-1.6
 10
-16.0
 20
-2.4
 10
-17.5
 20
-2.4
 42
-1.000000
 10
-17.5
 20
-1.6
  0
LWPOLYLINE
  5
2A3
100
AcDbEntity
  8
SOLDERPASTE_PADS_TOP
100
AcDbPolyline
 90
        4
 70
         1
 43
0.0
 10
-16.0
 20
-0.6
 10
-16.0
 20
-1.4
 10
-17.5
 20
-1.4
 42
-1.000000
 10
-17.5
 20
-0.6
  0
LWPOLYLINE
  5
2A4
100
AcDbEntity
  8
SOLDERPASTE_PADS_TOP
100
AcDbPolyline
 90
        4
 70
         1
 43
0.0
 10
-16.0
 20
0.4
 10
-16.0
 20
-0.4
 10
-17.5
 20
-0.4
 42
-1.000000
 10
-17.5
 20
0.4
  0
LWPOLYLINE
  5
2A5
100
AcDbEntity
  8
SOLDERPASTE_PADS_TOP
100
AcDbPolyline
 90
        4
 70
         1
 43
0.0
 10
-16.0
 20
1.4
 10
-16.0
 20
0.6
 10
-17.5
 20
0.6
 42
-1.000000
 10
-17.5
 20
1.4
  0
LWPOLYLINE
  5
2A6
100
AcDbEntity
  8
SOLDERPASTE_PADS_TOP
100
AcDbPolyline
 90
        4
 70
         1
 43
0.0
 10
-16.0
 20
2.4
 10
-16.0
 20
1.6
 10
-17.5
 20
1.6
 42
-1.000000
 10
-17.5
 20
2.4
  0
LWPOLYLINE
  5
2A7
100
AcDbEntity
  8
SOLDERPASTE_PADS_TOP
100
AcDbPolyline
 90
        4
 70
         1
 43
0.0
 10
-16.0
 20
3.4
 10
-16.0
 20
2.6
 10
-17.5
 20
2.6
 42
-1.000000
 10
-17.5
 20
3.4
  0
LWPOLYLINE
  5
2A8
100
AcDbEntity
  8
SOLDERPASTE_PADS_TOP
100
AcDbPolyline
 90
        4
 70
         1
 43
0.0
 10
-16.0
 20
4.4
 10
-16.0
 20
3.6
 10
-17.5
 20
3.6
 42
-1.000000
 10
-17.5
 20
4.4
  0
LWPOLYLINE
  5
2A9
100
AcDbEntity
  8
SOLDERPASTE_PADS_TOP
100
AcDbPolyline
 90
        4
 70
         1
 43
0.0
 10
-16.0
 20
5.4
 10
-16.0
 20
4.6
 10
-17.5
 20
4.6
 42
-1.000000
 10
-17.5
 20
5.4
  0
LWPOLYLINE
  5
2AA
100
AcDbEntity
  8
SOLDERPASTE_PADS_TOP
100
AcDbPolyline
 90
        4
 70
         1
 43
0.0
 10
-16.0
 20
6.4
 10
-16.0
 20
5.6
 10
-17.5
 20
5.6
 42
-1.000000
 10
-17.5
 20
6.4
  0
LWPOLYLINE
  5
2AB
100
AcDbEntity
  8
SOLDERPASTE_PADS_TOP
100
AcDbPolyline
 90
        4
 70
         1
 43
0.0
 10
-16.0
 20
7.4
 10
-16.0
 20
6.6
 10
-17.5
 20
6.6
 42
-1.000000
 10
-17.5
 20
7.4
  0
LWPOLYLINE
  5
2AC
100
AcDbEntity
  8
SOLDERPASTE_PADS_TOP
100
AcDbPolyline
 90
        4
 70
         1
 43
0.0
 10
-16.0
 20
8.4
 10
-16.0
 20
7.6
 10
-17.5
 20
7.6
 42
-1.000000
 10
-17.5
 20
8.4
  0
LWPOLYLINE
  5
2AD
100
AcDbEntity
  8
SOLDERPASTE_PADS_TOP
100
AcDbPolyline
 90
        4
 70
         1
 43
0.0
 10
-16.0
 20
9.4
 10
-16.0
 20
8.6
 10
-17.5
 20
8.6
 42
-1.000000
 10
-17.5
 20
9.4
  0
LWPOLYLINE
  5
2AE
100
AcDbEntity
  8
SOLDERPASTE_PADS_TOP
100
AcDbPolyline
 90
        4
 70
         1
 43
0.0
 10
-16.0
 20
10.4
 10
-16.0
 20
9.6
 10
-17.5
 20
9.6
 42
-1.000000
 10
-17.5
 20
10.4
  0
LWPOLYLINE
  5
2AF
100
AcDbEntity
  8
SOLDERPASTE_PADS_TOP
100
AcDbPolyline
 90
        4
 70
         1
 43
0.0
 10
-16.0
 20
11.4
 10
-16.0
 20
10.6
 10
-17.5
 20
10.6
 42
-1.000000
 10
-17.5
 20
11.4
  0
LWPOLYLINE
  5
2B0
100
AcDbEntity
  8
SOLDERPASTE_PADS_TOP
100
AcDbPolyline
 90
        4
 70
         1
 43
0.0
 10
-16.0
 20
12.4
 10
-16.0
 20
11.6
 10
-17.5
 20
11.6
 42
-1.000000
 10
-17.5
 20
12.4
  0
LWPOLYLINE
  5
2B1
100
AcDbEntity
  8
SOLDERPASTE_PADS_TOP
100
AcDbPolyline
 90
        4
 70
         1
 43
0.0
 10
-16.0
 20
13.4
 10
-16.0
 20
12.6
 10
-17.5
 20
12.6
 42
-1.000000
 10
-17.5
 20
13.4
  0
LWPOLYLINE
  5
2B2
100
AcDbEntity
  8
SOLDERPASTE_PADS_TOP
100
AcDbPolyline
 90
        4
 70
         1
 43
0.0
 10
-16.0
 20
14.4
 10
-16.0
 20
13.6
 10
-17.5
 20
13.6
 42
-1.000000
 10
-17.5
 20
14.4
  0
LWPOLYLINE
  5
2B3
100
AcDbEntity
  8
SOLDERPASTE_PADS_TOP
100
AcDbPolyline
 90
        4
 70
         1
 43
0.0
 10
-16.0
 20
15.4
 10
-16.0
 20
14.6
 10
-17.5
 20
14.6
 42
-1.000000
 10
-17.5
 20
15.4
  0
LWPOLYLINE
  5
2B4
100
AcDbEntity
  8
SOLDERPASTE_TOP
100
AcDbPolyline
 90
        243
 70
         0
 43
0.1
 10
-36.14801
 20
-0.49403
 10
-35.98545
 20
-0.48006
 10
-35.97783
 20
-0.52705
 10
-35.9664
 20
-0.56896
 10
-35.95116
 20
-0.60706
 10
-35.93211
 20
-0.64008
 10
-35.92068
 20
-0.65532
 10
-35.90798
 20
-0.67056
 10
-35.89401
 20
-0.68326
 10
-35.87877
 20
-0.69723
 10
-35.86099
 20
-0.70866
 10
-35.84321
 20
-0.72009
 10
-35.82289
 20
-0.73152
 10
-35.8013
 20
-0.74168
 10
-35.75558
 20
-0.75819
 10
-35.70732
 20
-0.76962
 10
-35.65652
 20
-0.77724
 10
-35.60191
 20
-0.77978
 10
-35.55492
 20
-0.77851
 10
-35.51047
 20
-0.77216
 10
-35.46856
 20
-0.76327
 10
-35.42919
 20
-0.75057
 10
-35.39363
 20
-0.73406
 10
-35.36315
 20
-0.71628
 10
-35.33775
 20
-0.69469
 10
-35.31743
 20
-0.67056
 10
-35.30092
 20
-0.64389
 10
-35.28949
 20
-0.61722
 10
-35.28314
 20
-0.58801
 10
-35.2806
 20
-0.5588
 10
-35.28314
 20
-0.52959
 10
-35.28949
 20
-0.50165
 10
-35.30092
 20
-0.47625
 10
-35.31616
 20
-0.45212
 10
-35.32632
 20
-0.44069
 10
-35.33775
 20
-0.43053
 10
-35.35045
 20
-0.42037
 10
-35.36442
 20
-0.41021
 10
-35.37966
 20
-0.40132
 10
-35.39617
 20
-0.39243
 10
-35.41395
 20
-0.38354
 10
-35.43427
 20
-0.37592
 10
-35.44951
 20
-0.36957
 10
-35.46856
 20
-0.36322
 10
-35.49142
 20
-0.35687
 10
-35.51809
 20
-0.34925
 10
-35.54857
 20
-0.34163
 10
-35.58413
 20
-0.33274
 10
-35.62223
 20
-0.32258
 10
-35.66541
 20
-0.31242
 10
-35.70859
 20
-0.30099
 10
-35.74796
 20
-0.29083
 10
-35.78479
 20
-0.28067
 10
-35.81781
 20
-0.27051
 10
-35.84702
 20
-0.26035
 10
-35.87369
 20
-0.25019
 10
-35.89655
 20
-0.24003
 10
-35.9156
 20
-0.23114
 10
-35.93846
 20
-0.21844
 10
-35.95878
 20
-0.20447
 10
-35.9791
 20
-0.1905
 10
-35.99688
 20
-0.17653
 10
-36.01339
 20
-0.16129
 10
-36.02863
 20
-0.14478
 10
-36.0426
 20
-0.127
 10
-36.05403
 20
-0.10922
 10
-36.06419
 20
-0.09144
 10
-36.07435
 20
-0.07239
 10
-36.08197
 20
-0.05334
 10
-36.08832
 20
-0.03302
 10
-36.0934
 20
-0.0127
 10
-36.09721
 20
0.00889
 10
-36.09848
 20
0.03048
 10
-36.09975
 20
0.05207
 10
-36.09848
 20
0.0762
 10
-36.09594
 20
0.10033
 10
-36.09213
 20
0.12446
 10
-36.08578
 20
0.14732
 10
-36.07816
 20
0.17018
 10
-36.068
 20
0.19177
 10
-36.05657
 20
0.21463
 10
-36.04387
 20
0.23622
 10
-36.02863
 20
0.25654
 10
-36.01339
 20
0.27559
 10
-35.99434
 20
0.29464
 10
-35.97529
 20
0.31115
 10
-35.9537
 20
0.32639
 10
-35.93084
 20
0.34163
 10
-35.90671
 20
0.35433
 10
-35.88131
 20
0.36576
 10
-35.85337
 20
0.37592
 10
-35.82543
 20
0.38481
 10
-35.79749
 20
0.39243
 10
-35.76828
 20
0.39878
 10
-35.7378
 20
0.40386
 10
-35.70732
 20
0.40767
 10
-35.67557
 20
0.40894
 10
-35.64255
 20
0.41021
 10
-35.60699
 20
0.40894
 10
-35.5727
 20
0.40767
 10
-35.53968
 20
0.40386
 10
-35.50666
 20
0.39878
 10
-35.47618
 20
0.39243
 10
-35.4457
 20
0.38354
 10
-35.41649
 20
0.37465
 10
-35.38855
 20
0.36322
 10
-35.36188
 20
0.35052
 10
-35.33648
 20
0.33782
 10
-35.31235
 20
0.32258
 10
-35.29076
 20
0.30607
 10
-35.27044
 20
0.28829
 10
-35.25139
 20
0.26924
 10
-35.23361
 20
0.24892
 10
-35.21837
 20
0.22606
 10
-35.2044
 20
0.2032
 10
-35.19297
 20
0.17907
 10
-35.18154
 20
0.15494
 10
-35.17265
 20
0.12954
 10
-35.1663
 20
0.10414
 10
-35.15995
 20
0.07747
 10
-35.15741
 20
0.04953
 10
-35.15487
 20
0.02159
 10
-35.31997
 20
0.00889
 10
-35.32378
 20
0.03937
 10
-35.33013
 20
0.06731
 10
-35.33902
 20
0.09271
 10
-35.34918
 20
0.11684
 10
-35.36188
 20
0.1397
 10
-35.37585
 20
0.16002
 10
-35.39109
 20
0.17907
 10
-35.41014
 20
0.19558
 10
-35.43046
 20
0.21082
 10
-35.45332
 20
0.22352
 10
-35.47745
 20
0.23368
 10
-35.50412
 20
0.24257
 10
-35.5346
 20
0.25019
 10
-35.56635
 20
0.25527
 10
-35.59937
 20
0.25781
 10
-35.6362
 20
0.25908
 10
-35.6743
 20
0.25781
 10
-35.70859
 20
0.25527
 10
-35.74161
 20
0.25146
 10
-35.77082
 20
0.24511
 10
-35.79749
 20
0.23622
 10
-35.82289
 20
0.22733
 10
-35.84448
 20
0.21463
 10
-35.86353
 20
0.20193
 10
-35.88004
 20
0.18669
 10
-35.89401
 20
0.17145
 10
-35.90671
 20
0.15494
 10
-35.91687
 20
0.13843
 10
-35.92449
 20
0.12065
 10
-35.92957
 20
0.10287
 10
-35.93338
 20
0.08382
 10
-35.93465
 20
0.0635
 10
-35.93338
 20
0.04699
 10
-35.93084
 20
0.03048
 10
-35.92703
 20
0.01524
 10
-35.92195
 20
0.0
 10
-35.91433
 20
-0.01397
 10
-35.90671
 20
-0.02794
 10
-35.89655
 20
-0.03937
 10
-35.88385
 20
-0.05207
 10
-35.86861
 20
-0.06223
 10
-35.84956
 20
-0.07366
 10
-35.82416
 20
-0.08636
 10
-35.79495
 20
-0.09779
 10
-35.75939
 20
-0.10922
 10
-35.72002
 20
-0.12065
 10
-35.6743
 20
-0.13208
 10
-35.62477
 20
-0.14478
 10
-35.57524
 20
-0.15621
 10
-35.52825
 20
-0.16764
 10
-35.48634
 20
-0.1778
 10
-35.44824
 20
-0.18923
 10
-35.41395
 20
-0.19939
 10
-35.38474
 20
-0.20828
 10
-35.35934
 20
-0.21844
 10
-35.33775
 20
-0.22733
 10
-35.30981
 20
-0.24003
 10
-35.28441
 20
-0.25527
 10
-35.26028
 20
-0.27051
 10
-35.23869
 20
-0.28702
 10
-35.21837
 20
-0.30353
 10
-35.20059
 20
-0.32131
 10
-35.18408
 20
-0.34036
 10
-35.17011
 20
-0.35941
 10
-35.15741
 20
-0.37973
 10
-35.14598
 20
-0.40132
 10
-35.13709
 20
-0.42291
 10
-35.12947
 20
-0.44577
 10
-35.12312
 20
-0.4699
 10
-35.11931
 20
-0.49403
 10
-35.11677
 20
-0.51816
 10
-35.1155
 20
-0.54483
 10
-35.11677
 20
-0.57023
 10
-35.11931
 20
-0.59563
 10
-35.12439
 20
-0.62103
 10
-35.13074
 20
-0.64516
 10
-35.13836
 20
-0.66929
 10
-35.14852
 20
-0.69342
 10
-35.16122
 20
-0.71628
 10
-35.17519
 20
-0.74041
 10
-35.19043
 20
-0.762
 10
-35.20821
 20
-0.78359
 10
-35.22599
 20
-0.80264
 10
-35.24758
 20
-0.82169
 10
-35.26917
 20
-0.8382
 10
-35.2933
 20
-0.85471
 10
-35.3187
 20
-0.86868
 10
-35.34537
 20
-0.88265
 10
-35.37331
 20
-0.89408
 10
-35.40252
 20
-0.90551
 10
-35.43173
 20
-0.91313
 10
-35.46348
 20
-0.92075
 10
-35.49523
 20
-0.92583
 10
-35.52698
 20
-0.93091
 10
-35.56127
 20
-0.93218
 10
-35.59556
 20
-0.93345
 10
-35.63874
 20
-0.93218
 10
-35.67938
 20
-0.93091
 10
-35.71875
 20
-0.92583
 10
-35.75685
 20
-0.92075
 10
-35.79241
 20
-0.91313
 10
-35.8267
 20
-0.90424
 10
-35.85972
 20
-0.89408
 10
-35.8902
 20
-0.88265
 10
-35.91941
 20
-0.86868
 10
-35.94608
 20
-0.85344
 10
-35.97148
 20
-0.83693
 10
-35.99561
 20
-0.81788
 10
-36.01847
 20
-0.79756
 10
-36.04006
 20
-0.77597
 10
-36.05911
 20
-0.75311
 10
-36.07689
 20
-0.72771
 10
-36.09213
 20
-0.70104
 10
-36.1061
 20
-0.67437
 10
-36.1188
 20
-0.64643
 10
-36.12896
 20
-0.61722
 10
-36.13658
 20
-0.58801
 10
-36.14166
 20
-0.55753
 10
-36.14547
 20
-0.52578
 10
-36.14801
 20
-0.49403
  0
LWPOLYLINE
  5
2B5
100
AcDbEntity
  8
SOLDERPASTE_TOP
100
AcDbPolyline
 90
        53
 70
         0
 43
0.1
 10
-34.55289
 20
-0.76962
 10
-34.53003
 20
-0.91059
 10
-34.56305
 20
-0.91694
 10
-34.59353
 20
-0.92075
 10
-34.62274
 20
-0.92329
 10
-34.65068
 20
-0.92456
 10
-34.69132
 20
-0.92329
 10
-34.72688
 20
-0.91821
 10
-34.75863
 20
-0.90932
 10
-34.7853
 20
-0.89662
 10
-34.80689
 20
-0.88265
 10
-34.82594
 20
-0.86487
 10
-34.84118
 20
-0.84582
 10
-34.85261
 20
-0.8255
 10
-34.85642
 20
-0.8128
 10
-34.86023
 20
-0.79629
 10
-34.86404
 20
-0.77724
 10
-34.86658
 20
-0.75565
 10
-34.86912
 20
-0.73025
 10
-34.87039
 20
-0.70231
 10
-34.87166
 20
-0.67056
 10
-34.87166
 20
-0.63627
 10
-34.87166
 20
-0.09525
 10
-34.98977
 20
-0.09525
 10
-34.98977
 20
0.02921
 10
-34.87166
 20
0.02921
 10
-34.87166
 20
0.26162
 10
-34.71164
 20
0.35814
 10
-34.71164
 20
0.02921
 10
-34.55289
 20
0.02921
 10
-34.55289
 20
-0.09525
 10
-34.71164
 20
-0.09525
 10
-34.71164
 20
-0.64516
 10
-34.71164
 20
-0.66167
 10
-34.71164
 20
-0.67691
 10
-34.71037
 20
-0.68961
 10
-34.7091
 20
-0.70231
 10
-34.70783
 20
-0.71247
 10
-34.70656
 20
-0.72136
 10
-34.70529
 20
-0.72771
 10
-34.70275
 20
-0.73406
 10
-34.69894
 20
-0.74295
 10
-34.69259
 20
-0.75057
 10
-34.68497
 20
-0.75819
 10
-34.67608
 20
-0.76454
 10
-34.66592
 20
-0.76962
 10
-34.65322
 20
-0.77343
 10
-34.63925
 20
-0.77597
 10
-34.62274
 20
-0.77597
 10
-34.6075
 20
-0.77597
 10
-34.59226
 20
-0.7747
 10
-34.57321
 20
-0.77216
 10
-34.55289
 20
-0.76962
  0
LWPOLYLINE
  5
2B6
100
AcDbEntity
  8
SOLDERPASTE_TOP
100
AcDbPolyline
 90
        103
 70
         0
 43
0.1
 10
-33.75152
 20
-0.60833
 10
-33.58642
 20
-0.62992
 10
-33.59785
 20
-0.66548
 10
-33.61055
 20
-0.6985
 10
-33.62579
 20
-0.72898
 10
-33.6423
 20
-0.75819
 10
-33.66135
 20
-0.78486
 10
-33.68294
 20
-0.81026
 10
-33.7058
 20
-0.83312
 10
-33.7312
 20
-0.85344
 10
-33.75914
 20
-0.87249
 10
-33.78708
 20
-0.889
 10
-33.81883
 20
-0.90297
 10
-33.85185
 20
-0.91313
 10
-33.88614
 20
-0.92202
 10
-33.92297
 20
-0.92837
 10
-33.96107
 20
-0.93218
 10
-34.00044
 20
-0.93345
 10
-34.05124
 20
-0.93091
 10
-34.0995
 20
-0.92583
 10
-34.14395
 20
-0.91567
 10
-34.18586
 20
-0.9017
 10
-34.2265
 20
-0.88392
 10
-34.26333
 20
-0.86233
 10
-34.29762
 20
-0.83566
 10
-34.32937
 20
-0.80645
 10
-34.35731
 20
-0.77343
 10
-34.38144
 20
-0.7366
 10
-34.40303
 20
-0.69596
 10
-34.41954
 20
-0.65405
 10
-34.43351
 20
-0.60706
 10
-34.4424
 20
-0.55753
 10
-34.44748
 20
-0.50546
 10
-34.45002
 20
-0.44958
 10
-34.44748
 20
-0.39116
 10
-34.4424
 20
-0.33782
 10
-34.43224
 20
-0.28575
 10
-34.41954
 20
-0.23876
 10
-34.40176
 20
-0.19431
 10
-34.38144
 20
-0.1524
 10
-34.35604
 20
-0.11557
 10
-34.3281
 20
-0.08001
 10
-34.29635
 20
-0.04953
 10
-34.26206
 20
-0.02286
 10
-34.22523
 20
0.0
 10
-34.18713
 20
0.01778
 10
-34.14649
 20
0.03175
 10
-34.10331
 20
0.04191
 10
-34.05759
 20
0.04826
 10
-34.00933
 20
0.0508
 10
-33.96361
 20
0.04826
 10
-33.91916
 20
0.04318
 10
-33.87725
 20
0.03302
 10
-33.83788
 20
0.01905
 10
-33.80105
 20
0.0
 10
-33.76549
 20
-0.02159
 10
-33.73247
 20
-0.04826
 10
-33.70072
 20
-0.07747
 10
-33.67278
 20
-0.11176
 10
-33.64865
 20
-0.14859
 10
-33.62833
 20
-0.18923
 10
-33.61182
 20
-0.23241
 10
-33.59785
 20
-0.2794
 10
-33.58896
 20
-0.3302
 10
-33.58261
 20
-0.38354
 10
-33.58134
 20
-0.44069
 10
-33.58134
 20
-0.44831
 10
-33.58134
 20
-0.45847
 10
-33.58134
 20
-0.4699
 10
-33.58261
 20
-0.4826
 10
-34.28619
 20
-0.4826
 10
-34.28238
 20
-0.5207
 10
-34.2773
 20
-0.55626
 10
-34.26968
 20
-0.58928
 10
-34.25952
 20
-0.61976
 10
-34.24809
 20
-0.6477
 10
-34.23285
 20
-0.67437
 10
-34.21634
 20
-0.6985
 10
-34.19856
 20
-0.72009
 10
-34.17824
 20
-0.73914
 10
-34.15665
 20
-0.75692
 10
-34.13379
 20
-0.77089
 10
-34.10966
 20
-0.78232
 10
-34.08426
 20
-0.79121
 10
-34.05759
 20
-0.79756
 10
-34.02965
 20
-0.80137
 10
-34.00044
 20
-0.80264
 10
-33.97885
 20
-0.80137
 10
-33.95853
 20
-0.8001
 10
-33.93821
 20
-0.79629
 10
-33.91916
 20
-0.79121
 10
-33.90138
 20
-0.78486
 10
-33.8836
 20
-0.77724
 10
-33.86709
 20
-0.76708
 10
-33.85058
 20
-0.75692
 10
-33.83534
 20
-0.74422
 10
-33.82137
 20
-0.73025
 10
-33.8074
 20
-0.71374
 10
-33.7947
 20
-0.69596
 10
-33.78327
 20
-0.67691
 10
-33.77184
 20
-0.65532
 10
-33.76168
 20
-0.63246
 10
-33.75152
 20
-0.60833
  0
LWPOLYLINE
  5
2B7
100
AcDbEntity
  8
SOLDERPASTE_TOP
100
AcDbPolyline
 90
        34
 70
         0
 43
0.1
 10
-34.2773
 20
-0.35179
 10
-33.75025
 20
-0.35179
 10
-33.75406
 20
-0.32258
 10
-33.75787
 20
-0.29591
 10
-33.76422
 20
-0.27051
 10
-33.77057
 20
-0.24765
 10
-33.77946
 20
-0.22606
 10
-33.78835
 20
-0.20574
 10
-33.79851
 20
-0.18923
 10
-33.81121
 20
-0.17272
 10
-33.83026
 20
-0.15113
 10
-33.85185
 20
-0.13208
 10
-33.87471
 20
-0.11684
 10
-33.89884
 20
-0.10287
 10
-33.92424
 20
-0.09271
 10
-33.95091
 20
-0.08636
 10
-33.97885
 20
-0.08128
 10
-34.00933
 20
-0.08001
 10
-34.036
 20
-0.08128
 10
-34.0614
 20
-0.08509
 10
-34.0868
 20
-0.09017
 10
-34.10966
 20
-0.09906
 10
-34.13252
 20
-0.10922
 10
-34.15411
 20
-0.12192
 10
-34.17443
 20
-0.13716
 10
-34.19475
 20
-0.15367
 10
-34.21126
 20
-0.17399
 10
-34.22777
 20
-0.19431
 10
-34.24047
 20
-0.21717
 10
-34.2519
 20
-0.24003
 10
-34.26206
 20
-0.26543
 10
-34.26968
 20
-0.29337
 10
-34.27476
 20
-0.32131
 10
-34.2773
 20
-0.35179
  0
LWPOLYLINE
  5
2B8
100
AcDbEntity
  8
SOLDERPASTE_TOP
100
AcDbPolyline
 90
        69
 70
         0
 43
0.1
 10
-33.38703
 20
-0.91186
 10
-33.38703
 20
0.02921
 10
-33.24352
 20
0.02921
 10
-33.24352
 20
-0.10414
 10
-33.21558
 20
-0.06858
 10
-33.18637
 20
-0.03683
 10
-33.15208
 20
-0.01016
 10
-33.11652
 20
0.01143
 10
-33.07715
 20
0.02921
 10
-33.03524
 20
0.04064
 10
-32.99079
 20
0.04826
 10
-32.9438
 20
0.0508
 10
-32.90189
 20
0.04826
 10
-32.86125
 20
0.04318
 10
-32.82315
 20
0.03302
 10
-32.78632
 20
0.02032
 10
-32.7533
 20
0.00381
 10
-32.72409
 20
-0.01524
 10
-32.69996
 20
-0.03683
 10
-32.67964
 20
-0.05969
 10
-32.66313
 20
-0.08636
 10
-32.64916
 20
-0.1143
 10
-32.639
 20
-0.14478
 10
-32.63011
 20
-0.1778
 10
-32.62757
 20
-0.1905
 10
-32.6263
 20
-0.20447
 10
-32.62503
 20
-0.22098
 10
-32.62376
 20
-0.23876
 10
-32.62249
 20
-0.25908
 10
-32.62122
 20
-0.28194
 10
-32.62122
 20
-0.30607
 10
-32.62122
 20
-0.33274
 10
-32.62122
 20
-0.91186
 10
-32.78124
 20
-0.91186
 10
-32.78124
 20
-0.33909
 10
-32.78124
 20
-0.31623
 10
-32.78251
 20
-0.29337
 10
-32.78378
 20
-0.27305
 10
-32.78632
 20
-0.254
 10
-32.78886
 20
-0.23622
 10
-32.7914
 20
-0.22098
 10
-32.79521
 20
-0.20701
 10
-32.80029
 20
-0.19304
 10
-32.81045
 20
-0.17018
 10
-32.82569
 20
-0.14986
 10
-32.84347
 20
-0.13208
 10
-32.86633
 20
-0.11684
 10
-32.89046
 20
-0.10414
 10
-32.91713
 20
-0.09525
 10
-32.94634
 20
-0.0889
 10
-32.97682
 20
-0.08763
 10
-33.00222
 20
-0.0889
 10
-33.02635
 20
-0.09144
 10
-33.04921
 20
-0.09652
 10
-33.07207
 20
-0.10414
 10
-33.09366
 20
-0.11303
 10
-33.11398
 20
-0.12446
 10
-33.1343
 20
-0.13716
 10
-33.15335
 20
-0.1524
 10
-33.16986
 20
-0.17018
 10
-33.1851
 20
-0.19177
 10
-33.1978
 20
-0.21717
 10
-33.20796
 20
-0.24638
 10
-33.21685
 20
-0.27813
 10
-33.22193
 20
-0.31496
 10
-33.22574
 20
-0.35433
 10
-33.22701
 20
-0.39751
 10
-33.22701
 20
-0.91186
 10
-33.38703
 20
-0.91186
  0
LWPOLYLINE
  5
2B9
100
AcDbEntity
  8
SOLDERPASTE_TOP
100
AcDbPolyline
 90
        139
 70
         0
 43
0.1
 10
-31.7627
 20
-0.56769
 10
-31.60522
 20
-0.58928
 10
-31.61284
 20
-0.62865
 10
-31.623
 20
-0.66548
 10
-31.6357
 20
-0.70104
 10
-31.65094
 20
-0.73279
 10
-31.66872
 20
-0.76327
 10
-31.68904
 20
-0.79248
 10
-31.7119
 20
-0.81788
 10
-31.7373
 20
-0.84201
 10
-31.76397
 20
-0.8636
 10
-31.79318
 20
-0.88265
 10
-31.82366
 20
-0.89789
 10
-31.85541
 20
-0.91059
 10
-31.88843
 20
-0.92075
 10
-31.92272
 20
-0.92837
 10
-31.95955
 20
-0.93218
 10
-31.99765
 20
-0.93345
 10
-32.04464
 20
-0.93091
 10
-32.08909
 20
-0.92583
 10
-32.131
 20
-0.91567
 10
-32.17164
 20
-0.9017
 10
-32.20974
 20
-0.88392
 10
-32.24403
 20
-0.86233
 10
-32.27705
 20
-0.83693
 10
-32.30753
 20
-0.80772
 10
-32.33547
 20
-0.77343
 10
-32.3596
 20
-0.7366
 10
-32.37992
 20
-0.69723
 10
-32.39643
 20
-0.65405
 10
-32.40913
 20
-0.60706
 10
-32.41802
 20
-0.55626
 10
-32.42437
 20
-0.50165
 10
-32.42564
 20
-0.4445
 10
-32.42437
 20
-0.40767
 10
-32.42183
 20
-0.37084
 10
-32.41802
 20
-0.33655
 10
-32.41294
 20
-0.30226
 10
-32.40532
 20
-0.26924
 10
-32.3977
 20
-0.23749
 10
-32.38627
 20
-0.20701
 10
-32.37484
 20
-0.1778
 10
-32.36214
 20
-0.14986
 10
-32.3469
 20
-0.12446
 10
-32.32912
 20
-0.10033
 10
-32.31134
 20
-0.07747
 10
-32.29102
 20
-0.05715
 10
-32.26943
 20
-0.0381
 10
-32.24657
 20
-0.02159
 10
-32.22117
 20
-0.00635
 10
-32.1945
 20
0.00635
 10
-32.16783
 20
0.01905
 10
-32.14116
 20
0.02794
 10
-32.11322
 20
0.03683
 10
-32.08528
 20
0.04318
 10
-32.05607
 20
0.04699
 10
-32.02686
 20
0.04953
 10
-31.99638
 20
0.0508
 10
-31.95955
 20
0.04953
 10
-31.92272
 20
0.04572
 10
-31.8897
 20
0.03937
 10
-31.85668
 20
0.03175
 10
-31.8262
 20
0.02032
 10
-31.79826
 20
0.00762
 10
-31.77032
 20
-0.00889
 10
-31.74492
 20
-0.02667
 10
-31.72206
 20
-0.04699
 10
-31.70047
 20
-0.06985
 10
-31.68269
 20
-0.09398
 10
-31.66491
 20
-0.12065
 10
-31.65094
 20
-0.14859
 10
-31.63824
 20
-0.17907
 10
-31.62808
 20
-0.21209
 10
-31.62046
 20
-0.24638
 10
-31.7754
 20
-0.27051
 10
-31.78175
 20
-0.24765
 10
-31.7881
 20
-0.22606
 10
-31.79699
 20
-0.20574
 10
-31.80588
 20
-0.18796
 10
-31.81604
 20
-0.17018
 10
-31.82747
 20
-0.15494
 10
-31.84017
 20
-0.14097
 10
-31.85414
 20
-0.12827
 10
-31.86811
 20
-0.11684
 10
-31.88335
 20
-0.10668
 10
-31.89986
 20
-0.09906
 10
-31.91637
 20
-0.09271
 10
-31.93415
 20
-0.08636
 10
-31.95193
 20
-0.08255
 10
-31.97098
 20
-0.08128
 10
-31.99003
 20
-0.08001
 10
-32.01924
 20
-0.08128
 10
-32.04718
 20
-0.08509
 10
-32.07385
 20
-0.09271
 10
-32.09925
 20
-0.1016
 10
-32.12338
 20
-0.1143
 10
-32.14624
 20
-0.12827
 10
-32.16656
 20
-0.14605
 10
-32.18688
 20
-0.16637
 10
-32.20339
 20
-0.1905
 10
-32.2199
 20
-0.2159
 10
-32.2326
 20
-0.24638
 10
-32.24276
 20
-0.27813
 10
-32.25165
 20
-0.31369
 10
-32.25673
 20
-0.35306
 10
-32.26054
 20
-0.39497
 10
-32.26181
 20
-0.44069
 10
-32.26054
 20
-0.48641
 10
-32.25673
 20
-0.52959
 10
-32.25165
 20
-0.56896
 10
-32.24403
 20
-0.60452
 10
-32.23387
 20
-0.63754
 10
-32.22117
 20
-0.66675
 10
-32.20593
 20
-0.69342
 10
-32.18942
 20
-0.71628
 10
-32.17037
 20
-0.7366
 10
-32.15005
 20
-0.75438
 10
-32.12846
 20
-0.76962
 10
-32.1056
 20
-0.78105
 10
-32.08147
 20
-0.79121
 10
-32.0548
 20
-0.79756
 10
-32.02813
 20
-0.80137
 10
-31.99892
 20
-0.80264
 10
-31.97606
 20
-0.80137
 10
-31.95447
 20
-0.79883
 10
-31.93288
 20
-0.79502
 10
-31.91256
 20
-0.78867
 10
-31.89351
 20
-0.77978
 10
-31.87573
 20
-0.77089
 10
-31.85922
 20
-0.75819
 10
-31.84271
 20
-0.74549
 10
-31.82747
 20
-0.73025
 10
-31.8135
 20
-0.71247
 10
-31.80207
 20
-0.69342
 10
-31.79064
 20
-0.67183
 10
-31.78175
 20
-0.64897
 10
-31.77413
 20
-0.62357
 10
-31.76778
 20
-0.5969
 10
-31.7627
 20
-0.56769
  0
LWPOLYLINE
  5
2BA
100
AcDbEntity
  8
SOLDERPASTE_TOP
100
AcDbPolyline
 90
        5
 70
         0
 43
0.1
 10
-31.46806
 20
0.20447
 10
-31.46806
 20
0.38735
 10
-31.30804
 20
0.38735
 10
-31.30804
 20
0.20447
 10
-31.46806
 20
0.20447
  0
LWPOLYLINE
  5
2BB
100
AcDbEntity
  8
SOLDERPASTE_TOP
100
AcDbPolyline
 90
        5
 70
         0
 43
0.1
 10
-31.46806
 20
-0.91186
 10
-31.46806
 20
0.02921
 10
-31.30804
 20
0.02921
 10
-31.30804
 20
-0.91186
 10
-31.46806
 20
-0.91186
  0
LWPOLYLINE
  5
2BC
100
AcDbEntity
  8
SOLDERPASTE_TOP
100
AcDbPolyline
 90
        5
 70
         0
 43
0.1
 10
-31.07055
 20
-0.91186
 10
-31.07055
 20
0.38735
 10
-30.91053
 20
0.38735
 10
-30.91053
 20
-0.91186
 10
-31.07055
 20
-0.91186
  0
LWPOLYLINE
  5
2BD
100
AcDbEntity
  8
SOLDERPASTE_TOP
100
AcDbPolyline
 90
        26
 70
         0
 43
0.1
 10
-29.60243
 20
-0.91186
 10
-29.76245
 20
-0.91186
 10
-29.76245
 20
0.10414
 10
-29.79293
 20
0.07747
 10
-29.82849
 20
0.04953
 10
-29.86913
 20
0.02159
 10
-29.91358
 20
-0.00508
 10
-29.9593
 20
-0.03175
 10
-30.00248
 20
-0.05334
 10
-30.04312
 20
-0.07239
 10
-30.08122
 20
-0.08763
 10
-30.08122
 20
0.06604
 10
-30.01645
 20
0.09906
 10
-29.95549
 20
0.13589
 10
-29.89961
 20
0.17526
 10
-29.84754
 20
0.21844
 10
-29.82341
 20
0.2413
 10
-29.80055
 20
0.26289
 10
-29.78023
 20
0.28448
 10
-29.76118
 20
0.30734
 10
-29.74467
 20
0.32893
 10
-29.72943
 20
0.35052
 10
-29.71673
 20
0.37084
 10
-29.7053
 20
0.39243
 10
-29.60243
 20
0.39243
 10
-29.60243
 20
-0.91186
  0
LWPOLYLINE
  5
2BE
100
AcDbEntity
  8
SOLDERPASTE_TOP
100
AcDbPolyline
 90
        97
 70
         0
 43
0.1
 10
-29.19476
 20
-0.27051
 10
-29.19349
 20
-0.21463
 10
-29.19222
 20
-0.16129
 10
-29.18841
 20
-0.11049
 10
-29.18333
 20
-0.0635
 10
-29.17571
 20
-0.01778
 10
-29.16809
 20
0.02413
 10
-29.15793
 20
0.0635
 10
-29.14777
 20
0.10033
 10
-29.13507
 20
0.13462
 10
-29.1211
 20
0.16637
 10
-29.10459
 20
0.19685
 10
-29.08808
 20
0.22479
 10
-29.0703
 20
0.25019
 10
-29.04998
 20
0.27432
 10
-29.02839
 20
0.29591
 10
-29.00553
 20
0.31623
 10
-28.9814
 20
0.33401
 10
-28.956
 20
0.34925
 10
-28.92933
 20
0.36322
 10
-28.90012
 20
0.37338
 10
-28.86964
 20
0.38227
 10
-28.83789
 20
0.38735
 10
-28.80487
 20
0.39116
 10
-28.77058
 20
0.39243
 10
-28.74518
 20
0.39116
 10
-28.71978
 20
0.38989
 10
-28.69565
 20
0.38608
 10
-28.67279
 20
0.38227
 10
-28.64993
 20
0.37592
 10
-28.62834
 20
0.3683
 10
-28.60675
 20
0.36068
 10
-28.58643
 20
0.35052
 10
-28.54833
 20
0.32639
 10
-28.51404
 20
0.29845
 10
-28.48356
 20
0.2667
 10
-28.45562
 20
0.2286
 10
-28.43149
 20
0.18669
 10
-28.4099
 20
0.14097
 10
-28.39212
 20
0.09017
 10
-28.37561
 20
0.03556
 10
-28.36926
 20
0.00635
 10
-28.36291
 20
-0.0254
 10
-28.35783
 20
-0.06096
 10
-28.35402
 20
-0.09779
 10
-28.35021
 20
-0.13716
 10
-28.34767
 20
-0.17907
 10
-28.3464
 20
-0.22352
 10
-28.3464
 20
-0.27051
 10
-28.34767
 20
-0.32639
 10
-28.34894
 20
-0.37973
 10
-28.35275
 20
-0.43053
 10
-28.35783
 20
-0.47752
 10
-28.36418
 20
-0.52197
 10
-28.37307
 20
-0.56388
 10
-28.38196
 20
-0.60325
 10
-28.39339
 20
-0.64008
 10
-28.40609
 20
-0.67437
 10
-28.42006
 20
-0.70612
 10
-28.4353
 20
-0.7366
 10
-28.45181
 20
-0.76454
 10
-28.47086
 20
-0.79121
 10
-28.48991
 20
-0.81534
 10
-28.5115
 20
-0.83693
 10
-28.53436
 20
-0.85725
 10
-28.55849
 20
-0.87503
 10
-28.58389
 20
-0.89027
 10
-28.61056
 20
-0.90424
 10
-28.63977
 20
-0.9144
 10
-28.67025
 20
-0.92329
 10
-28.702
 20
-0.92837
 10
-28.73502
 20
-0.93218
 10
-28.77058
 20
-0.93345
 10
-28.8163
 20
-0.93091
 10
-28.85948
 20
-0.92456
 10
-28.90012
 20
-0.9144
 10
-28.93822
 20
-0.90043
 10
-28.97378
 20
-0.88138
 10
-29.0068
 20
-0.85852
 10
-29.03855
 20
-0.83058
 10
-29.06649
 20
-0.8001
 10
-29.08173
 20
-0.77851
 10
-29.0957
 20
-0.75565
 10
-29.10967
 20
-0.73152
 10
-29.12237
 20
-0.70612
 10
-29.1338
 20
-0.67818
 10
-29.14396
 20
-0.64897
 10
-29.15412
 20
-0.61849
 10
-29.16301
 20
-0.58547
 10
-29.17063
 20
-0.55245
 10
-29.17698
 20
-0.51689
 10
-29.18206
 20
-0.48006
 10
-29.18714
 20
-0.44069
 10
-29.18968
 20
-0.40132
 10
-29.19222
 20
-0.35941
 10
-29.19476
 20
-0.31623
 10
-29.19476
 20
-0.27051
  0
LWPOLYLINE
  5
2BF
100
AcDbEntity
  8
SOLDERPASTE_TOP
100
AcDbPolyline
 90
        97
 70
         0
 43
0.1
 10
-29.03093
 20
-0.27178
 10
-29.03093
 20
-0.30988
 10
-29.02966
 20
-0.34798
 10
-29.02839
 20
-0.38354
 10
-29.02585
 20
-0.41783
 10
-29.02331
 20
-0.45085
 10
-29.02077
 20
-0.48133
 10
-29.01696
 20
-0.51054
 10
-29.01188
 20
-0.53848
 10
-29.0068
 20
-0.56388
 10
-29.00172
 20
-0.58801
 10
-28.99537
 20
-0.61087
 10
-28.98902
 20
-0.63119
 10
-28.9814
 20
-0.65024
 10
-28.97378
 20
-0.66802
 10
-28.96489
 20
-0.68326
 10
-28.956
 20
-0.69723
 10
-28.93695
 20
-0.72136
 10
-28.91663
 20
-0.74295
 10
-28.89504
 20
-0.762
 10
-28.87218
 20
-0.77597
 10
-28.84805
 20
-0.7874
 10
-28.82392
 20
-0.79629
 10
-28.79725
 20
-0.80137
 10
-28.77058
 20
-0.80264
 10
-28.74391
 20
-0.80137
 10
-28.71724
 20
-0.79629
 10
-28.69311
 20
-0.7874
 10
-28.66898
 20
-0.77597
 10
-28.64612
 20
-0.76073
 10
-28.62453
 20
-0.74295
 10
-28.60421
 20
-0.72136
 10
-28.58516
 20
-0.69723
 10
-28.57627
 20
-0.68326
 10
-28.56738
 20
-0.66675
 10
-28.55976
 20
-0.64897
 10
-28.55214
 20
-0.62992
 10
-28.54579
 20
-0.6096
 10
-28.53944
 20
-0.58674
 10
-28.53436
 20
-0.56261
 10
-28.52928
 20
-0.53721
 10
-28.5242
 20
-0.51054
 10
-28.52039
 20
-0.48133
 10
-28.51785
 20
-0.44958
 10
-28.51531
 20
-0.41783
 10
-28.51277
 20
-0.38354
 10
-28.5115
 20
-0.34798
 10
-28.51023
 20
-0.30988
 10
-28.51023
 20
-0.27178
 10
-28.51023
 20
-0.23241
 10
-28.5115
 20
-0.19431
 10
-28.51277
 20
-0.15875
 10
-28.51531
 20
-0.12446
 10
-28.51785
 20
-0.09144
 10
-28.52039
 20
-0.06096
 10
-28.5242
 20
-0.03175
 10
-28.52928
 20
-0.00381
 10
-28.53436
 20
0.02159
 10
-28.53944
 20
0.04572
 10
-28.54579
 20
0.06731
 10
-28.55214
 20
0.0889
 10
-28.55976
 20
0.10795
 10
-28.56738
 20
0.12446
 10
-28.57627
 20
0.14097
 10
-28.58516
 20
0.15494
 10
-28.60421
 20
0.17907
 10
-28.62453
 20
0.20066
 10
-28.64612
 20
0.21844
 10
-28.66898
 20
0.23368
 10
-28.69311
 20
0.24511
 10
-28.71851
 20
0.254
 10
-28.74518
 20
0.25908
 10
-28.77185
 20
0.26035
 10
-28.79979
 20
0.25908
 10
-28.82519
 20
0.254
 10
-28.84932
 20
0.24765
 10
-28.87091
 20
0.23749
 10
-28.8925
 20
0.22352
 10
-28.91282
 20
0.20828
 10
-28.93187
 20
0.18923
 10
-28.94838
 20
0.16764
 10
-28.95854
 20
0.15113
 10
-28.96743
 20
0.13462
 10
-28.97632
 20
0.11557
 10
-28.98521
 20
0.09525
 10
-28.99156
 20
0.07366
 10
-28.99918
 20
0.04953
 10
-29.00426
 20
0.0254
 10
-29.01061
 20
-0.00127
 10
-29.01569
 20
-0.03048
 10
-29.0195
 20
-0.05969
 10
-29.02331
 20
-0.09144
 10
-29.02585
 20
-0.12446
 10
-29.02839
 20
-0.15875
 10
-29.02966
 20
-0.19431
 10
-29.03093
 20
-0.23241
 10
-29.03093
 20
-0.27178
  0
LWPOLYLINE
  5
2C0
100
AcDbEntity
  8
SOLDERPASTE_TOP
100
AcDbPolyline
 90
        97
 70
         0
 43
0.1
 10
-28.18511
 20
-0.27051
 10
-28.18384
 20
-0.21463
 10
-28.18257
 20
-0.16129
 10
-28.17876
 20
-0.11049
 10
-28.17368
 20
-0.0635
 10
-28.16606
 20
-0.01778
 10
-28.15844
 20
0.02413
 10
-28.14828
 20
0.0635
 10
-28.13812
 20
0.10033
 10
-28.12542
 20
0.13462
 10
-28.11145
 20
0.16637
 10
-28.09494
 20
0.19685
 10
-28.07843
 20
0.22479
 10
-28.06065
 20
0.25019
 10
-28.04033
 20
0.27432
 10
-28.01874
 20
0.29591
 10
-27.99588
 20
0.31623
 10
-27.97175
 20
0.33401
 10
-27.94635
 20
0.34925
 10
-27.91968
 20
0.36322
 10
-27.89047
 20
0.37338
 10
-27.85999
 20
0.38227
 10
-27.82824
 20
0.38735
 10
-27.79522
 20
0.39116
 10
-27.76093
 20
0.39243
 10
-27.73553
 20
0.39116
 10
-27.71013
 20
0.38989
 10
-27.686
 20
0.38608
 10
-27.66314
 20
0.38227
 10
-27.64028
 20
0.37592
 10
-27.61869
 20
0.3683
 10
-27.5971
 20
0.36068
 10
-27.57678
 20
0.35052
 10
-27.53868
 20
0.32639
 10
-27.50439
 20
0.29845
 10
-27.47391
 20
0.2667
 10
-27.44597
 20
0.2286
 10
-27.42184
 20
0.18669
 10
-27.40025
 20
0.14097
 10
-27.38247
 20
0.09017
 10
-27.36596
 20
0.03556
 10
-27.35961
 20
0.00635
 10
-27.35326
 20
-0.0254
 10
-27.34818
 20
-0.06096
 10
-27.34437
 20
-0.09779
 10
-27.34056
 20
-0.13716
 10
-27.33802
 20
-0.17907
 10
-27.33675
 20
-0.22352
 10
-27.33675
 20
-0.27051
 10
-27.33802
 20
-0.32639
 10
-27.33929
 20
-0.37973
 10
-27.3431
 20
-0.43053
 10
-27.34818
 20
-0.47752
 10
-27.35453
 20
-0.52197
 10
-27.36342
 20
-0.56388
 10
-27.37231
 20
-0.60325
 10
-27.38374
 20
-0.64008
 10
-27.39644
 20
-0.67437
 10
-27.41041
 20
-0.70612
 10
-27.42565
 20
-0.7366
 10
-27.44216
 20
-0.76454
 10
-27.46121
 20
-0.79121
 10
-27.48026
 20
-0.81534
 10
-27.50185
 20
-0.83693
 10
-27.52471
 20
-0.85725
 10
-27.54884
 20
-0.87503
 10
-27.57424
 20
-0.89027
 10
-27.60091
 20
-0.90424
 10
-27.63012
 20
-0.9144
 10
-27.6606
 20
-0.92329
 10
-27.69235
 20
-0.92837
 10
-27.72537
 20
-0.93218
 10
-27.76093
 20
-0.93345
 10
-27.80665
 20
-0.93091
 10
-27.84983
 20
-0.92456
 10
-27.89047
 20
-0.9144
 10
-27.92857
 20
-0.90043
 10
-27.96413
 20
-0.88138
 10
-27.99715
 20
-0.85852
 10
-28.0289
 20
-0.83058
 10
-28.05684
 20
-0.8001
 10
-28.07208
 20
-0.77851
 10
-28.08605
 20
-0.75565
 10
-28.10002
 20
-0.73152
 10
-28.11272
 20
-0.70612
 10
-28.12415
 20
-0.67818
 10
-28.13431
 20
-0.64897
 10
-28.14447
 20
-0.61849
 10
-28.15336
 20
-0.58547
 10
-28.16098
 20
-0.55245
 10
-28.16733
 20
-0.51689
 10
-28.17241
 20
-0.48006
 10
-28.17749
 20
-0.44069
 10
-28.18003
 20
-0.40132
 10
-28.18257
 20
-0.35941
 10
-28.18511
 20
-0.31623
 10
-28.18511
 20
-0.27051
  0
LWPOLYLINE
  5
2C1
100
AcDbEntity
  8
SOLDERPASTE_TOP
100
AcDbPolyline
 90
        97
 70
         0
 43
0.1
 10
-28.02128
 20
-0.27178
 10
-28.02128
 20
-0.30988
 10
-28.02001
 20
-0.34798
 10
-28.01874
 20
-0.38354
 10
-28.0162
 20
-0.41783
 10
-28.01366
 20
-0.45085
 10
-28.01112
 20
-0.48133
 10
-28.00731
 20
-0.51054
 10
-28.00223
 20
-0.53848
 10
-27.99715
 20
-0.56388
 10
-27.99207
 20
-0.58801
 10
-27.98572
 20
-0.61087
 10
-27.97937
 20
-0.63119
 10
-27.97175
 20
-0.65024
 10
-27.96413
 20
-0.66802
 10
-27.95524
 20
-0.68326
 10
-27.94635
 20
-0.69723
 10
-27.9273
 20
-0.72136
 10
-27.90698
 20
-0.74295
 10
-27.88539
 20
-0.762
 10
-27.86253
 20
-0.77597
 10
-27.8384
 20
-0.7874
 10
-27.81427
 20
-0.79629
 10
-27.7876
 20
-0.80137
 10
-27.76093
 20
-0.80264
 10
-27.73426
 20
-0.80137
 10
-27.70759
 20
-0.79629
 10
-27.68346
 20
-0.7874
 10
-27.65933
 20
-0.77597
 10
-27.63647
 20
-0.76073
 10
-27.61488
 20
-0.74295
 10
-27.59456
 20
-0.72136
 10
-27.57551
 20
-0.69723
 10
-27.56662
 20
-0.68326
 10
-27.55773
 20
-0.66675
 10
-27.55011
 20
-0.64897
 10
-27.54249
 20
-0.62992
 10
-27.53614
 20
-0.6096
 10
-27.52979
 20
-0.58674
 10
-27.52471
 20
-0.56261
 10
-27.51963
 20
-0.53721
 10
-27.51455
 20
-0.51054
 10
-27.51074
 20
-0.48133
 10
-27.5082
 20
-0.44958
 10
-27.50566
 20
-0.41783
 10
-27.50312
 20
-0.38354
 10
-27.50185
 20
-0.34798
 10
-27.50058
 20
-0.30988
 10
-27.50058
 20
-0.27178
 10
-27.50058
 20
-0.23241
 10
-27.50185
 20
-0.19431
 10
-27.50312
 20
-0.15875
 10
-27.50566
 20
-0.12446
 10
-27.5082
 20
-0.09144
 10
-27.51074
 20
-0.06096
 10
-27.51455
 20
-0.03175
 10
-27.51963
 20
-0.00381
 10
-27.52471
 20
0.02159
 10
-27.52979
 20
0.04572
 10
-27.53614
 20
0.06731
 10
-27.54249
 20
0.0889
 10
-27.55011
 20
0.10795
 10
-27.55773
 20
0.12446
 10
-27.56662
 20
0.14097
 10
-27.57551
 20
0.15494
 10
-27.59456
 20
0.17907
 10
-27.61488
 20
0.20066
 10
-27.63647
 20
0.21844
 10
-27.65933
 20
0.23368
 10
-27.68346
 20
0.24511
 10
-27.70886
 20
0.254
 10
-27.73553
 20
0.25908
 10
-27.7622
 20
0.26035
 10
-27.79014
 20
0.25908
 10
-27.81554
 20
0.254
 10
-27.83967
 20
0.24765
 10
-27.86126
 20
0.23749
 10
-27.88285
 20
0.22352
 10
-27.90317
 20
0.20828
 10
-27.92222
 20
0.18923
 10
-27.93873
 20
0.16764
 10
-27.94889
 20
0.15113
 10
-27.95778
 20
0.13462
 10
-27.96667
 20
0.11557
 10
-27.97556
 20
0.09525
 10
-27.98191
 20
0.07366
 10
-27.98953
 20
0.04953
 10
-27.99461
 20
0.0254
 10
-28.00096
 20
-0.00127
 10
-28.00604
 20
-0.03048
 10
-28.00985
 20
-0.05969
 10
-28.01366
 20
-0.09144
 10
-28.0162
 20
-0.12446
 10
-28.01874
 20
-0.15875
 10
-28.02001
 20
-0.19431
 10
-28.02128
 20
-0.23241
 10
-28.02128
 20
-0.27178
  0
LWPOLYLINE
  5
2C2
100
AcDbEntity
  8
SOLDERPASTE_TOP
100
AcDbPolyline
 90
        69
 70
         0
 43
0.1
 10
-26.51506
 20
-0.91186
 10
-26.51506
 20
-0.7747
 10
-26.54427
 20
-0.81153
 10
-26.57475
 20
-0.84328
 10
-26.60904
 20
-0.87122
 10
-26.6446
 20
-0.89408
 10
-26.6827
 20
-0.91059
 10
-26.72461
 20
-0.92329
 10
-26.76779
 20
-0.93091
 10
-26.81351
 20
-0.93345
 10
-26.85415
 20
-0.93091
 10
-26.89352
 20
-0.92583
 10
-26.93162
 20
-0.91567
 10
-26.96845
 20
-0.9017
 10
-27.00274
 20
-0.88519
 10
-27.03195
 20
-0.86614
 10
-27.05608
 20
-0.84455
 10
-27.0764
 20
-0.82169
 10
-27.09164
 20
-0.79629
 10
-27.10561
 20
-0.76835
 10
-27.11704
 20
-0.7366
 10
-27.12466
 20
-0.70358
 10
-27.1272
 20
-0.69088
 10
-27.12974
 20
-0.67564
 10
-27.13101
 20
-0.6604
 10
-27.13228
 20
-0.64262
 10
-27.13355
 20
-0.6223
 10
-27.13355
 20
-0.60198
 10
-27.13482
 20
-0.57912
 10
-27.13482
 20
-0.55372
 10
-27.13482
 20
0.02921
 10
-26.9748
 20
0.02921
 10
-26.9748
 20
-0.49276
 10
-26.9748
 20
-0.52324
 10
-26.97353
 20
-0.55118
 10
-26.97353
 20
-0.57531
 10
-26.97226
 20
-0.59817
 10
-26.97099
 20
-0.61722
 10
-26.96972
 20
-0.635
 10
-26.96718
 20
-0.64897
 10
-26.96464
 20
-0.66167
 10
-26.95575
 20
-0.69088
 10
-26.94178
 20
-0.71755
 10
-26.924
 20
-0.74041
 10
-26.90114
 20
-0.76073
 10
-26.87574
 20
-0.77597
 10
-26.84653
 20
-0.7874
 10
-26.81478
 20
-0.79375
 10
-26.78049
 20
-0.79629
 10
-26.7462
 20
-0.79375
 10
-26.71191
 20
-0.7874
 10
-26.67889
 20
-0.77597
 10
-26.64714
 20
-0.75946
 10
-26.61793
 20
-0.73914
 10
-26.59253
 20
-0.71628
 10
-26.57348
 20
-0.68961
 10
-26.55824
 20
-0.65913
 10
-26.55189
 20
-0.64262
 10
-26.54681
 20
-0.62357
 10
-26.54173
 20
-0.60325
 10
-26.53792
 20
-0.58166
 10
-26.53538
 20
-0.55753
 10
-26.53284
 20
-0.53213
 10
-26.53157
 20
-0.50419
 10
-26.53157
 20
-0.47498
 10
-26.53157
 20
0.02921
 10
-26.37155
 20
0.02921
 10
-26.37155
 20
-0.91186
 10
-26.51506
 20
-0.91186
  0
LWPOLYLINE
  5
2C3
100
AcDbEntity
  8
SOLDERPASTE_TOP
100
AcDbPolyline
 90
        132
 70
         0
 43
0.1
 10
-26.12136
 20
-0.91186
 10
-26.12136
 20
0.02921
 10
-25.97785
 20
0.02921
 10
-25.97785
 20
-0.10287
 10
-25.95372
 20
-0.06985
 10
-25.92578
 20
-0.04064
 10
-25.8953
 20
-0.01397
 10
-25.85974
 20
0.00889
 10
-25.84069
 20
0.01778
 10
-25.82164
 20
0.02667
 10
-25.80132
 20
0.03429
 10
-25.781
 20
0.04064
 10
-25.76068
 20
0.04445
 10
-25.73782
 20
0.04826
 10
-25.71623
 20
0.04953
 10
-25.6921
 20
0.0508
 10
-25.6667
 20
0.04953
 10
-25.64257
 20
0.04826
 10
-25.61971
 20
0.04445
 10
-25.59812
 20
0.03937
 10
-25.57653
 20
0.03429
 10
-25.55748
 20
0.02667
 10
-25.53843
 20
0.01778
 10
-25.52192
 20
0.00762
 10
-25.49017
 20
-0.01651
 10
-25.46477
 20
-0.04445
 10
-25.44318
 20
-0.07747
 10
-25.42667
 20
-0.1143
 10
-25.4127
 20
-0.09398
 10
-25.39873
 20
-0.0762
 10
-25.38222
 20
-0.05842
 10
-25.36698
 20
-0.04191
 10
-25.35047
 20
-0.02667
 10
-25.33396
 20
-0.01397
 10
-25.31618
 20
-0.00127
 10
-25.2984
 20
0.00889
 10
-25.27935
 20
0.01905
 10
-25.26157
 20
0.02794
 10
-25.24125
 20
0.03429
 10
-25.22093
 20
0.04064
 10
-25.20061
 20
0.04445
 10
-25.18029
 20
0.04826
 10
-25.1587
 20
0.04953
 10
-25.13584
 20
0.0508
 10
-25.10155
 20
0.04953
 10
-25.0698
 20
0.04572
 10
-25.03932
 20
0.03937
 10
-25.01138
 20
0.03175
 10
-24.98598
 20
0.02032
 10
-24.96185
 20
0.00762
 10
-24.94026
 20
-0.00889
 10
-24.91994
 20
-0.02667
 10
-24.90216
 20
-0.04699
 10
-24.88692
 20
-0.07112
 10
-24.87422
 20
-0.09652
 10
-24.86406
 20
-0.12573
 10
-24.85517
 20
-0.15621
 10
-24.84882
 20
-0.1905
 10
-24.84628
 20
-0.22733
 10
-24.84501
 20
-0.26543
 10
-24.84501
 20
-0.91186
 10
-25.00503
 20
-0.91186
 10
-25.00503
 20
-0.31877
 10
-25.00503
 20
-0.29591
 10
-25.0063
 20
-0.27432
 10
-25.0063
 20
-0.25527
 10
-25.00884
 20
-0.23622
 10
-25.01138
 20
-0.22098
 10
-25.01392
 20
-0.20574
 10
-25.01646
 20
-0.19304
 10
-25.02027
 20
-0.18161
 10
-25.02916
 20
-0.16129
 10
-25.04186
 20
-0.14351
 10
-25.0571
 20
-0.127
 10
-25.07615
 20
-0.11303
 10
-25.09774
 20
-0.1016
 10
-25.1206
 20
-0.09398
 10
-25.146
 20
-0.0889
 10
-25.17267
 20
-0.08763
 10
-25.1968
 20
-0.0889
 10
-25.21966
 20
-0.09144
 10
-25.24125
 20
-0.09652
 10
-25.26284
 20
-0.10414
 10
-25.28316
 20
-0.11303
 10
-25.30221
 20
-0.12446
 10
-25.31999
 20
-0.13843
 10
-25.3365
 20
-0.15367
 10
-25.35174
 20
-0.17145
 10
-25.36571
 20
-0.19177
 10
-25.37714
 20
-0.21463
 10
-25.38603
 20
-0.24003
 10
-25.39365
 20
-0.2667
 10
-25.39873
 20
-0.29718
 10
-25.40127
 20
-0.3302
 10
-25.40254
 20
-0.36449
 10
-25.40254
 20
-0.91186
 10
-25.56256
 20
-0.91186
 10
-25.56256
 20
-0.30099
 10
-25.56256
 20
-0.27432
 10
-25.5651
 20
-0.25019
 10
-25.56764
 20
-0.2286
 10
-25.57145
 20
-0.20701
 10
-25.5778
 20
-0.18796
 10
-25.58415
 20
-0.17145
 10
-25.59177
 20
-0.15494
 10
-25.60066
 20
-0.14097
 10
-25.61209
 20
-0.12827
 10
-25.62352
 20
-0.11811
 10
-25.63749
 20
-0.10795
 10
-25.65273
 20
-0.1016
 10
-25.66924
 20
-0.09525
 10
-25.68702
 20
-0.09144
 10
-25.70734
 20
-0.0889
 10
-25.72893
 20
-0.08763
 10
-25.76195
 20
-0.09017
 10
-25.7937
 20
-0.09652
 10
-25.82418
 20
-0.10795
 10
-25.85212
 20
-0.12319
 10
-25.87879
 20
-0.14351
 10
-25.90165
 20
-0.16637
 10
-25.9207
 20
-0.19431
 10
-25.93594
 20
-0.22733
 10
-25.94102
 20
-0.24511
 10
-25.9461
 20
-0.26543
 10
-25.95118
 20
-0.28702
 10
-25.95499
 20
-0.30988
 10
-25.95753
 20
-0.33528
 10
-25.96007
 20
-0.36322
 10
-25.96007
 20
-0.39243
 10
-25.96134
 20
-0.42418
 10
-25.96134
 20
-0.91186
 10
-26.12136
 20
-0.91186
  0
ENDSEC
  0
SECTION
  2
OBJECTS
  0
DICTIONARY
  5
16
100
AcDbDictionary
  3
ACAD_GROUP
350
17
  3
ACAD_MLINESTYLE
350
18
  0
DICTIONARY
  5
17
102
{ACAD_REACTORS
330
16
102
}
100
AcDbDictionary
  0
DICTIONARY
  5
18
102
{ACAD_REACTORS
330
16
102
}
100
AcDbDictionary
  3
STANDARD
350
19
  0
MLINESTYLE
  5
19
102
{ACAD_REACTORS
330
18
102
}
100
AcDbMlineStyle
  2
STANDARD
 70
         0
  3

 62
         0
 51
90.0
 52
90.0
 71
        2
 49
0.5
 62
         256
  6
BYLAYER
 49
-0.5
 62
         256
  6
BYLAYER
  0
DICTIONARY
  5
1A
102
{ACAD_REACTORS
330
16
102
}
100
AcDbDictionary
  0
ENDSEC
  0
EOF
