  0
SECTION
  2
HEADER
  9
$ACADVER
  1
AC1014
  9
$ACADMAINTVER
 70
         0
  9
$DWGCODEPAGE
  3
ANSI_1252
  9
$INSBASE
 10
0.0
 20
0.0
 30
0.0
  9
$EXTMIN
 10
-75.0
 20
0.0
 30
0.0
  9
$EXTMAX
 10
34075.0
 20
35650.0
 30
0.0
  9
$LIMMIN
 10
0.0
 20
0.0
  9
$LIMMAX
 10
0.0
 20
0.0
  9
$ORTHOMODE
 70
         0
  9
$REGENMODE
 70
         1
  9
$FILLMODE
 70
         1
  9
$QTEXTMODE
 70
         0
  9
$MIRRTEXT
 70
         1
  9
$DRAGMODE
 70
         2
  9
$LTSCALE
 40
1.0
  9
$OSMODE
 70
         0
  9
$ATTMODE
 70
         1
  9
$TEXTSIZE
 40
0.2
  9
$TRACEWID
 40
0.05
  9
$TEXTSTYLE
  7
STANDARD
  9
$CLAYER
  8
0
  9
$CELTYPE
  6
CONTINUOUS
  9
$CECOLOR
 62
       256
  9
$CELTSCALE
 40
1.0
  9
$DELOBJ
 70
         1
  9
$DISPSILH
 70
         0
  9
$DIMSCALE
 40
1.0
  9
$DIMASZ
 40
0.18
  9
$DIMEXO
 40
0.0625
  9
$DIMDLI
 40
0.38
  9
$DIMRND
 40
0.0
  9
$DIMDLE
 40
0.0
  9
$DIMEXE
 40
0.18
  9
$DIMTP
 40
0.0
  9
$DIMTM
 40
0.0
  9
$DIMTXT
 40
0.18
  9
$DIMCEN
 40
0.09
  9
$DIMTSZ
 40
0.0
  9
$DIMTOL
 70
         0
  9
$DIMLIM
 70
         0
  9
$DIMTIH
 70
         1
  9
$DIMTOH
 70
         1
  9
$DIMSE1
 70
         0
  9
$DIMSE2
 70
         0
  9
$DIMTAD
 70
         0
  9
$DIMZIN
 70
         0
  9
$DIMBLK
  1

  9
$DIMASO
 70
         1
  9
$DIMSHO
 70
         1
  9
$DIMPOST
  1

  9
$DIMAPOST
  1

  9
$DIMALT
 70
         0
  9
$DIMALTD
 70
         2
  9
$DIMALTF
 40
25.4
  9
$DIMLFAC
 40
1.0
  9
$DIMTOFL
 70
         0
  9
$DIMTVP
 40
0.0
  9
$DIMTIX
 70
         0
  9
$DIMSOXD
 70
         0
  9
$DIMSAH
 70
         0
  9
$DIMBLK1
  1

  9
$DIMBLK2
  1

  9
$DIMSTYLE
  2
STANDARD
  9
$DIMCLRD
 70
         0
  9
$DIMCLRE
 70
         0
  9
$DIMCLRT
 70
         0
  9
$DIMTFAC
 40
1.0
  9
$DIMGAP
 40
0.09
  9
$DIMJUST
 70
         0
  9
$DIMSD1
 70
         0
  9
$DIMSD2
 70
         0
  9
$DIMTOLJ
 70
         1
  9
$DIMTZIN
 70
         0
  9
$DIMALTZ
 70
         0
  9
$DIMALTTZ
 70
         0
  9
$DIMFIT
 70
         3
  9
$DIMUPT
 70
         0
  9
$DIMUNIT
 70
         2
  9
$DIMDEC
 70
         4
  9
$DIMTDEC
 70
         4
  9
$DIMALTU
 70
         2
  9
$DIMALTTD
 70
         2
  9
$DIMTXSTY
  7
STANDARD
  9
$DIMAUNIT
 70
         0
  9
$LUNITS
 70
         2
  9
$LUPREC
 70
         4
  9
$SKETCHINC
 40
0.1
  9
$FILLETRAD
 40
0.0
  9
$AUNITS
 70
         0
  9
$AUPREC
 70
         0
  9
$MENU
  1
acad
  9
$ELEVATION
 40
0.0
  9
$PELEVATION
 40
0.0
  9
$THICKNESS
 40
0.0
  9
$LIMCHECK
 70
         0
  9
$BLIPMODE
 70
         1
  9
$CHAMFERA
 40
0.0
  9
$CHAMFERB
 40
0.0
  9
$CHAMFERC
 40
0.0
  9
$CHAMFERD
 40
0.0
  9
$SKPOLY
 70
         0
  9
$TDCREATE
 40
20230201.135145
  9
$TDUPDATE
 40
0.0
  9
$TDINDWG
 40
0.0
  9
$TDUSRTIMER
 40
0.0
  9
$USRTIMER
 70
         1
  9
$ANGBASE
 50
0.0
  9
$ANGDIR
 70
         0
  9
$PDMODE
 70
         0
  9
$PDSIZE
 40
0.0
  9
$PLINEWID
 40
0.0
  9
$COORDS
 70
         0
  9
$SPLFRAME
 70
         0
  9
$SPLINETYPE
 70
         6
  9
$SPLINESEGS
 70
         8
  9
$ATTDIA
 70
         0
  9
$ATTREQ
 70
         1
  9
$HANDLING
 70
         1
  9
$HANDSEED
  5
5E3
  9
$SURFTAB1
 70
         6
  9
$SURFTAB2
 70
         6
  9
$SURFTYPE
 70
         6
  9
$SURFU
 70
         6
  9
$SURFV
 70
         6
  9
$UCSNAME
  2

  9
$UCSORG
 10
0.0
 20
0.0
 30
0.0
  9
$UCSXDIR
 10
1.0
 20
0.0
 30
0.0
  9
$UCSYDIR
 10
0.0
 20
1.0
 30
0.0
  9
$PUCSNAME
  2

  9
$PUCSORG
 10
0.0
 20
0.0
 30
0.0
  9
$PUCSXDIR
 10
1.0
 20
0.0
 30
0.0
  9
$PUCSYDIR
 10
0.0
 20
1.0
 30
0.0
  9
$USERI1
 70
         -4
  9
$USERI2
 70
         0
  9
$USERI3
 70
         0
  9
$USERI4
 70
         0
  9
$USERI5
 70
         0
  9
$USERR1
 40
0.0
  9
$USERR2
 40
0.0
  9
$USERR3
 40
0.0
  9
$USERR4
 40
0.0
  9
$USERR5
 40
0.0
  9
$WORLDVIEW
 70
         1
  9
$SHADEDGE
 70
         3
  9
$SHADEDIF
 70
        70
  9
$TILEMODE
 70
         1
  9
$MAXACTVP
 70
         16
  9
$PINSBASE
 10
0.0
 20
0.0
 30
0.0
  9
$PLIMCHECK
 70
         0
  9
$PEXTMIN
 10
100000000000000000000.0
 20
100000000000000000000.0
 30
100000000000000000000.0
  9
$PEXTMAX
 10
-100000000000000000000.0
 20
-100000000000000000000.0
 30
-100000000000000000000.0
  9
$PLIMMIN
 10
0.0
 20
0.0
  9
$PLIMMAX
 10
12.0
 20
9.0
  9
$UNITMODE
 70
         0
  9
$VISRETAIN
 70
         0
  9
$PLINEGEN
 70
         1
  9
$PSLTSCALE
 70
         0
  9
$TREEDEPTH
 70
      3020
  9
$PICKSTYLE
 70
         1
  9
$CMLSTYLE
  2
STANDARD
  9
$CMLJUST
 70
         0
  9
$CMLSCALE
 40
1.0
  9
$PROXYGRAPHICS
 70
         0
  9
$MEASUREMENT
 70
         0
  0
ENDSEC
  0
SECTION
  2
CLASSES
  0
CLASS
  1
LWPOLYLINE
  2
AcDbPolyline
  3
"AutoCAD"
 90
        0
280
         0
281
         1
  0
CLASS
  1
IMAGE
  2
AcDbRasterImage
  3
ISM
 90
      127
280
         0
281
         1
  0
CLASS
  1
OLE2FRAME
  2
AcDbOle2Frame
  3
""
 90
        0
280
         0
281
         1
  0
CLASS
  1
HATCH
  2
AcDbHatch
  3
"ACAD_SEDONA"
 90
        0
280
         0
281
         1
  0
CLASS
  1
DICTIONARYVAR
  2
AcDbDictionaryVar
  3
"AutoCAD"
 90
        0
280
         0
281
         0
  0
CLASS
  1
RASTERVARIABLES
  2
AcDbRasterVariables
  3
ISM
 90
        0
280
         0
281
         0
  0
CLASS
  1
IMAGEDEF
  2
AcDbRasterImageDef
  3
ISM
 90
        0
280
         0
281
         0
  0
CLASS
  1
IMAGEDEF_REACTOR
  2
AcDbRasterImageDefReactor
  3
ISM
 90
        1
280
         0
281
         0
  0
CLASS
  1
IDBUFFER
  2
AcDbIdBuffer
  3
"Acad"
 90
        0
280
         0
281
         0
  0
CLASS
  1
SPATIAL_FILTER
  2
AcDbSpatialFilter
  3
"Acad"
 90
        0
280
         0
281
         0
  0
CLASS
  1
XRECORD
  2
AcDbXrecord
  3
"<Built In>"
 90
        0
280
         0
281
         0
  0
CLASS
  1
SORTENTSTABLE
  2
AcDbSortentsTable
  3
"AutoCAD"
 90
        0
280
         0
281
         0
  0
CLASS
  1
LAYER_INDEX
  2
AcDbLayerIndex
  3
"Acad"
 90
        0
280
         0
281
         0
  0
CLASS
  1
SPATIAL_INDEX
  2
AcDbSpatialIndex
  3
"Acad"
 90
        0
280
         0
281
         0
  0
CLASS
  1
OBJECT_PTR
  2
CAseDLPNTableRecord
  3
"ASE-LPNTableRecord"
 90
        1
280
         0
281
         0
  0
CLASS
  1
LAYOUT
  2
AcDbLayout
  3
"AutoCAD 2000"
 90
        0
280
         0
281
         0
  0
CLASS
  1
PLOTSETTINGS
  2
AcDbPlotSettings
  3
"AutoCAD 2000"
 90
        0
280
         0
281
         0
  0
CLASS
  1
ACDBDICTIONARYWDFLT
  2
AcDbDictionaryWithDefault
  3
"AutoCAD 2000"
 90
        0
280
         0
281
         0
  0
CLASS
  1
ACDBPLACEHOLDER
  2
AcDbPlaceHolder
  3
"AutoCAD 2000"
 90
        0
280
         0
281
         0
  0
CLASS
  1
VBA_PROJECT
  2
AcDbVbaProject
  3
"acadvba"
 90
        0
280
         0
281
         0
  0
CLASS
  1
WIPEOUT
  2
AcDbWipeout
  3
WipeOut|AutoCAD Express Tool|expresstools@autodesk.com
 90
      127
280
         0
281
         1
  0
CLASS
  1
WIPEOUTVARIABLES
  2
AcDbWipeoutVariables
  3
WipeOut|AutoCAD Express Tool|expresstools@autodesk.com
 90
        0
280
         0
281
         0
  0
CLASS
  1
RTEXT
  2
RText
  3
RText|AutoCAD Express Tool|expresstools@autodesk.com
 90
        0
280
         0
281
         1
  0
CLASS
  1
ARCALIGNEDTEXT
  2
AcDbArcAlignedText
  3
ATEXT|AutoCAD Express Tool|expresstools@autodesk.com
 90
        0
280
         0
281
         1
  0
ENDSEC
  0
SECTION
  2
TABLES
  0
TABLE
  2
VPORT
  5
7
100
AcDbSymbolTable
70
    1
  0
VPORT
  5
13
100
AcDbSymbolTableRecord
100
AcDbViewportTableRecord
  2
*ACTIVE
 70
         0
 10
0.0
 20
0.0
 11
1.0
 21
1.0
 12
6.591288
 22
4.579184
 13
0.0
 23
0.0
 14
1.0
 24
1.0
 15
0.0
 25
0.0
 16
0.0
 26
0.0
 36
1.0
 17
0.0
 27
0.0
 37
0.0
  40
9.158369
  41
0.688564
  42
50.0
  43
0.0
  44
0.0
  50
0.0
  51
0.0
 71
    0
 72
    100
 73
    1
 74
    1
 75
    0
 76
    0
 77
    0
 78
    0
  0
ENDTAB
  0
TABLE
  2
LTYPE
  5
4
100
AcDbSymbolTable
70
    3
  0
LTYPE
  5
10
100
AcDbSymbolTableRecord
100
AcDbLinetypeTableRecord
  2
BYBLOCK
 70
         64
  3

 72
       65
 73
       0
  40
0.0
  0
LTYPE
  5
11
100
AcDbSymbolTableRecord
100
AcDbLinetypeTableRecord
  2
BYLAYER
 70
         64
  3

 72
       65
 73
       0
  40
0.0
  0
LTYPE
  5
12
100
AcDbSymbolTableRecord
100
AcDbLinetypeTableRecord
  2
CONTINUOUS
 70
         64
  3
Solid Line
 72
       65
 73
       0
  40
0.0
  0
ENDTAB
  0
TABLE
  2
LAYER
  5
2
100
AcDbSymbolTable
 70
         11
  0
LAYER
  5
5D5
100
AcDbSymbolTableRecord
100
AcDbLayerTableRecord
  2
0
 70
         0
 62
         7
  6
CONTINUOUS
  0
LAYER
  5
5D6
100
AcDbSymbolTableRecord
100
AcDbLayerTableRecord
  2
ASSEMBLY_OUTLINES_BTM
 70
         0
 62
         104
  6
CONTINUOUS
  0
LAYER
  5
5D7
100
AcDbSymbolTableRecord
100
AcDbLayerTableRecord
  2
ASSEMBLY_OUTLINES_TOP
 70
         0
 62
         104
  6
CONTINUOUS
  0
LAYER
  5
5D8
100
AcDbSymbolTableRecord
100
AcDbLayerTableRecord
  2
ASSEMBLY_REF_DES_BTM
 70
         0
 62
         40
  6
CONTINUOUS
  0
LAYER
  5
5D9
100
AcDbSymbolTableRecord
100
AcDbLayerTableRecord
  2
ASSEMBLY_REF_DES_TOP
 70
         0
 62
         30
  6
CONTINUOUS
  0
LAYER
  5
5DA
100
AcDbSymbolTableRecord
100
AcDbLayerTableRecord
  2
BOARD_OUTLINE
 70
         0
 62
         10
  6
CONTINUOUS
  0
LAYER
  5
5DB
100
AcDbSymbolTableRecord
100
AcDbLayerTableRecord
  2
PART_HOLES_LAYER_TOP
 70
         0
 62
         170
  6
CONTINUOUS
  0
LAYER
  5
5DC
100
AcDbSymbolTableRecord
100
AcDbLayerTableRecord
  2
PART_PADS_SMD_BTM
 70
         0
 62
         30
  6
CONTINUOUS
  0
LAYER
  5
5DD
100
AcDbSymbolTableRecord
100
AcDbLayerTableRecord
  2
PART_PADS_SMD_TOP
 70
         0
 62
         170
  6
CONTINUOUS
  0
LAYER
  5
5DE
100
AcDbSymbolTableRecord
100
AcDbLayerTableRecord
  2
PIN_NUMBERS_BTM
 70
         0
 62
         8
  6
CONTINUOUS
  0
LAYER
  5
5DF
100
AcDbSymbolTableRecord
100
AcDbLayerTableRecord
  2
PIN_NUMBERS_TOP
 70
         0
 62
         8
  6
CONTINUOUS
  0
ENDTAB
  0
TABLE
  2
STYLE
  5
3
100
AcDbSymbolTable
 70
         3
  0
STYLE
  5
5E0
100
AcDbSymbolTableRecord
100
AcDbTextStyleTableRecord
  2
STANDARD
 70
         0
 40
0.0
 41
1.0
 50
0.0
 71
         0
 42
0.0
  3
txt
  4

  0
STYLE
  5
5E1
100
AcDbSymbolTableRecord
100
AcDbTextStyleTableRecord
  2
ARIAL
 70
         0
 40
0.0
 41
1.0
 50
0.0
 71
         0
 42
0.0
  3
arial.ttf
  4

  0
STYLE
  5
5E2
100
AcDbSymbolTableRecord
100
AcDbTextStyleTableRecord
  2
COURIER_NEW
 70
         0
 40
0.0
 41
1.0
 50
0.0
 71
         0
 42
0.0
  3
cour.ttf
  4

  0
ENDTAB
  0
TABLE
  2
VIEW
  5
5
100
AcDbSymbolTable
 70
         0
  0
ENDTAB
  0
TABLE
  2
UCS
  5
6
100
AcDbSymbolTable
 70
         0
  0
ENDTAB
  0
TABLE
  2
APPID
  5
8
100
AcDbSymbolTable
 70
         1
  0
APPID
  5
14
100
AcDbSymbolTableRecord
100
AcDbRegAppTableRecord
  2
ACAD
 70
         0
  0
ENDTAB
  0
TABLE
  2
DIMSTYLE
  5
9
100
AcDbSymbolTable
 70
         1
  0
DIMSTYLE
105
15
100
AcDbSymbolTableRecord
100
AcDbDimStyleTableRecord
  2
STANDARD
 70
         0
  3

  4

  5

  6

 7

 40
1.0
 41
0.18
 42
0.0625
 43
0.38
 44
0.18
 45
0.0
 46
0.0
 47
0.0
 48
0.0
 71
         0
 72
         0
 73
         1
 74
         1
 75
         0
 76
         0
 77
         0
 78
         0
140
0.18
141
0.09
142
0.0
143
25.4
144
1.0
145
0.0
146
1.0
147
0.09
170
         0
171
         2
172
         0
173
         0
174
         0
175
         0
176
         0
177
         0
178
         0
270
         2
271
         4
272
         4
273
         2
274
         2
275
         0
280
         0
281
         0
282
         0
283
         1
284
         0
285
         0
286
         0
287
         3
288
         0
340
17
  0
ENDTAB
  0
TABLE
  2
BLOCK_RECORD
  5
1
100
AcDbSymbolTable
 70
         0
  0
BLOCK_RECORD
  5
A
100
AcDbSymbolTableRecord
100
AcDbBlockTableRecord
  2
*MODEL_SPACE
  0
BLOCK_RECORD
  5
B
100
AcDbSymbolTableRecord
100
AcDbBlockTableRecord
  2
*PAPER_SPACE
  0
ENDTAB
  0
ENDSEC
  0
SECTION
  2
BLOCKS
  0
BLOCK
  5
C
100
AcDbEntity
  8
0
100
AcDbBlockBegin
  2
*MODEL_SPACE
 70
         0
 10
0.0
 20
0.0
 30
0.0
  3
*MODEL_SPACE
  1

  0
ENDBLK
  5
D
100
AcDbEntity
  8
0
100
AcDbBlockEnd
  0
BLOCK
  5
E
100
AcDbEntity
 67
        1
  8
0
100
AcDbBlockBegin
  2
*PAPER_SPACE
 70
         0
 10
0.0
 20
0.0
 30
0.0
  3
*PAPER_SPACE
  1

  0
ENDBLK
  5
F
100
AcDbEntity
 67
        1
  8
0
100
AcDbBlockEnd
  0
ENDSEC
  0
SECTION
  2
ENTITIES
  0
LWPOLYLINE
  5
1B
100
AcDbEntity
  8
ASSEMBLY_OUTLINES_BTM
100
AcDbPolyline
 90
        4
 70
         0
 43
250.0
 10
10498.0
 20
22939.0
 10
10498.0
 20
23139.0
 10
10898.0
 20
23139.0
 10
10898.0
 20
22939.0
  0
LWPOLYLINE
  5
1C
100
AcDbEntity
  8
ASSEMBLY_OUTLINES_BTM
100
AcDbPolyline
 90
        4
 70
         0
 43
250.0
 10
3850.0
 20
21800.0
 10
3850.0
 20
21600.0
 10
3450.0
 20
21600.0
 10
3450.0
 20
21800.0
  0
LWPOLYLINE
  5
1D
100
AcDbEntity
  8
ASSEMBLY_OUTLINES_BTM
100
AcDbPolyline
 90
        4
 70
         0
 43
250.0
 10
3850.0
 20
23300.0
 10
3850.0
 20
23100.0
 10
3450.0
 20
23100.0
 10
3450.0
 20
23300.0
  0
LWPOLYLINE
  5
1E
100
AcDbEntity
  8
ASSEMBLY_OUTLINES_BTM
100
AcDbPolyline
 90
        4
 70
         0
 43
250.0
 10
12150.0
 20
6700.0
 10
11950.0
 20
6700.0
 10
11950.0
 20
7100.0
 10
12150.0
 20
7100.0
  0
LWPOLYLINE
  5
1F
100
AcDbEntity
  8
ASSEMBLY_OUTLINES_BTM
100
AcDbPolyline
 90
        4
 70
         0
 43
250.0
 10
23850.0
 20
14300.0
 10
24050.0
 20
14300.0
 10
24050.0
 20
13900.0
 10
23850.0
 20
13900.0
  0
LWPOLYLINE
  5
20
100
AcDbEntity
  8
ASSEMBLY_OUTLINES_BTM
100
AcDbPolyline
 90
        4
 70
         0
 43
250.0
 10
7450.0
 20
23450.0
 10
7250.0
 20
23450.0
 10
7250.0
 20
23850.0
 10
7450.0
 20
23850.0
  0
LWPOLYLINE
  5
21
100
AcDbEntity
  8
ASSEMBLY_OUTLINES_BTM
100
AcDbPolyline
 90
        4
 70
         0
 43
250.0
 10
14500.0
 20
6950.0
 10
14500.0
 20
7150.0
 10
14900.0
 20
7150.0
 10
14900.0
 20
6950.0
  0
LWPOLYLINE
  5
22
100
AcDbEntity
  8
ASSEMBLY_OUTLINES_BTM
100
AcDbPolyline
 90
        4
 70
         0
 43
250.0
 10
27738.0
 20
21467.0
 10
27538.0
 20
21467.0
 10
27538.0
 20
21867.0
 10
27738.0
 20
21867.0
  0
LWPOLYLINE
  5
23
100
AcDbEntity
  8
ASSEMBLY_OUTLINES_BTM
100
AcDbPolyline
 90
        4
 70
         0
 43
250.0
 10
7250.0
 20
22300.0
 10
7450.0
 20
22300.0
 10
7450.0
 20
21900.0
 10
7250.0
 20
21900.0
  0
LWPOLYLINE
  5
24
100
AcDbEntity
  8
ASSEMBLY_OUTLINES_BTM
100
AcDbPolyline
 90
        4
 70
         0
 43
250.0
 10
2750.0
 20
26150.0
 10
2750.0
 20
26350.0
 10
3150.0
 20
26350.0
 10
3150.0
 20
26150.0
  0
LWPOLYLINE
  5
25
100
AcDbEntity
  8
ASSEMBLY_OUTLINES_BTM
100
AcDbPolyline
 90
        4
 70
         0
 43
250.0
 10
3500.0
 20
26150.0
 10
3500.0
 20
26350.0
 10
3900.0
 20
26350.0
 10
3900.0
 20
26150.0
  0
LWPOLYLINE
  5
26
100
AcDbEntity
  8
ASSEMBLY_OUTLINES_BTM
100
AcDbPolyline
 90
        4
 70
         0
 43
250.0
 10
8500.0
 20
8000.0
 10
8500.0
 20
7800.0
 10
8100.0
 20
7800.0
 10
8100.0
 20
8000.0
  0
LWPOLYLINE
  5
27
100
AcDbEntity
  8
ASSEMBLY_OUTLINES_BTM
100
AcDbPolyline
 90
        4
 70
         0
 43
250.0
 10
27600.0
 20
27500.0
 10
27800.0
 20
27500.0
 10
27800.0
 20
27100.0
 10
27600.0
 20
27100.0
  0
LWPOLYLINE
  5
28
100
AcDbEntity
  8
ASSEMBLY_OUTLINES_BTM
100
AcDbPolyline
 90
        4
 70
         0
 43
250.0
 10
24100.0
 20
15950.0
 10
23900.0
 20
15950.0
 10
23900.0
 20
16350.0
 10
24100.0
 20
16350.0
  0
LWPOLYLINE
  5
29
100
AcDbEntity
  8
ASSEMBLY_OUTLINES_BTM
100
AcDbPolyline
 90
        4
 70
         0
 43
250.0
 10
28650.0
 20
21950.0
 10
28650.0
 20
22150.0
 10
29050.0
 20
22150.0
 10
29050.0
 20
21950.0
  0
LWPOLYLINE
  5
2A
100
AcDbEntity
  8
ASSEMBLY_OUTLINES_BTM
100
AcDbPolyline
 90
        4
 70
         0
 43
250.0
 10
27600.0
 20
26600.0
 10
27800.0
 20
26600.0
 10
27800.0
 20
26200.0
 10
27600.0
 20
26200.0
  0
LWPOLYLINE
  5
2B
100
AcDbEntity
  8
ASSEMBLY_OUTLINES_BTM
100
AcDbPolyline
 90
        4
 70
         0
 43
250.0
 10
5550.0
 20
8050.0
 10
5550.0
 20
7850.0
 10
5150.0
 20
7850.0
 10
5150.0
 20
8050.0
  0
LWPOLYLINE
  5
2C
100
AcDbEntity
  8
ASSEMBLY_OUTLINES_BTM
100
AcDbPolyline
 90
        4
 70
         0
 43
250.0
 10
27750.0
 20
22200.0
 10
27550.0
 20
22200.0
 10
27550.0
 20
22600.0
 10
27750.0
 20
22600.0
  0
LWPOLYLINE
  5
2D
100
AcDbEntity
  8
ASSEMBLY_OUTLINES_BTM
100
AcDbPolyline
 90
        4
 70
         0
 43
250.0
 10
12150.0
 20
5700.0
 10
11950.0
 20
5700.0
 10
11950.0
 20
6100.0
 10
12150.0
 20
6100.0
  0
LWPOLYLINE
  5
2E
100
AcDbEntity
  8
ASSEMBLY_OUTLINES_BTM
100
AcDbPolyline
 90
        4
 70
         0
 43
250.0
 10
27050.0
 20
23450.0
 10
27050.0
 20
23650.0
 10
27450.0
 20
23650.0
 10
27450.0
 20
23450.0
  0
LWPOLYLINE
  5
2F
100
AcDbEntity
  8
ASSEMBLY_OUTLINES_BTM
100
AcDbPolyline
 90
        2
 70
         0
 43
200.0
 10
11732.5
 20
9976.25
 10
12367.5
 20
9976.25
  0
LWPOLYLINE
  5
30
100
AcDbEntity
  8
ASSEMBLY_OUTLINES_BTM
100
AcDbPolyline
 90
        2
 70
         0
 43
200.0
 10
12367.5
 20
9976.25
 10
12367.5
 20
9023.75
  0
LWPOLYLINE
  5
31
100
AcDbEntity
  8
ASSEMBLY_OUTLINES_BTM
100
AcDbPolyline
 90
        2
 70
         0
 43
200.0
 10
12367.5
 20
9023.75
 10
11732.5
 20
9023.75
  0
LWPOLYLINE
  5
32
100
AcDbEntity
  8
ASSEMBLY_OUTLINES_BTM
100
AcDbPolyline
 90
        2
 70
         0
 43
200.0
 10
13823.75
 20
9182.5
 10
13823.75
 20
9817.5
  0
LWPOLYLINE
  5
33
100
AcDbEntity
  8
ASSEMBLY_OUTLINES_BTM
100
AcDbPolyline
 90
        2
 70
         0
 43
200.0
 10
13823.75
 20
9817.5
 10
14776.25
 20
9817.5
  0
LWPOLYLINE
  5
34
100
AcDbEntity
  8
ASSEMBLY_OUTLINES_BTM
100
AcDbPolyline
 90
        2
 70
         0
 43
200.0
 10
14776.25
 20
9817.5
 10
14776.25
 20
9182.5
  0
LWPOLYLINE
  5
35
100
AcDbEntity
  8
ASSEMBLY_OUTLINES_BTM
100
AcDbPolyline
 90
        4
 70
         0
 43
250.0
 10
30700.0
 20
12150.0
 10
30700.0
 20
11950.0
 10
30300.0
 20
11950.0
 10
30300.0
 20
12150.0
  0
LWPOLYLINE
  5
36
100
AcDbEntity
  8
ASSEMBLY_OUTLINES_BTM
100
AcDbPolyline
 90
        4
 70
         0
 43
250.0
 10
3950.0
 20
9950.0
 10
3950.0
 20
9750.0
 10
3550.0
 20
9750.0
 10
3550.0
 20
9950.0
  0
LWPOLYLINE
  5
37
100
AcDbEntity
  8
ASSEMBLY_OUTLINES_BTM
100
AcDbPolyline
 90
        4
 70
         0
 43
250.0
 10
26550.0
 20
25150.0
 10
26550.0
 20
24950.0
 10
26150.0
 20
24950.0
 10
26150.0
 20
25150.0
  0
LWPOLYLINE
  5
38
100
AcDbEntity
  8
ASSEMBLY_OUTLINES_BTM
100
AcDbPolyline
 90
        4
 70
         0
 43
250.0
 10
3850.0
 20
7300.0
 10
3850.0
 20
7500.0
 10
4250.0
 20
7500.0
 10
4250.0
 20
7300.0
  0
LWPOLYLINE
  5
39
100
AcDbEntity
  8
ASSEMBLY_OUTLINES_BTM
100
AcDbPolyline
 90
        4
 70
         0
 43
250.0
 10
3900.0
 20
24850.0
 10
3900.0
 20
24650.0
 10
3500.0
 20
24650.0
 10
3500.0
 20
24850.0
  0
LWPOLYLINE
  5
3A
100
AcDbEntity
  8
ASSEMBLY_OUTLINES_BTM
100
AcDbPolyline
 90
        4
 70
         0
 43
250.0
 10
7200.0
 20
24900.0
 10
7200.0
 20
24700.0
 10
6800.0
 20
24700.0
 10
6800.0
 20
24900.0
  0
LWPOLYLINE
  5
3B
100
AcDbEntity
  8
ASSEMBLY_OUTLINES_BTM
100
AcDbPolyline
 90
        4
 70
         0
 43
250.0
 10
3150.0
 20
24850.0
 10
3150.0
 20
24650.0
 10
2750.0
 20
24650.0
 10
2750.0
 20
24850.0
  0
LWPOLYLINE
  5
3C
100
AcDbEntity
  8
ASSEMBLY_OUTLINES_BTM
100
AcDbPolyline
 90
        4
 70
         0
 43
250.0
 10
7950.0
 20
24900.0
 10
7950.0
 20
24700.0
 10
7550.0
 20
24700.0
 10
7550.0
 20
24900.0
  0
LWPOLYLINE
  5
3D
100
AcDbEntity
  8
ASSEMBLY_OUTLINES_BTM
100
AcDbPolyline
 90
        4
 70
         1
 43
100.0
 10
28000.0
 20
9050.0
 10
28000.0
 20
11050.0
 10
30500.0
 20
11050.0
 10
30500.0
 20
9050.0
  0
LWPOLYLINE
  5
3E
100
AcDbEntity
  8
ASSEMBLY_OUTLINES_BTM
100
AcDbPolyline
 90
        4
 70
         1
 43
100.0
 10
29500.0
 20
9050.0
 10
29500.0
 20
10050.0
 10
30500.0
 20
10050.0
 10
30500.0
 20
9050.0
  0
LWPOLYLINE
  5
3F
100
AcDbEntity
  8
ASSEMBLY_OUTLINES_BTM
100
AcDbPolyline
 90
        2
 70
         0
 43
200.0
 10
6582.5
 20
20826.25
 10
7217.5
 20
20826.25
  0
LWPOLYLINE
  5
40
100
AcDbEntity
  8
ASSEMBLY_OUTLINES_BTM
100
AcDbPolyline
 90
        2
 70
         0
 43
200.0
 10
7217.5
 20
20826.25
 10
7217.5
 20
19873.75
  0
LWPOLYLINE
  5
41
100
AcDbEntity
  8
ASSEMBLY_OUTLINES_BTM
100
AcDbPolyline
 90
        2
 70
         0
 43
200.0
 10
7217.5
 20
19873.75
 10
6582.5
 20
19873.75
  0
LWPOLYLINE
  5
42
100
AcDbEntity
  8
ASSEMBLY_OUTLINES_BTM
100
AcDbPolyline
 90
        4
 70
         0
 43
250.0
 10
15100.0
 20
9200.0
 10
15100.0
 20
9400.0
 10
15500.0
 20
9400.0
 10
15500.0
 20
9200.0
  0
LWPOLYLINE
  5
43
100
AcDbEntity
  8
ASSEMBLY_OUTLINES_BTM
100
AcDbPolyline
 90
        4
 70
         1
 43
100.0
 10
11000.0
 20
11200.0
 10
11000.0
 20
15200.0
 10
15000.0
 20
15200.0
 10
15000.0
 20
11200.0
  0
LWPOLYLINE
  5
44
100
AcDbEntity
  8
ASSEMBLY_OUTLINES_BTM
100
AcDbPolyline
 90
        2
 70
         0
 43
200.0
 10
6926.25
 20
27667.5
 10
6926.25
 20
27032.5
  0
LWPOLYLINE
  5
45
100
AcDbEntity
  8
ASSEMBLY_OUTLINES_BTM
100
AcDbPolyline
 90
        2
 70
         0
 43
200.0
 10
6926.25
 20
27032.5
 10
5973.75
 20
27032.5
  0
LWPOLYLINE
  5
46
100
AcDbEntity
  8
ASSEMBLY_OUTLINES_BTM
100
AcDbPolyline
 90
        2
 70
         0
 43
200.0
 10
5973.75
 20
27032.5
 10
5973.75
 20
27667.5
  0
LWPOLYLINE
  5
47
100
AcDbEntity
  8
ASSEMBLY_OUTLINES_BTM
100
AcDbPolyline
 90
        4
 70
         0
 43
250.0
 10
10500.0
 20
24450.0
 10
10500.0
 20
24650.0
 10
10900.0
 20
24650.0
 10
10900.0
 20
24450.0
  0
LWPOLYLINE
  5
48
100
AcDbEntity
  8
ASSEMBLY_OUTLINES_BTM
100
AcDbPolyline
 90
        4
 70
         0
 43
250.0
 10
16400.0
 20
12600.0
 10
16200.0
 20
12600.0
 10
16200.0
 20
13000.0
 10
16400.0
 20
13000.0
  0
LWPOLYLINE
  5
49
100
AcDbEntity
  8
ASSEMBLY_OUTLINES_BTM
100
AcDbPolyline
 90
        4
 70
         0
 43
250.0
 10
11250.0
 20
24450.0
 10
11250.0
 20
24650.0
 10
11650.0
 20
24650.0
 10
11650.0
 20
24450.0
  0
LWPOLYLINE
  5
4A
100
AcDbEntity
  8
ASSEMBLY_OUTLINES_BTM
100
AcDbPolyline
 90
        4
 70
         0
 43
250.0
 10
24100.0
 20
16700.0
 10
23900.0
 20
16700.0
 10
23900.0
 20
17100.0
 10
24100.0
 20
17100.0
  0
LWPOLYLINE
  5
4B
100
AcDbEntity
  8
ASSEMBLY_OUTLINES_BTM
100
AcDbPolyline
 90
        2
 70
         0
 43
200.0
 10
2426.25
 20
24217.5
 10
2426.25
 20
23582.5
  0
LWPOLYLINE
  5
4C
100
AcDbEntity
  8
ASSEMBLY_OUTLINES_BTM
100
AcDbPolyline
 90
        2
 70
         0
 43
200.0
 10
2426.25
 20
23582.5
 10
1473.75
 20
23582.5
  0
LWPOLYLINE
  5
4D
100
AcDbEntity
  8
ASSEMBLY_OUTLINES_BTM
100
AcDbPolyline
 90
        2
 70
         0
 43
200.0
 10
1473.75
 20
23582.5
 10
1473.75
 20
24217.5
  0
LWPOLYLINE
  5
4E
100
AcDbEntity
  8
ASSEMBLY_OUTLINES_BTM
100
AcDbPolyline
 90
        4
 70
         0
 43
250.0
 10
9750.0
 20
24450.0
 10
9750.0
 20
24650.0
 10
10150.0
 20
24650.0
 10
10150.0
 20
24450.0
  0
LWPOLYLINE
  5
4F
100
AcDbEntity
  8
ASSEMBLY_OUTLINES_BTM
100
AcDbPolyline
 90
        4
 70
         0
 43
250.0
 10
20900.0
 20
8800.0
 10
20900.0
 20
8600.0
 10
20500.0
 20
8600.0
 10
20500.0
 20
8800.0
  0
LWPOLYLINE
  5
50
100
AcDbEntity
  8
ASSEMBLY_OUTLINES_BTM
100
AcDbPolyline
 90
        4
 70
         0
 43
250.0
 10
12650.0
 20
8150.0
 10
12650.0
 20
7950.0
 10
12250.0
 20
7950.0
 10
12250.0
 20
8150.0
  0
LWPOLYLINE
  5
51
100
AcDbEntity
  8
ASSEMBLY_OUTLINES_BTM
100
AcDbPolyline
 90
        2
 70
         0
 43
200.0
 10
30967.5
 20
26373.75
 10
30332.5
 20
26373.75
  0
LWPOLYLINE
  5
52
100
AcDbEntity
  8
ASSEMBLY_OUTLINES_BTM
100
AcDbPolyline
 90
        2
 70
         0
 43
200.0
 10
30332.5
 20
26373.75
 10
30332.5
 20
27326.25
  0
LWPOLYLINE
  5
53
100
AcDbEntity
  8
ASSEMBLY_OUTLINES_BTM
100
AcDbPolyline
 90
        2
 70
         0
 43
200.0
 10
30332.5
 20
27326.25
 10
30967.5
 20
27326.25
  0
LWPOLYLINE
  5
54
100
AcDbEntity
  8
ASSEMBLY_OUTLINES_BTM
100
AcDbPolyline
 90
        4
 70
         0
 43
200.0
 10
32200.0
 20
8200.0
 10
32200.0
 20
8600.0
 10
31000.0
 20
8600.0
 10
31000.0
 20
8200.0
  0
LWPOLYLINE
  5
55
100
AcDbEntity
  8
ASSEMBLY_OUTLINES_BTM
100
AcDbPolyline
 90
        4
 70
         1
 43
100.0
 10
5250.0
 20
9600.0
 10
5250.0
 20
10900.0
 10
6150.0
 20
10900.0
 10
6150.0
 20
9600.0
  0
LWPOLYLINE
  5
56
100
AcDbEntity
  8
ASSEMBLY_OUTLINES_BTM
100
AcDbPolyline
 90
        4
 70
         0
 43
100.0
 10
6150.0
 20
10090.0
 10
6150.0
 20
10520.0
 10
5250.0
 20
10520.0
 10
5250.0
 20
10100.0
  0
LWPOLYLINE
  5
57
100
AcDbEntity
  8
ASSEMBLY_OUTLINES_BTM
100
AcDbPolyline
 90
        4
 70
         0
 43
100.0
 10
6150.0
 20
10190.0
 10
6150.0
 20
10620.0
 10
5250.0
 20
10620.0
 10
5250.0
 20
10200.0
  0
LWPOLYLINE
  5
58
100
AcDbEntity
  8
ASSEMBLY_OUTLINES_BTM
100
AcDbPolyline
 90
        4
 70
         0
 43
250.0
 10
6200.0
 20
12700.0
 10
6200.0
 20
12500.0
 10
5800.0
 20
12500.0
 10
5800.0
 20
12700.0
  0
LWPOLYLINE
  5
59
100
AcDbEntity
  8
ASSEMBLY_OUTLINES_BTM
100
AcDbPolyline
 90
        4
 70
         0
 43
250.0
 10
11900.0
 20
8150.0
 10
11900.0
 20
7950.0
 10
11500.0
 20
7950.0
 10
11500.0
 20
8150.0
  0
LWPOLYLINE
  5
5A
100
AcDbEntity
  8
ASSEMBLY_OUTLINES_BTM
100
AcDbPolyline
 90
        4
 70
         0
 43
250.0
 10
30150.0
 20
21450.0
 10
29950.0
 20
21450.0
 10
29950.0
 20
21850.0
 10
30150.0
 20
21850.0
  0
LWPOLYLINE
  5
5B
100
AcDbEntity
  8
ASSEMBLY_OUTLINES_BTM
100
AcDbPolyline
 90
        2
 70
         0
 43
200.0
 10
9326.25
 20
24917.5
 10
9326.25
 20
24282.5
  0
LWPOLYLINE
  5
5C
100
AcDbEntity
  8
ASSEMBLY_OUTLINES_BTM
100
AcDbPolyline
 90
        2
 70
         0
 43
200.0
 10
9326.25
 20
24282.5
 10
8373.75
 20
24282.5
  0
LWPOLYLINE
  5
5D
100
AcDbEntity
  8
ASSEMBLY_OUTLINES_BTM
100
AcDbPolyline
 90
        2
 70
         0
 43
200.0
 10
8373.75
 20
24282.5
 10
8373.75
 20
24917.5
  0
LWPOLYLINE
  5
5E
100
AcDbEntity
  8
ASSEMBLY_OUTLINES_BTM
100
AcDbPolyline
 90
        2
 70
         0
 43
200.0
 10
24267.5
 20
14673.75
 10
23632.5
 20
14673.75
  0
LWPOLYLINE
  5
5F
100
AcDbEntity
  8
ASSEMBLY_OUTLINES_BTM
100
AcDbPolyline
 90
        2
 70
         0
 43
200.0
 10
23632.5
 20
14673.75
 10
23632.5
 20
15626.25
  0
LWPOLYLINE
  5
60
100
AcDbEntity
  8
ASSEMBLY_OUTLINES_BTM
100
AcDbPolyline
 90
        2
 70
         0
 43
200.0
 10
23632.5
 20
15626.25
 10
24267.5
 20
15626.25
  0
LWPOLYLINE
  5
61
100
AcDbEntity
  8
ASSEMBLY_OUTLINES_BTM
100
AcDbPolyline
 90
        4
 70
         0
 43
200.0
 10
27800.0
 20
11550.0
 10
28200.0
 20
11550.0
 10
28200.0
 20
12750.0
 10
27800.0
 20
12750.0
  0
LWPOLYLINE
  5
62
100
AcDbEntity
  8
ASSEMBLY_OUTLINES_BTM
100
AcDbPolyline
 90
        4
 70
         1
 43
100.0
 10
4500.0
 20
26400.0
 10
4500.0
 20
27700.0
 10
5400.0
 20
27700.0
 10
5400.0
 20
26400.0
  0
LWPOLYLINE
  5
63
100
AcDbEntity
  8
ASSEMBLY_OUTLINES_BTM
100
AcDbPolyline
 90
        4
 70
         0
 43
100.0
 10
5400.0
 20
26890.0
 10
5400.0
 20
27320.0
 10
4500.0
 20
27320.0
 10
4500.0
 20
26900.0
  0
LWPOLYLINE
  5
64
100
AcDbEntity
  8
ASSEMBLY_OUTLINES_BTM
100
AcDbPolyline
 90
        4
 70
         0
 43
100.0
 10
5400.0
 20
26990.0
 10
5400.0
 20
27420.0
 10
4500.0
 20
27420.0
 10
4500.0
 20
27000.0
  0
LWPOLYLINE
  5
65
100
AcDbEntity
  8
ASSEMBLY_OUTLINES_BTM
100
AcDbPolyline
 90
        2
 70
         0
 43
150.0
 10
6640.0
 20
4010.0
 10
7040.0
 20
4410.0
  0
LWPOLYLINE
  5
66
100
AcDbEntity
  8
ASSEMBLY_OUTLINES_BTM
100
AcDbPolyline
 90
        2
 70
         0
 43
150.0
 10
7040.0
 20
4410.0
 10
7240.0
 20
4410.0
  0
LWPOLYLINE
  5
67
100
AcDbEntity
  8
ASSEMBLY_OUTLINES_BTM
100
AcDbPolyline
 90
        2
 70
         0
 43
150.0
 10
7240.0
 20
4410.0
 10
6640.0
 20
3810.0
  0
LWPOLYLINE
  5
68
100
AcDbEntity
  8
ASSEMBLY_OUTLINES_BTM
100
AcDbPolyline
 90
        2
 70
         0
 43
150.0
 10
6640.0
 20
3810.0
 10
6640.0
 20
3610.0
  0
LWPOLYLINE
  5
69
100
AcDbEntity
  8
ASSEMBLY_OUTLINES_BTM
100
AcDbPolyline
 90
        2
 70
         0
 43
150.0
 10
6640.0
 20
3610.0
 10
7440.0
 20
4410.0
  0
LWPOLYLINE
  5
6A
100
AcDbEntity
  8
ASSEMBLY_OUTLINES_BTM
100
AcDbPolyline
 90
        2
 70
         0
 43
150.0
 10
7440.0
 20
4410.0
 10
7640.0
 20
4410.0
  0
LWPOLYLINE
  5
6B
100
AcDbEntity
  8
ASSEMBLY_OUTLINES_BTM
100
AcDbPolyline
 90
        2
 70
         0
 43
150.0
 10
7640.0
 20
4410.0
 10
6640.0
 20
3410.0
  0
LWPOLYLINE
  5
6C
100
AcDbEntity
  8
ASSEMBLY_OUTLINES_BTM
100
AcDbPolyline
 90
        2
 70
         0
 43
150.0
 10
6640.0
 20
4210.0
 10
6840.0
 20
4410.0
  0
LWPOLYLINE
  5
6D
100
AcDbEntity
  8
ASSEMBLY_OUTLINES_BTM
100
AcDbPolyline
 90
        4
 70
         1
 43
150.0
 10
6550.0
 20
1400.0
 10
6550.0
 20
4400.0
 10
11550.0
 20
4400.0
 10
11550.0
 20
1400.0
  0
LWPOLYLINE
  5
6E
100
AcDbEntity
  8
ASSEMBLY_OUTLINES_BTM
100
AcDbPolyline
 90
        4
 70
         1
 43
100.0
 10
31500.0
 20
23450.0
 10
31500.0
 20
24750.0
 10
32400.0
 20
24750.0
 10
32400.0
 20
23450.0
  0
LWPOLYLINE
  5
6F
100
AcDbEntity
  8
ASSEMBLY_OUTLINES_BTM
100
AcDbPolyline
 90
        4
 70
         0
 43
100.0
 10
32400.0
 20
23940.0
 10
32400.0
 20
24370.0
 10
31500.0
 20
24370.0
 10
31500.0
 20
23950.0
  0
LWPOLYLINE
  5
70
100
AcDbEntity
  8
ASSEMBLY_OUTLINES_BTM
100
AcDbPolyline
 90
        4
 70
         0
 43
100.0
 10
32400.0
 20
24040.0
 10
32400.0
 20
24470.0
 10
31500.0
 20
24470.0
 10
31500.0
 20
24050.0
  0
LWPOLYLINE
  5
71
100
AcDbEntity
  8
ASSEMBLY_OUTLINES_BTM
100
AcDbPolyline
 90
        4
 70
         1
 43
100.0
 10
8850.0
 20
9200.0
 10
8850.0
 20
10100.0
 10
10150.0
 20
10100.0
 10
10150.0
 20
9200.0
  0
LWPOLYLINE
  5
72
100
AcDbEntity
  8
ASSEMBLY_OUTLINES_BTM
100
AcDbPolyline
 90
        4
 70
         0
 43
100.0
 10
9660.0
 20
10100.0
 10
9230.0
 20
10100.0
 10
9230.0
 20
9200.0
 10
9650.0
 20
9200.0
  0
LWPOLYLINE
  5
73
100
AcDbEntity
  8
ASSEMBLY_OUTLINES_BTM
100
AcDbPolyline
 90
        4
 70
         0
 43
100.0
 10
9560.0
 20
10100.0
 10
9130.0
 20
10100.0
 10
9130.0
 20
9200.0
 10
9550.0
 20
9200.0
  0
LWPOLYLINE
  5
74
100
AcDbEntity
  8
ASSEMBLY_OUTLINES_BTM
100
AcDbPolyline
 90
        4
 70
         1
 43
100.0
 10
20050.0
 20
24570.0
 10
20050.0
 20
24730.0
 10
20950.0
 20
24730.0
 10
20950.0
 20
24570.0
  0
LWPOLYLINE
  5
75
100
AcDbEntity
  8
ASSEMBLY_OUTLINES_BTM
100
AcDbPolyline
 90
        3
 70
         1
 43
0.0
 10
20880.0
 20
25170.0
 10
21080.0
 20
25170.0
 10
21080.0
 20
24970.0
  0
HATCH
  5
76
100
AcDbEntity
  8
ASSEMBLY_OUTLINES_BTM
100
AcDbHatch
 10
0.0
 20
0.0
 30
0.0
 210
0.0
 220
0.0
 230
1.0
  2
SOLID
 70
         1
 71
        1
 91
        1
  92
     2
 72
     0
 73
     1
  93
     3
 10
20880.0
 20
25170.0
 10
21080.0
 20
25170.0
 10
21080.0
 20
24970.0
  97
     1
  330
    117
 75
     0
 76
     1
  98
     1
 10
0.0
 20
0.0
  0
LWPOLYLINE
  5
77
100
AcDbEntity
  8
ASSEMBLY_OUTLINES_BTM
100
AcDbPolyline
 90
        4
 70
         1
 43
100.0
 10
21550.0
 20
24570.0
 10
21550.0
 20
24730.0
 10
22450.0
 20
24730.0
 10
22450.0
 20
24570.0
  0
LWPOLYLINE
  5
78
100
AcDbEntity
  8
ASSEMBLY_OUTLINES_BTM
100
AcDbPolyline
 90
        3
 70
         1
 43
0.0
 10
22380.0
 20
25170.0
 10
22580.0
 20
25170.0
 10
22580.0
 20
24970.0
  0
HATCH
  5
79
100
AcDbEntity
  8
ASSEMBLY_OUTLINES_BTM
100
AcDbHatch
 10
0.0
 20
0.0
 30
0.0
 210
0.0
 220
0.0
 230
1.0
  2
SOLID
 70
         1
 71
        1
 91
        1
  92
     2
 72
     0
 73
     1
  93
     3
 10
22380.0
 20
25170.0
 10
22580.0
 20
25170.0
 10
22580.0
 20
24970.0
  97
     1
  330
    120
 75
     0
 76
     1
  98
     1
 10
0.0
 20
0.0
  0
LWPOLYLINE
  5
7A
100
AcDbEntity
  8
ASSEMBLY_OUTLINES_BTM
100
AcDbPolyline
 90
        4
 70
         1
 43
100.0
 10
23050.0
 20
24570.0
 10
23050.0
 20
24730.0
 10
23950.0
 20
24730.0
 10
23950.0
 20
24570.0
  0
LWPOLYLINE
  5
7B
100
AcDbEntity
  8
ASSEMBLY_OUTLINES_BTM
100
AcDbPolyline
 90
        3
 70
         1
 43
0.0
 10
23880.0
 20
25170.0
 10
24080.0
 20
25170.0
 10
24080.0
 20
24970.0
  0
HATCH
  5
7C
100
AcDbEntity
  8
ASSEMBLY_OUTLINES_BTM
100
AcDbHatch
 10
0.0
 20
0.0
 30
0.0
 210
0.0
 220
0.0
 230
1.0
  2
SOLID
 70
         1
 71
        1
 91
        1
  92
     2
 72
     0
 73
     1
  93
     3
 10
23880.0
 20
25170.0
 10
24080.0
 20
25170.0
 10
24080.0
 20
24970.0
  97
     1
  330
    123
 75
     0
 76
     1
  98
     1
 10
0.0
 20
0.0
  0
LWPOLYLINE
  5
7D
100
AcDbEntity
  8
ASSEMBLY_OUTLINES_BTM
100
AcDbPolyline
 90
        4
 70
         0
 43
250.0
 10
30150.0
 20
22200.0
 10
29950.0
 20
22200.0
 10
29950.0
 20
22600.0
 10
30150.0
 20
22600.0
  0
LWPOLYLINE
  5
7E
100
AcDbEntity
  8
ASSEMBLY_OUTLINES_BTM
100
AcDbPolyline
 90
        4
 70
         1
 43
100.0
 10
12950.0
 20
2300.0
 10
12950.0
 20
4400.0
 10
16050.0
 20
4400.0
 10
16050.0
 20
2300.0
  0
CIRCLE
  5
7F
100
AcDbEntity
  8
ASSEMBLY_OUTLINES_BTM
100
AcDbCircle
 10
16024.0
 20
4366.0
 30
0.0
 40
254.0
  0
HATCH
  5
80
100
AcDbEntity
  8
ASSEMBLY_OUTLINES_BTM
100
AcDbHatch
 10
0.0
 20
0.0
 30
0.0
 210
0.0
 220
0.0
 230
1.0
  2
SOLID
 70
         1
 71
        1
 91
        1
  92
     1
  93
     1
 72
     2
 10
16024.0
 20
4366.0
  40
254.0
  50
     0.0
  51
     360.0
 73
     0
  97
     1
  330
    127
 75
     0
 76
     1
  98
     1
 10
0.0
 20
0.0
  0
LWPOLYLINE
  5
81
100
AcDbEntity
  8
ASSEMBLY_OUTLINES_BTM
100
AcDbPolyline
 90
        4
 70
         0
 43
250.0
 10
27800.0
 20
27900.0
 10
27600.0
 20
27900.0
 10
27600.0
 20
28300.0
 10
27800.0
 20
28300.0
  0
LWPOLYLINE
  5
82
100
AcDbEntity
  8
ASSEMBLY_OUTLINES_BTM
100
AcDbPolyline
 90
        4
 70
         1
 43
100.0
 10
17050.0
 20
24570.0
 10
17050.0
 20
24730.0
 10
17950.0
 20
24730.0
 10
17950.0
 20
24570.0
  0
LWPOLYLINE
  5
83
100
AcDbEntity
  8
ASSEMBLY_OUTLINES_BTM
100
AcDbPolyline
 90
        3
 70
         1
 43
0.0
 10
17880.0
 20
25170.0
 10
18080.0
 20
25170.0
 10
18080.0
 20
24970.0
  0
HATCH
  5
84
100
AcDbEntity
  8
ASSEMBLY_OUTLINES_BTM
100
AcDbHatch
 10
0.0
 20
0.0
 30
0.0
 210
0.0
 220
0.0
 230
1.0
  2
SOLID
 70
         1
 71
        1
 91
        1
  92
     2
 72
     0
 73
     1
  93
     3
 10
17880.0
 20
25170.0
 10
18080.0
 20
25170.0
 10
18080.0
 20
24970.0
  97
     1
  330
    131
 75
     0
 76
     1
  98
     1
 10
0.0
 20
0.0
  0
LWPOLYLINE
  5
85
100
AcDbEntity
  8
ASSEMBLY_OUTLINES_BTM
100
AcDbPolyline
 90
        2
 70
         0
 43
200.0
 10
1473.75
 20
26232.5
 10
1473.75
 20
26867.5
  0
LWPOLYLINE
  5
86
100
AcDbEntity
  8
ASSEMBLY_OUTLINES_BTM
100
AcDbPolyline
 90
        2
 70
         0
 43
200.0
 10
1473.75
 20
26867.5
 10
2426.25
 20
26867.5
  0
LWPOLYLINE
  5
87
100
AcDbEntity
  8
ASSEMBLY_OUTLINES_BTM
100
AcDbPolyline
 90
        2
 70
         0
 43
200.0
 10
2426.25
 20
26867.5
 10
2426.25
 20
26232.5
  0
LWPOLYLINE
  5
88
100
AcDbEntity
  8
ASSEMBLY_OUTLINES_BTM
100
AcDbPolyline
 90
        4
 70
         1
 43
100.0
 10
18550.0
 20
24570.0
 10
18550.0
 20
24730.0
 10
19450.0
 20
24730.0
 10
19450.0
 20
24570.0
  0
LWPOLYLINE
  5
89
100
AcDbEntity
  8
ASSEMBLY_OUTLINES_BTM
100
AcDbPolyline
 90
        3
 70
         1
 43
0.0
 10
19380.0
 20
25170.0
 10
19580.0
 20
25170.0
 10
19580.0
 20
24970.0
  0
HATCH
  5
8A
100
AcDbEntity
  8
ASSEMBLY_OUTLINES_BTM
100
AcDbHatch
 10
0.0
 20
0.0
 30
0.0
 210
0.0
 220
0.0
 230
1.0
  2
SOLID
 70
         1
 71
        1
 91
        1
  92
     2
 72
     0
 73
     1
  93
     3
 10
19380.0
 20
25170.0
 10
19580.0
 20
25170.0
 10
19580.0
 20
24970.0
  97
     1
  330
    137
 75
     0
 76
     1
  98
     1
 10
0.0
 20
0.0
  0
LWPOLYLINE
  5
8B
100
AcDbEntity
  8
ASSEMBLY_OUTLINES_BTM
100
AcDbPolyline
 90
        2
 70
         0
 43
200.0
 10
11332.5
 20
21476.25
 10
11967.5
 20
21476.25
  0
LWPOLYLINE
  5
8C
100
AcDbEntity
  8
ASSEMBLY_OUTLINES_BTM
100
AcDbPolyline
 90
        2
 70
         0
 43
200.0
 10
11967.5
 20
21476.25
 10
11967.5
 20
20523.75
  0
LWPOLYLINE
  5
8D
100
AcDbEntity
  8
ASSEMBLY_OUTLINES_BTM
100
AcDbPolyline
 90
        2
 70
         0
 43
200.0
 10
11967.5
 20
20523.75
 10
11332.5
 20
20523.75
  0
LWPOLYLINE
  5
8E
100
AcDbEntity
  8
ASSEMBLY_OUTLINES_BTM
100
AcDbPolyline
 90
        4
 70
         0
 43
100.0
 10
16800.0
 20
4460.0
 10
16800.0
 20
2390.0
 10
17510.0
 20
2390.0
 10
17510.0
 20
4460.0
  0
LWPOLYLINE
  5
8F
100
AcDbEntity
  8
ASSEMBLY_OUTLINES_BTM
100
AcDbPolyline
 90
        2
 70
         0
 43
100.0
 10
17310.0
 20
4620.0
 10
16990.0
 20
4620.0
  0
LWPOLYLINE
  5
90
100
AcDbEntity
  8
ASSEMBLY_OUTLINES_BTM
100
AcDbPolyline
 90
        4
 70
         0
 43
100.0
 10
15490.0
 20
1100.0
 10
17560.0
 20
1100.0
 10
17560.0
 20
1810.0
 10
15490.0
 20
1810.0
  0
LWPOLYLINE
  5
91
100
AcDbEntity
  8
ASSEMBLY_OUTLINES_BTM
100
AcDbPolyline
 90
        2
 70
         0
 43
100.0
 10
15330.0
 20
1610.0
 10
15330.0
 20
1290.0
  0
LWPOLYLINE
  5
92
100
AcDbEntity
  8
ASSEMBLY_OUTLINES_BTM
100
AcDbPolyline
 90
        4
 70
         1
 43
50.0
 10
14625.0
 20
22225.0
 10
14625.0
 20
22875.0
 10
15475.0
 20
22875.0
 10
15475.0
 20
22225.0
  0
LWPOLYLINE
  5
93
100
AcDbEntity
  8
ASSEMBLY_OUTLINES_BTM
100
AcDbPolyline
 90
        2
 70
         0
 43
50.0
 10
15300.0
 20
22250.0
 10
15300.0
 20
22850.0
  0
LWPOLYLINE
  5
94
100
AcDbEntity
  8
ASSEMBLY_OUTLINES_BTM
100
AcDbPolyline
 90
        4
 70
         1
 43
50.0
 10
13505.0
 20
22225.0
 10
13505.0
 20
22875.0
 10
14355.0
 20
22875.0
 10
14355.0
 20
22225.0
  0
LWPOLYLINE
  5
95
100
AcDbEntity
  8
ASSEMBLY_OUTLINES_BTM
100
AcDbPolyline
 90
        2
 70
         0
 43
50.0
 10
14180.0
 20
22250.0
 10
14180.0
 20
22850.0
  0
LWPOLYLINE
  5
96
100
AcDbEntity
  8
ASSEMBLY_OUTLINES_BTM
100
AcDbPolyline
 90
        4
 70
         1
 43
100.0
 10
4300.0
 20
22650.0
 10
4300.0
 20
24750.0
 10
6400.0
 20
24750.0
 10
6400.0
 20
22650.0
  0
CIRCLE
  5
97
100
AcDbEntity
  8
ASSEMBLY_OUTLINES_BTM
100
AcDbCircle
 10
6456.0
 20
24860.0
 30
0.0
 40
359.21
  0
HATCH
  5
98
100
AcDbEntity
  8
ASSEMBLY_OUTLINES_BTM
100
AcDbHatch
 10
0.0
 20
0.0
 30
0.0
 210
0.0
 220
0.0
 230
1.0
  2
SOLID
 70
         1
 71
        1
 91
        1
  92
     1
  93
     1
 72
     2
 10
6456.0
 20
24860.0
  40
359.21
  50
     0.0
  51
     360.0
 73
     0
  97
     1
  330
    151
 75
     0
 76
     1
  98
     1
 10
0.0
 20
0.0
  0
LWPOLYLINE
  5
99
100
AcDbEntity
  8
ASSEMBLY_OUTLINES_BTM
100
AcDbPolyline
 90
        4
 70
         1
 43
100.0
 10
6500.0
 20
11850.0
 10
6500.0
 20
13350.0
 10
9700.0
 20
13350.0
 10
9700.0
 20
11850.0
  0
LWPOLYLINE
  5
9A
100
AcDbEntity
  8
ASSEMBLY_OUTLINES_BTM
100
AcDbPolyline
 90
        9
 70
         1
 43
150.0
 10
14900.0
 20
4950.0
 10
16800.0
 20
4950.0
 10
16800.0
 20
5750.0
 10
16100.0
 20
5750.0
 10
16100.0
 20
6450.0
 10
15300.0
 20
6450.0
 10
15300.0
 20
5750.0
 10
14600.0
 20
5750.0
 10
14600.0
 20
5250.0
  0
TEXT
  5
9B
100
AcDbEntity
  8
ASSEMBLY_OUTLINES_BTM
100
AcDbText
 10
14880.75
 20
5506.0
 30
0.0
 40
300.000000
 41
1.000000
  1
1
  50
180.0
  7
ARIAL
 71
2
 72
 1
 11
15000.0
 21
5350.0
 31
0.0
100
AcDbText
 73
 2
  0
TEXT
  5
9C
100
AcDbEntity
  8
ASSEMBLY_OUTLINES_BTM
100
AcDbText
 10
15580.75
 20
5526.0
 30
0.0
 40
300.000000
 41
1.000000
  1
2
  50
180.0
  7
ARIAL
 71
2
 72
 1
 11
15700.0
 21
5370.0
 31
0.0
100
AcDbText
 73
 2
  0
TEXT
  5
9D
100
AcDbEntity
  8
ASSEMBLY_OUTLINES_BTM
100
AcDbText
 10
16290.75
 20
5546.0
 30
0.0
 40
300.000000
 41
1.000000
  1
3
  50
180.0
  7
ARIAL
 71
2
 72
 1
 11
16410.0
 21
5390.0
 31
0.0
100
AcDbText
 73
 2
  0
TEXT
  5
9E
100
AcDbEntity
  8
ASSEMBLY_OUTLINES_BTM
100
AcDbText
 10
15590.75
 20
6186.0
 30
0.0
 40
300.000000
 41
1.000000
  1
4
  50
180.0
  7
ARIAL
 71
2
 72
 1
 11
15710.0
 21
6030.0
 31
0.0
100
AcDbText
 73
 2
  0
LWPOLYLINE
  5
9F
100
AcDbEntity
  8
ASSEMBLY_OUTLINES_BTM
100
AcDbPolyline
 90
        4
 70
         1
 43
100.0
 10
8950.0
 20
5750.0
 10
8950.0
 20
7850.0
 10
11050.0
 20
7850.0
 10
11050.0
 20
5750.0
  0
CIRCLE
  5
A0
100
AcDbEntity
  8
ASSEMBLY_OUTLINES_BTM
100
AcDbCircle
 10
11106.0
 20
7960.0
 30
0.0
 40
359.21
  0
HATCH
  5
A1
100
AcDbEntity
  8
ASSEMBLY_OUTLINES_BTM
100
AcDbHatch
 10
0.0
 20
0.0
 30
0.0
 210
0.0
 220
0.0
 230
1.0
  2
SOLID
 70
         1
 71
        1
 91
        1
  92
     1
  93
     1
 72
     2
 10
11106.0
 20
7960.0
  40
359.21
  50
     0.0
  51
     360.0
 73
     0
  97
     1
  330
    160
 75
     0
 76
     1
  98
     1
 10
0.0
 20
0.0
  0
LWPOLYLINE
  5
A2
100
AcDbEntity
  8
ASSEMBLY_OUTLINES_BTM
100
AcDbPolyline
 90
        4
 70
         0
 43
150.0
 10
24650.0
 20
21060.0
 10
24650.0
 20
19790.0
 10
25360.0
 20
19790.0
 10
25360.0
 20
21060.0
  0
LWPOLYLINE
  5
A3
100
AcDbEntity
  8
ASSEMBLY_OUTLINES_BTM
100
AcDbPolyline
 90
        2
 70
         0
 43
150.0
 10
25160.0
 20
21220.0
 10
24840.0
 20
21220.0
  0
LWPOLYLINE
  5
A4
100
AcDbEntity
  8
ASSEMBLY_OUTLINES_BTM
100
AcDbPolyline
 90
        3
 70
         1
 43
0.0
 10
27150.0
 20
600.0
 10
28150.0
 20
600.0
 10
28150.0
 20
1600.0
  0
HATCH
  5
A5
100
AcDbEntity
  8
ASSEMBLY_OUTLINES_BTM
100
AcDbHatch
 10
0.0
 20
0.0
 30
0.0
 210
0.0
 220
0.0
 230
1.0
  2
SOLID
 70
         1
 71
        1
 91
        1
  92
     2
 72
     0
 73
     1
  93
     3
 10
27150.0
 20
600.0
 10
28150.0
 20
600.0
 10
28150.0
 20
1600.0
  97
     1
  330
    164
 75
     0
 76
     1
  98
     1
 10
0.0
 20
0.0
  0
LWPOLYLINE
  5
A6
100
AcDbEntity
  8
ASSEMBLY_OUTLINES_BTM
100
AcDbPolyline
 90
        4
 70
         1
 43
100.0
 10
17750.0
 20
550.0
 10
17750.0
 20
7850.0
 10
28250.0
 20
7850.0
 10
28250.0
 20
550.0
  0
LWPOLYLINE
  5
A7
100
AcDbEntity
  8
ASSEMBLY_OUTLINES_BTM
100
AcDbPolyline
 90
        4
 70
         0
 43
250.0
 10
31100.0
 20
11950.0
 10
31100.0
 20
12150.0
 10
31500.0
 20
12150.0
 10
31500.0
 20
11950.0
  0
LWPOLYLINE
  5
A8
100
AcDbEntity
  8
ASSEMBLY_OUTLINES_BTM
100
AcDbPolyline
 90
        4
 70
         1
 43
100.0
 10
27900.0
 20
23050.0
 10
27900.0
 20
25150.0
 10
30000.0
 20
25150.0
 10
30000.0
 20
23050.0
  0
CIRCLE
  5
A9
100
AcDbEntity
  8
ASSEMBLY_OUTLINES_BTM
100
AcDbCircle
 10
30110.0
 20
22994.0
 30
0.0
 40
359.21
  0
HATCH
  5
AA
100
AcDbEntity
  8
ASSEMBLY_OUTLINES_BTM
100
AcDbHatch
 10
0.0
 20
0.0
 30
0.0
 210
0.0
 220
0.0
 230
1.0
  2
SOLID
 70
         1
 71
        1
 91
        1
  92
     1
  93
     1
 72
     2
 10
30110.0
 20
22994.0
  40
359.21
  50
     0.0
  51
     360.0
 73
     0
  97
     1
  330
    169
 75
     0
 76
     1
  98
     1
 10
0.0
 20
0.0
  0
LWPOLYLINE
  5
AB
100
AcDbEntity
  8
ASSEMBLY_OUTLINES_BTM
100
AcDbPolyline
 90
        4
 70
         0
 43
150.0
 10
23750.0
 20
21060.0
 10
23750.0
 20
19790.0
 10
24460.0
 20
19790.0
 10
24460.0
 20
21060.0
  0
LWPOLYLINE
  5
AC
100
AcDbEntity
  8
ASSEMBLY_OUTLINES_BTM
100
AcDbPolyline
 90
        2
 70
         0
 43
150.0
 10
24260.0
 20
21220.0
 10
23940.0
 20
21220.0
  0
LWPOLYLINE
  5
AD
100
AcDbEntity
  8
ASSEMBLY_OUTLINES_BTM
100
AcDbPolyline
 90
        4
 70
         0
 43
250.0
 10
4700.0
 20
9950.0
 10
4700.0
 20
9750.0
 10
4300.0
 20
9750.0
 10
4300.0
 20
9950.0
  0
LWPOLYLINE
  5
AE
100
AcDbEntity
  8
ASSEMBLY_OUTLINES_BTM
100
AcDbPolyline
 90
        4
 70
         0
 43
250.0
 10
29950.0
 20
12150.0
 10
29950.0
 20
11950.0
 10
29550.0
 20
11950.0
 10
29550.0
 20
12150.0
  0
LWPOLYLINE
  5
AF
100
AcDbEntity
  8
ASSEMBLY_OUTLINES_BTM
100
AcDbPolyline
 90
        4
 70
         1
 43
0.0
 10
15950.0
 20
8300.0
 10
15950.0
 20
12300.0
 10
19950.0
 20
12300.0
 10
19950.0
 20
8300.0
  0
LWPOLYLINE
  5
B0
100
AcDbEntity
  8
ASSEMBLY_OUTLINES_BTM
100
AcDbPolyline
 90
        9
 70
         1
 43
150.0
 10
15700.0
 20
19900.0
 10
15700.0
 20
21800.0
 10
14900.0
 20
21800.0
 10
14900.0
 20
21100.0
 10
14200.0
 20
21100.0
 10
14200.0
 20
20300.0
 10
14900.0
 20
20300.0
 10
14900.0
 20
19600.0
 10
15400.0
 20
19600.0
  0
TEXT
  5
B1
100
AcDbEntity
  8
ASSEMBLY_OUTLINES_BTM
100
AcDbText
 10
15456.0
 20
20119.25
 30
0.0
 40
300.000000
 41
1.000000
  1
1
  50
90.0
  7
ARIAL
 71
2
 72
 1
 11
15300.0
 21
20000.0
 31
0.0
100
AcDbText
 73
 2
  0
TEXT
  5
B2
100
AcDbEntity
  8
ASSEMBLY_OUTLINES_BTM
100
AcDbText
 10
15436.0
 20
20819.25
 30
0.0
 40
300.000000
 41
1.000000
  1
2
  50
90.0
  7
ARIAL
 71
2
 72
 1
 11
15280.0
 21
20700.0
 31
0.0
100
AcDbText
 73
 2
  0
TEXT
  5
B3
100
AcDbEntity
  8
ASSEMBLY_OUTLINES_BTM
100
AcDbText
 10
15416.0
 20
21529.25
 30
0.0
 40
300.000000
 41
1.000000
  1
3
  50
90.0
  7
ARIAL
 71
2
 72
 1
 11
15260.0
 21
21410.0
 31
0.0
100
AcDbText
 73
 2
  0
TEXT
  5
B4
100
AcDbEntity
  8
ASSEMBLY_OUTLINES_BTM
100
AcDbText
 10
14776.0
 20
20829.25
 30
0.0
 40
300.000000
 41
1.000000
  1
4
  50
90.0
  7
ARIAL
 71
2
 72
 1
 11
14620.0
 21
20710.0
 31
0.0
100
AcDbText
 73
 2
  0
LWPOLYLINE
  5
B5
100
AcDbEntity
  8
ASSEMBLY_OUTLINES_BTM
100
AcDbPolyline
 90
        2
 70
         0
 43
200.0
 10
6835.5
 20
6156.75
 10
6200.5
 20
6156.75
  0
LWPOLYLINE
  5
B6
100
AcDbEntity
  8
ASSEMBLY_OUTLINES_BTM
100
AcDbPolyline
 90
        2
 70
         0
 43
200.0
 10
6200.5
 20
6156.75
 10
6200.5
 20
7109.25
  0
LWPOLYLINE
  5
B7
100
AcDbEntity
  8
ASSEMBLY_OUTLINES_BTM
100
AcDbPolyline
 90
        2
 70
         0
 43
200.0
 10
6200.5
 20
7109.25
 10
6835.5
 20
7109.25
  0
LWPOLYLINE
  5
B8
100
AcDbEntity
  8
ASSEMBLY_OUTLINES_BTM
100
AcDbPolyline
 90
        4
 70
         1
 43
50.0
 10
18475.0
 20
13675.0
 10
18475.0
 20
14325.0
 10
19325.0
 20
14325.0
 10
19325.0
 20
13675.0
  0
LWPOLYLINE
  5
B9
100
AcDbEntity
  8
ASSEMBLY_OUTLINES_BTM
100
AcDbPolyline
 90
        2
 70
         0
 43
50.0
 10
18650.0
 20
14300.0
 10
18650.0
 20
13700.0
  0
LWPOLYLINE
  5
BA
100
AcDbEntity
  8
ASSEMBLY_OUTLINES_BTM
100
AcDbPolyline
 90
        2
 70
         0
 43
200.0
 10
8423.75
 20
20682.5
 10
8423.75
 20
21317.5
  0
LWPOLYLINE
  5
BB
100
AcDbEntity
  8
ASSEMBLY_OUTLINES_BTM
100
AcDbPolyline
 90
        2
 70
         0
 43
200.0
 10
8423.75
 20
21317.5
 10
9376.25
 20
21317.5
  0
LWPOLYLINE
  5
BC
100
AcDbEntity
  8
ASSEMBLY_OUTLINES_BTM
100
AcDbPolyline
 90
        2
 70
         0
 43
200.0
 10
9376.25
 20
21317.5
 10
9376.25
 20
20682.5
  0
LWPOLYLINE
  5
BD
100
AcDbEntity
  8
ASSEMBLY_OUTLINES_BTM
100
AcDbPolyline
 90
        4
 70
         1
 43
200.0
 10
10995.0
 20
15730.0
 10
10995.0
 20
18130.0
 10
13595.0
 20
18130.0
 10
13595.0
 20
15730.0
  0
LWPOLYLINE
  5
BE
100
AcDbEntity
  8
ASSEMBLY_OUTLINES_BTM
100
AcDbPolyline
 90
        2
 70
         1
 43
200.0
 10
12922.16
 20
18130.0
 42
-1.000000
 10
13487.84
 20
18130.0
 42
-1.000000
  0
LWPOLYLINE
  5
BF
100
AcDbEntity
  8
ASSEMBLY_OUTLINES_BTM
100
AcDbPolyline
 90
        2
 70
         0
 43
200.0
 10
26632.5
 20
21126.25
 10
27267.5
 20
21126.25
  0
LWPOLYLINE
  5
C0
100
AcDbEntity
  8
ASSEMBLY_OUTLINES_BTM
100
AcDbPolyline
 90
        2
 70
         0
 43
200.0
 10
27267.5
 20
21126.25
 10
27267.5
 20
20173.75
  0
LWPOLYLINE
  5
C1
100
AcDbEntity
  8
ASSEMBLY_OUTLINES_BTM
100
AcDbPolyline
 90
        2
 70
         0
 43
200.0
 10
27267.5
 20
20173.75
 10
26632.5
 20
20173.75
  0
LWPOLYLINE
  5
C2
100
AcDbEntity
  8
ASSEMBLY_OUTLINES_BTM
100
AcDbPolyline
 90
        2
 70
         0
 43
200.0
 10
12973.75
 20
6082.5
 10
12973.75
 20
6717.5
  0
LWPOLYLINE
  5
C3
100
AcDbEntity
  8
ASSEMBLY_OUTLINES_BTM
100
AcDbPolyline
 90
        2
 70
         0
 43
200.0
 10
12973.75
 20
6717.5
 10
13926.25
 20
6717.5
  0
LWPOLYLINE
  5
C4
100
AcDbEntity
  8
ASSEMBLY_OUTLINES_BTM
100
AcDbPolyline
 90
        2
 70
         0
 43
200.0
 10
13926.25
 20
6717.5
 10
13926.25
 20
6082.5
  0
LWPOLYLINE
  5
C5
100
AcDbEntity
  8
ASSEMBLY_OUTLINES_BTM
100
AcDbPolyline
 90
        4
 70
         0
 43
250.0
 10
31350.0
 20
10600.0
 10
31350.0
 20
10400.0
 10
30950.0
 20
10400.0
 10
30950.0
 20
10600.0
  0
LWPOLYLINE
  5
C6
100
AcDbEntity
  8
ASSEMBLY_OUTLINES_BTM
100
AcDbPolyline
 90
        4
 70
         0
 43
250.0
 10
12400.0
 20
18500.0
 10
12200.0
 20
18500.0
 10
12200.0
 20
18900.0
 10
12400.0
 20
18900.0
  0
LWPOLYLINE
  5
C7
100
AcDbEntity
  8
ASSEMBLY_OUTLINES_BTM
100
AcDbPolyline
 90
        4
 70
         0
 43
250.0
 10
30150.0
 20
25650.0
 10
29950.0
 20
25650.0
 10
29950.0
 20
26050.0
 10
30150.0
 20
26050.0
  0
LWPOLYLINE
  5
C8
100
AcDbEntity
  8
ASSEMBLY_OUTLINES_BTM
100
AcDbPolyline
 90
        4
 70
         0
 43
250.0
 10
1200.0
 20
10850.0
 10
1200.0
 20
11050.0
 10
1600.0
 20
11050.0
 10
1600.0
 20
10850.0
  0
LWPOLYLINE
  5
C9
100
AcDbEntity
  8
ASSEMBLY_OUTLINES_BTM
100
AcDbPolyline
 90
        4
 70
         1
 43
50.0
 10
20525.0
 20
13725.0
 10
20525.0
 20
14375.0
 10
21375.0
 20
14375.0
 10
21375.0
 20
13725.0
  0
LWPOLYLINE
  5
CA
100
AcDbEntity
  8
ASSEMBLY_OUTLINES_BTM
100
AcDbPolyline
 90
        2
 70
         0
 43
50.0
 10
20700.0
 20
14350.0
 10
20700.0
 20
13750.0
  0
LWPOLYLINE
  5
CB
100
AcDbEntity
  8
ASSEMBLY_OUTLINES_BTM
100
AcDbPolyline
 90
        4
 70
         0
 43
250.0
 10
27800.0
 20
28650.0
 10
27600.0
 20
28650.0
 10
27600.0
 20
29050.0
 10
27800.0
 20
29050.0
  0
LWPOLYLINE
  5
CC
100
AcDbEntity
  8
ASSEMBLY_OUTLINES_BTM
100
AcDbPolyline
 90
        2
 70
         0
 43
200.0
 10
7776.25
 20
8867.5
 10
7776.25
 20
8232.5
  0
LWPOLYLINE
  5
CD
100
AcDbEntity
  8
ASSEMBLY_OUTLINES_BTM
100
AcDbPolyline
 90
        2
 70
         0
 43
200.0
 10
7776.25
 20
8232.5
 10
6823.75
 20
8232.5
  0
LWPOLYLINE
  5
CE
100
AcDbEntity
  8
ASSEMBLY_OUTLINES_BTM
100
AcDbPolyline
 90
        2
 70
         0
 43
200.0
 10
6823.75
 20
8232.5
 10
6823.75
 20
8867.5
  0
LWPOLYLINE
  5
CF
100
AcDbEntity
  8
ASSEMBLY_OUTLINES_BTM
100
AcDbPolyline
 90
        4
 70
         1
 43
100.0
 10
1450.0
 20
11850.0
 10
1450.0
 20
13350.0
 10
4650.0
 20
13350.0
 10
4650.0
 20
11850.0
  0
LWPOLYLINE
  5
D0
100
AcDbEntity
  8
ASSEMBLY_OUTLINES_BTM
100
AcDbPolyline
 90
        4
 70
         1
 43
100.0
 10
7500.0
 20
26248.0
 10
7500.0
 20
31698.0
 10
26500.0
 20
31698.0
 10
26500.0
 20
26248.0
  0
LWPOLYLINE
  5
D1
100
AcDbEntity
  8
ASSEMBLY_OUTLINES_BTM
100
AcDbPolyline
 90
        2
 70
         0
 43
100.0
 10
17000.0
 20
35600.0
 10
17000.0
 20
33200.0
  0
LWPOLYLINE
  5
D2
100
AcDbEntity
  8
ASSEMBLY_OUTLINES_BTM
100
AcDbPolyline
 90
        3
 70
         1
 43
0.0
 10
16500.0
 20
34000.0
 10
17500.0
 20
34000.0
 10
17000.0
 20
33100.0
  0
HATCH
  5
D3
100
AcDbEntity
  8
ASSEMBLY_OUTLINES_BTM
100
AcDbHatch
 10
0.0
 20
0.0
 30
0.0
 210
0.0
 220
0.0
 230
1.0
  2
SOLID
 70
         1
 71
        1
 91
        1
  92
     2
 72
     0
 73
     1
  93
     3
 10
16500.0
 20
34000.0
 10
17500.0
 20
34000.0
 10
17000.0
 20
33100.0
  97
     1
  330
    210
 75
     0
 76
     1
  98
     1
 10
0.0
 20
0.0
  0
LWPOLYLINE
  5
D4
100
AcDbEntity
  8
ASSEMBLY_OUTLINES_BTM
100
AcDbPolyline
 90
        2
 70
         0
 43
100.0
 10
8210.0
 20
26262.0
 10
8700.0
 20
27500.0
  0
LWPOLYLINE
  5
D5
100
AcDbEntity
  8
ASSEMBLY_OUTLINES_BTM
100
AcDbPolyline
 90
        2
 70
         0
 43
100.0
 10
8700.0
 20
27500.0
 10
9200.0
 20
26300.0
  0
LWPOLYLINE
  5
D6
100
AcDbEntity
  8
ASSEMBLY_OUTLINES_BTM
100
AcDbPolyline
 90
        4
 70
         0
 43
250.0
 10
6300.0
 20
8050.0
 10
6300.0
 20
7850.0
 10
5900.0
 20
7850.0
 10
5900.0
 20
8050.0
  0
LWPOLYLINE
  5
D7
100
AcDbEntity
  8
ASSEMBLY_OUTLINES_BTM
100
AcDbPolyline
 90
        2
 70
         0
 43
200.0
 10
30017.5
 20
20173.75
 10
29382.5
 20
20173.75
  0
LWPOLYLINE
  5
D8
100
AcDbEntity
  8
ASSEMBLY_OUTLINES_BTM
100
AcDbPolyline
 90
        2
 70
         0
 43
200.0
 10
29382.5
 20
20173.75
 10
29382.5
 20
21126.25
  0
LWPOLYLINE
  5
D9
100
AcDbEntity
  8
ASSEMBLY_OUTLINES_BTM
100
AcDbPolyline
 90
        2
 70
         0
 43
200.0
 10
29382.5
 20
21126.25
 10
30017.5
 20
21126.25
  0
LWPOLYLINE
  5
DA
100
AcDbEntity
  8
ASSEMBLY_OUTLINES_BTM
100
AcDbPolyline
 90
        4
 70
         0
 43
250.0
 10
7250.0
 20
23100.0
 10
7450.0
 20
23100.0
 10
7450.0
 20
22700.0
 10
7250.0
 20
22700.0
  0
LWPOLYLINE
  5
DB
100
AcDbEntity
  8
ASSEMBLY_OUTLINES_BTM
100
AcDbPolyline
 90
        4
 70
         0
 43
250.0
 10
27050.0
 20
10500.0
 10
26850.0
 20
10500.0
 10
26850.0
 20
10900.0
 10
27050.0
 20
10900.0
  0
LWPOLYLINE
  5
DC
100
AcDbEntity
  8
ASSEMBLY_OUTLINES_BTM
100
AcDbPolyline
 90
        4
 70
         0
 43
250.0
 10
3200.0
 20
9950.0
 10
3200.0
 20
9750.0
 10
2800.0
 20
9750.0
 10
2800.0
 20
9950.0
  0
LWPOLYLINE
  5
DD
100
AcDbEntity
  8
ASSEMBLY_OUTLINES_BTM
100
AcDbPolyline
 90
        4
 70
         0
 43
250.0
 10
14050.0
 20
17650.0
 10
14050.0
 20
17850.0
 10
14450.0
 20
17850.0
 10
14450.0
 20
17650.0
  0
LWPOLYLINE
  5
DE
100
AcDbEntity
  8
ASSEMBLY_OUTLINES_BTM
100
AcDbPolyline
 90
        4
 70
         0
 43
250.0
 10
14050.0
 20
16150.0
 10
14050.0
 20
16350.0
 10
14450.0
 20
16350.0
 10
14450.0
 20
16150.0
  0
LWPOLYLINE
  5
DF
100
AcDbEntity
  8
ASSEMBLY_OUTLINES_BTM
100
AcDbPolyline
 90
        4
 70
         0
 43
250.0
 10
10450.0
 20
11400.0
 10
10450.0
 20
11200.0
 10
10050.0
 20
11200.0
 10
10050.0
 20
11400.0
  0
LWPOLYLINE
  5
E0
100
AcDbEntity
  8
ASSEMBLY_OUTLINES_BTM
100
AcDbPolyline
 90
        4
 70
         0
 43
250.0
 10
9950.0
 20
18300.0
 10
10150.0
 20
18300.0
 10
10150.0
 20
17900.0
 10
9950.0
 20
17900.0
  0
LWPOLYLINE
  5
E1
100
AcDbEntity
  8
ASSEMBLY_OUTLINES_BTM
100
AcDbPolyline
 90
        4
 70
         0
 43
250.0
 10
9950.0
 20
16050.0
 10
10150.0
 20
16050.0
 10
10150.0
 20
15650.0
 10
9950.0
 20
15650.0
  0
LWPOLYLINE
  5
E2
100
AcDbEntity
  8
ASSEMBLY_OUTLINES_BTM
100
AcDbPolyline
 90
        4
 70
         0
 43
250.0
 10
4950.0
 20
12500.0
 10
4950.0
 20
12700.0
 10
5350.0
 20
12700.0
 10
5350.0
 20
12500.0
  0
LWPOLYLINE
  5
E3
100
AcDbEntity
  8
ASSEMBLY_OUTLINES_BTM
100
AcDbPolyline
 90
        4
 70
         0
 43
250.0
 10
17750.0
 20
13900.0
 10
17750.0
 20
14100.0
 10
18150.0
 20
14100.0
 10
18150.0
 20
13900.0
  0
LWPOLYLINE
  5
E4
100
AcDbEntity
  8
ASSEMBLY_OUTLINES_BTM
100
AcDbPolyline
 90
        4
 70
         0
 43
250.0
 10
12500.0
 20
23100.0
 10
12700.0
 20
23100.0
 10
12700.0
 20
22700.0
 10
12500.0
 20
22700.0
  0
LWPOLYLINE
  5
E5
100
AcDbEntity
  8
ASSEMBLY_OUTLINES_BTM
100
AcDbPolyline
 90
        4
 70
         0
 43
250.0
 10
19800.0
 20
13950.0
 10
19800.0
 20
14150.0
 10
20200.0
 20
14150.0
 10
20200.0
 20
13950.0
  0
LWPOLYLINE
  5
E6
100
AcDbEntity
  8
ASSEMBLY_OUTLINES_BTM
100
AcDbPolyline
 90
        4
 70
         0
 43
250.0
 10
12550.0
 20
4450.0
 10
12550.0
 20
4250.0
 10
12150.0
 20
4250.0
 10
12150.0
 20
4450.0
  0
LWPOLYLINE
  5
E7
100
AcDbEntity
  8
ASSEMBLY_OUTLINES_BTM
100
AcDbPolyline
 90
        4
 70
         0
 43
250.0
 10
12500.0
 20
23850.0
 10
12700.0
 20
23850.0
 10
12700.0
 20
23450.0
 10
12500.0
 20
23450.0
  0
LWPOLYLINE
  5
E8
100
AcDbEntity
  8
ASSEMBLY_OUTLINES_BTM
100
AcDbPolyline
 90
        4
 70
         0
 43
250.0
 10
15150.0
 20
23650.0
 10
15350.0
 20
23650.0
 10
15350.0
 20
23250.0
 10
15150.0
 20
23250.0
  0
LWPOLYLINE
  5
E9
100
AcDbEntity
  8
ASSEMBLY_OUTLINES_BTM
100
AcDbPolyline
 90
        4
 70
         0
 43
250.0
 10
30000.0
 20
7550.0
 10
30000.0
 20
7350.0
 10
29600.0
 20
7350.0
 10
29600.0
 20
7550.0
  0
LWPOLYLINE
  5
EA
100
AcDbEntity
  8
ASSEMBLY_OUTLINES_BTM
100
AcDbPolyline
 90
        4
 70
         0
 43
250.0
 10
13800.0
 20
24450.0
 10
13800.0
 20
24650.0
 10
14200.0
 20
24650.0
 10
14200.0
 20
24450.0
  0
LWPOLYLINE
  5
EB
100
AcDbEntity
  8
ASSEMBLY_OUTLINES_BTM
100
AcDbPolyline
 90
        4
 70
         0
 43
250.0
 10
31200.0
 20
16950.0
 10
31200.0
 20
16750.0
 10
30800.0
 20
16750.0
 10
30800.0
 20
16950.0
  0
LWPOLYLINE
  5
EC
100
AcDbEntity
  8
ASSEMBLY_OUTLINES_BTM
100
AcDbPolyline
 90
        4
 70
         0
 43
250.0
 10
9950.0
 20
17550.0
 10
10150.0
 20
17550.0
 10
10150.0
 20
17150.0
 10
9950.0
 20
17150.0
  0
LWPOLYLINE
  5
ED
100
AcDbEntity
  8
ASSEMBLY_OUTLINES_BTM
100
AcDbPolyline
 90
        4
 70
         0
 43
250.0
 10
9950.0
 20
16800.0
 10
10150.0
 20
16800.0
 10
10150.0
 20
16400.0
 10
9950.0
 20
16400.0
  0
LWPOLYLINE
  5
EE
100
AcDbEntity
  8
ASSEMBLY_OUTLINES_BTM
100
AcDbPolyline
 90
        4
 70
         0
 43
250.0
 10
12200.0
 20
19700.0
 10
12400.0
 20
19700.0
 10
12400.0
 20
19300.0
 10
12200.0
 20
19300.0
  0
LWPOLYLINE
  5
EF
100
AcDbEntity
  8
ASSEMBLY_OUTLINES_BTM
100
AcDbPolyline
 90
        4
 70
         0
 43
250.0
 10
2550.0
 20
17400.0
 10
2550.0
 20
17200.0
 10
2150.0
 20
17200.0
 10
2150.0
 20
17400.0
  0
LWPOLYLINE
  5
F0
100
AcDbEntity
  8
ASSEMBLY_OUTLINES_TOP
100
AcDbPolyline
 90
        4
 70
         1
 43
0.0
 10
9800.0
 20
10570.0
 10
9800.0
 20
23420.0
 10
24200.0
 20
23420.0
 10
24200.0
 20
10570.0
  0
LWPOLYLINE
  5
F1
100
AcDbEntity
  8
ASSEMBLY_OUTLINES_TOP
100
AcDbPolyline
 90
        2
 70
         0
 43
0.0
 10
0.0
 20
34000.0
 10
34000.0
 20
0.0
  0
LWPOLYLINE
  5
F2
100
AcDbEntity
  8
ASSEMBLY_OUTLINES_TOP
100
AcDbPolyline
 90
        2
 70
         0
 43
0.0
 10
0.0
 20
0.0
 10
34000.0
 20
34000.0
  0
LWPOLYLINE
  5
F3
100
AcDbEntity
  8
ASSEMBLY_OUTLINES_TOP
100
AcDbPolyline
 90
        2
 70
         0
 43
1.0
 10
18271.0
 20
16500.0
 10
18271.0
 20
17800.0
  0
LWPOLYLINE
  5
F4
100
AcDbEntity
  8
ASSEMBLY_OUTLINES_TOP
100
AcDbPolyline
 90
        2
 70
         0
 43
1.0
 10
17625.0
 20
17148.0
 10
18925.0
 20
17148.0
  0
LWPOLYLINE
  5
F5
100
AcDbEntity
  8
ASSEMBLY_OUTLINES_TOP
100
AcDbPolyline
 90
        8
 70
         1
 43
0.0
 10
25693.0
 20
10699.823
 10
23292.038
 20
8300.0
 10
10792.962
 20
8300.0
 10
8391.983
 20
10699.839
 10
8393.017
 20
23199.055
 10
10792.823
 20
25600.0
 10
23292.108
 20
25600.0
 10
25693.0
 20
23199.108
  0
LWPOLYLINE
  5
F6
100
AcDbEntity
  8
ASSEMBLY_OUTLINES_TOP
100
AcDbPolyline
 90
        4
 70
         1
 43
0.0
 10
7540.0
 20
7860.0
 10
7540.0
 20
26160.0
 10
26440.0
 20
26160.0
 10
26440.0
 20
7860.0
  0
LWPOLYLINE
  5
F7
100
AcDbEntity
  8
ASSEMBLY_OUTLINES_TOP
100
AcDbPolyline
 90
        8
 70
         1
 43
0.0
 10
27500.0
 20
9983.447
 10
24015.077
 20
6500.177
 10
9983.923
 20
6500.177
 10
6498.92
 20
9983.526
 10
6500.08
 20
24015.334
 10
9983.27
 20
27500.177
 10
24015.404
 20
27500.177
 10
27500.0
 20
24015.581
  0
HATCH
  5
F8
100
AcDbEntity
  8
ASSEMBLY_OUTLINES_TOP
100
AcDbHatch
 10
0.0
 20
0.0
 30
0.0
 210
0.0
 220
0.0
 230
1.0
  2
SOLID
 70
         1
 71
        1
 91
        2
  92
     1
  93
     4
 72
     1
 10
0.0
 20
0.0
 11
0.0
 21
34000.0
 72
     1
 10
0.0
 20
34000.0
 11
34000.0
 21
34000.0
 72
     1
 10
34000.0
 20
34000.0
 11
34000.0
 21
0.0
 72
     1
 10
34000.0
 20
0.0
 11
0.0
 21
0.0
  97
     0
  92
     16
  93
     4
 72
     1
 10
2500.0
 20
2500.0
 11
2500.0
 21
31500.0
 72
     1
 10
2500.0
 20
31500.0
 11
31500.0
 21
31500.0
 72
     1
 10
31500.0
 20
31500.0
 11
31500.0
 21
2500.0
 72
     1
 10
31500.0
 20
2500.0
 11
2500.0
 21
2500.0
  97
     0
 75
     0
 76
     1
  98
     1
 10
0.0
 20
0.0
  0
HATCH
  5
F9
100
AcDbEntity
  8
ASSEMBLY_OUTLINES_TOP
100
AcDbHatch
 10
0.0
 20
0.0
 30
0.0
 210
0.0
 220
0.0
 230
1.0
  2
SOLID
 70
         1
 71
        1
 91
        2
  92
     1
  93
     4
 72
     1
 10
0.0
 20
0.0
 11
0.0
 21
34000.0
 72
     1
 10
0.0
 20
34000.0
 11
34000.0
 21
34000.0
 72
     1
 10
34000.0
 20
34000.0
 11
34000.0
 21
0.0
 72
     1
 10
34000.0
 20
0.0
 11
0.0
 21
0.0
  97
     0
  92
     16
  93
     4
 72
     1
 10
2550.0
 20
2550.0
 11
2550.0
 21
31450.0
 72
     1
 10
2550.0
 20
31450.0
 11
31450.0
 21
31450.0
 72
     1
 10
31450.0
 20
31450.0
 11
31450.0
 21
2550.0
 72
     1
 10
31450.0
 20
2550.0
 11
2550.0
 21
2550.0
  97
     0
 75
     0
 76
     1
  98
     1
 10
0.0
 20
0.0
  0
LWPOLYLINE
  5
FA
100
AcDbEntity
  8
ASSEMBLY_OUTLINES_TOP
100
AcDbPolyline
 90
        2
 70
         0
 43
200.0
 10
17282.5
 20
12123.75
 10
17917.5
 20
12123.75
  0
LWPOLYLINE
  5
FB
100
AcDbEntity
  8
ASSEMBLY_OUTLINES_TOP
100
AcDbPolyline
 90
        2
 70
         0
 43
200.0
 10
17917.5
 20
12123.75
 10
17917.5
 20
13076.25
  0
LWPOLYLINE
  5
FC
100
AcDbEntity
  8
ASSEMBLY_OUTLINES_TOP
100
AcDbPolyline
 90
        2
 70
         0
 43
200.0
 10
17917.5
 20
13076.25
 10
17282.5
 20
13076.25
  0
LWPOLYLINE
  5
FD
100
AcDbEntity
  8
ASSEMBLY_OUTLINES_TOP
100
AcDbPolyline
 90
        4
 70
         0
 43
250.0
 10
12450.0
 20
14150.0
 10
12450.0
 20
13950.0
 10
12850.0
 20
13950.0
 10
12850.0
 20
14150.0
  0
LWPOLYLINE
  5
FE
100
AcDbEntity
  8
ASSEMBLY_OUTLINES_TOP
100
AcDbPolyline
 90
        2
 70
         0
 43
200.0
 10
22323.75
 20
22067.5
 10
22323.75
 20
21432.5
  0
LWPOLYLINE
  5
FF
100
AcDbEntity
  8
ASSEMBLY_OUTLINES_TOP
100
AcDbPolyline
 90
        2
 70
         0
 43
200.0
 10
22323.75
 20
21432.5
 10
23276.25
 20
21432.5
  0
LWPOLYLINE
  5
100
100
AcDbEntity
  8
ASSEMBLY_OUTLINES_TOP
100
AcDbPolyline
 90
        2
 70
         0
 43
200.0
 10
23276.25
 20
21432.5
 10
23276.25
 20
22067.5
  0
LWPOLYLINE
  5
101
100
AcDbEntity
  8
ASSEMBLY_OUTLINES_TOP
100
AcDbPolyline
 90
        2
 70
         0
 43
200.0
 10
11173.75
 20
18717.5
 10
11173.75
 20
18082.5
  0
LWPOLYLINE
  5
102
100
AcDbEntity
  8
ASSEMBLY_OUTLINES_TOP
100
AcDbPolyline
 90
        2
 70
         0
 43
200.0
 10
11173.75
 20
18082.5
 10
12126.25
 20
18082.5
  0
LWPOLYLINE
  5
103
100
AcDbEntity
  8
ASSEMBLY_OUTLINES_TOP
100
AcDbPolyline
 90
        2
 70
         0
 43
200.0
 10
12126.25
 20
18082.5
 10
12126.25
 20
18717.5
  0
LWPOLYLINE
  5
104
100
AcDbEntity
  8
ASSEMBLY_OUTLINES_TOP
100
AcDbPolyline
 90
        4
 70
         0
 43
250.0
 10
20350.0
 20
13350.0
 10
20550.0
 20
13350.0
 10
20550.0
 20
13750.0
 10
20350.0
 20
13750.0
  0
LWPOLYLINE
  5
105
100
AcDbEntity
  8
ASSEMBLY_OUTLINES_TOP
100
AcDbPolyline
 90
        4
 70
         0
 43
250.0
 10
20350.0
 20
12600.0
 10
20550.0
 20
12600.0
 10
20550.0
 20
13000.0
 10
20350.0
 20
13000.0
  0
LWPOLYLINE
  5
106
100
AcDbEntity
  8
ASSEMBLY_OUTLINES_TOP
100
AcDbPolyline
 90
        4
 70
         1
 43
100.0
 10
16400.0
 20
27100.0
 10
16400.0
 20
31100.0
 10
20400.0
 20
31100.0
 10
20400.0
 20
27100.0
  0
LWPOLYLINE
  5
107
100
AcDbEntity
  8
ASSEMBLY_OUTLINES_TOP
100
AcDbPolyline
 90
        4
 70
         0
 43
250.0
 10
18100.0
 20
13350.0
 10
18300.0
 20
13350.0
 10
18300.0
 20
13750.0
 10
18100.0
 20
13750.0
  0
LWPOLYLINE
  5
108
100
AcDbEntity
  8
ASSEMBLY_OUTLINES_TOP
100
AcDbPolyline
 90
        4
 70
         0
 43
200.0
 10
22100.0
 20
12400.0
 10
22100.0
 20
12800.0
 10
23300.0
 20
12800.0
 10
23300.0
 20
12400.0
  0
LWPOLYLINE
  5
109
100
AcDbEntity
  8
ASSEMBLY_OUTLINES_TOP
100
AcDbPolyline
 90
        2
 70
         0
 43
200.0
 10
11882.5
 20
12123.75
 10
12517.5
 20
12123.75
  0
LWPOLYLINE
  5
10A
100
AcDbEntity
  8
ASSEMBLY_OUTLINES_TOP
100
AcDbPolyline
 90
        2
 70
         0
 43
200.0
 10
12517.5
 20
12123.75
 10
12517.5
 20
13076.25
  0
LWPOLYLINE
  5
10B
100
AcDbEntity
  8
ASSEMBLY_OUTLINES_TOP
100
AcDbPolyline
 90
        2
 70
         0
 43
200.0
 10
12517.5
 20
13076.25
 10
11882.5
 20
13076.25
  0
LWPOLYLINE
  5
10C
100
AcDbEntity
  8
ASSEMBLY_OUTLINES_TOP
100
AcDbPolyline
 90
        4
 70
         0
 43
250.0
 10
13900.0
 20
13750.0
 10
13700.0
 20
13750.0
 10
13700.0
 20
13350.0
 10
13900.0
 20
13350.0
  0
LWPOLYLINE
  5
10D
100
AcDbEntity
  8
ASSEMBLY_OUTLINES_TOP
100
AcDbPolyline
 90
        2
 70
         0
 43
200.0
 10
21173.75
 20
22067.5
 10
21173.75
 20
21432.5
  0
LWPOLYLINE
  5
10E
100
AcDbEntity
  8
ASSEMBLY_OUTLINES_TOP
100
AcDbPolyline
 90
        2
 70
         0
 43
200.0
 10
21173.75
 20
21432.5
 10
22126.25
 20
21432.5
  0
LWPOLYLINE
  5
10F
100
AcDbEntity
  8
ASSEMBLY_OUTLINES_TOP
100
AcDbPolyline
 90
        2
 70
         0
 43
200.0
 10
22126.25
 20
21432.5
 10
22126.25
 20
22067.5
  0
LWPOLYLINE
  5
110
100
AcDbEntity
  8
ASSEMBLY_OUTLINES_TOP
100
AcDbPolyline
 90
        2
 70
         0
 43
200.0
 10
14867.5
 20
22976.25
 10
14232.5
 20
22976.25
  0
LWPOLYLINE
  5
111
100
AcDbEntity
  8
ASSEMBLY_OUTLINES_TOP
100
AcDbPolyline
 90
        2
 70
         0
 43
200.0
 10
14232.5
 20
22976.25
 10
14232.5
 20
22023.75
  0
LWPOLYLINE
  5
112
100
AcDbEntity
  8
ASSEMBLY_OUTLINES_TOP
100
AcDbPolyline
 90
        2
 70
         0
 43
200.0
 10
14232.5
 20
22023.75
 10
14867.5
 20
22023.75
  0
LWPOLYLINE
  5
113
100
AcDbEntity
  8
ASSEMBLY_OUTLINES_TOP
100
AcDbPolyline
 90
        2
 70
         0
 43
200.0
 10
14632.5
 20
12123.75
 10
15267.5
 20
12123.75
  0
LWPOLYLINE
  5
114
100
AcDbEntity
  8
ASSEMBLY_OUTLINES_TOP
100
AcDbPolyline
 90
        2
 70
         0
 43
200.0
 10
15267.5
 20
12123.75
 10
15267.5
 20
13076.25
  0
LWPOLYLINE
  5
115
100
AcDbEntity
  8
ASSEMBLY_OUTLINES_TOP
100
AcDbPolyline
 90
        2
 70
         0
 43
200.0
 10
15267.5
 20
13076.25
 10
14632.5
 20
13076.25
  0
LWPOLYLINE
  5
116
100
AcDbEntity
  8
ASSEMBLY_OUTLINES_TOP
100
AcDbPolyline
 90
        2
 70
         1
 43
150.0
 10
0.0
 20
31000.0
 42
-1.000000
 10
6000.0
 20
31000.0
 42
-1.000000
  0
LWPOLYLINE
  5
117
100
AcDbEntity
  8
ASSEMBLY_OUTLINES_TOP
100
AcDbPolyline
 90
        2
 70
         1
 43
150.0
 10
28000.0
 20
31000.0
 42
-1.000000
 10
34000.0
 20
31000.0
 42
-1.000000
  0
LWPOLYLINE
  5
118
100
AcDbEntity
  8
ASSEMBLY_OUTLINES_TOP
100
AcDbPolyline
 90
        2
 70
         1
 43
150.0
 10
0.0
 20
3000.0
 42
-1.000000
 10
6000.0
 20
3000.0
 42
-1.000000
  0
LWPOLYLINE
  5
119
100
AcDbEntity
  8
ASSEMBLY_OUTLINES_TOP
100
AcDbPolyline
 90
        2
 70
         0
 43
200.0
 10
20232.5
 20
11373.75
 10
20867.5
 20
11373.75
  0
LWPOLYLINE
  5
11A
100
AcDbEntity
  8
ASSEMBLY_OUTLINES_TOP
100
AcDbPolyline
 90
        2
 70
         0
 43
200.0
 10
20867.5
 20
11373.75
 10
20867.5
 20
12326.25
  0
LWPOLYLINE
  5
11B
100
AcDbEntity
  8
ASSEMBLY_OUTLINES_TOP
100
AcDbPolyline
 90
        2
 70
         0
 43
200.0
 10
20867.5
 20
12326.25
 10
20232.5
 20
12326.25
  0
LWPOLYLINE
  5
11C
100
AcDbEntity
  8
ASSEMBLY_OUTLINES_TOP
100
AcDbPolyline
 90
        2
 70
         1
 43
150.0
 10
28000.0
 20
3000.0
 42
-1.000000
 10
34000.0
 20
3000.0
 42
-1.000000
  0
LWPOLYLINE
  5
11D
100
AcDbEntity
  8
ASSEMBLY_OUTLINES_TOP
100
AcDbPolyline
 90
        2
 70
         1
 43
150.0
 10
3700.0
 20
17000.0
 42
-1.000000
 10
8300.0
 20
17000.0
 42
-1.000000
  0
LWPOLYLINE
  5
11E
100
AcDbEntity
  8
ASSEMBLY_OUTLINES_TOP
100
AcDbPolyline
 90
        3
 70
         1
 43
0.0
 10
13271.0
 20
19148.0
 10
14271.0
 20
20148.0
 10
13271.0
 20
20148.0
  0
HATCH
  5
11F
100
AcDbEntity
  8
ASSEMBLY_OUTLINES_TOP
100
AcDbHatch
 10
0.0
 20
0.0
 30
0.0
 210
0.0
 220
0.0
 230
1.0
  2
SOLID
 70
         1
 71
        1
 91
        1
  92
     2
 72
     0
 73
     1
  93
     3
 10
13271.0
 20
19148.0
 10
14271.0
 20
20148.0
 10
13271.0
 20
20148.0
  97
     1
  330
    286
 75
     0
 76
     1
  98
     1
 10
0.0
 20
0.0
  0
CIRCLE
  5
120
100
AcDbEntity
  8
ASSEMBLY_OUTLINES_TOP
100
AcDbCircle
 10
17000.0
 20
17000.0
 30
0.0
 40
150.0
  0
LWPOLYLINE
  5
121
100
AcDbEntity
  8
ASSEMBLY_OUTLINES_TOP
100
AcDbPolyline
 90
        2
 70
         0
 43
20.0
 10
17000.0
 20
17250.0
 10
17000.0
 20
16750.0
  0
LWPOLYLINE
  5
122
100
AcDbEntity
  8
ASSEMBLY_OUTLINES_TOP
100
AcDbPolyline
 90
        2
 70
         0
 43
20.0
 10
16750.0
 20
17000.0
 10
17250.0
 20
17000.0
  0
LWPOLYLINE
  5
123
100
AcDbEntity
  8
ASSEMBLY_OUTLINES_TOP
100
AcDbPolyline
 90
        4
 70
         1
 43
20.0
 10
14108.0
 20
15188.0
 10
14108.0
 20
18812.0
 10
19892.0
 20
18812.0
 10
19892.0
 20
15188.0
  0
LWPOLYLINE
  5
124
100
AcDbEntity
  8
ASSEMBLY_OUTLINES_TOP
100
AcDbPolyline
 90
        4
 70
         1
 43
100.0
 10
13271.0
 20
14148.0
 10
13271.0
 20
20148.0
 10
23271.0
 20
20148.0
 10
23271.0
 20
14148.0
  0
LWPOLYLINE
  5
125
100
AcDbEntity
  8
ASSEMBLY_OUTLINES_TOP
100
AcDbPolyline
 90
        8
 70
         1
 43
0.0
 10
16996.0
 20
20148.0
 10
16996.0
 20
21648.0
 10
19496.0
 20
21648.0
 10
19496.0
 20
20148.0
 10
23271.0
 20
20148.0
 10
23271.0
 20
14148.0
 10
13271.0
 20
14148.0
 10
13271.0
 20
20148.0
  0
LWPOLYLINE
  5
126
100
AcDbEntity
  8
ASSEMBLY_OUTLINES_TOP
100
AcDbPolyline
 90
        4
 70
         0
 43
250.0
 10
16850.0
 20
13750.0
 10
16650.0
 20
13750.0
 10
16650.0
 20
13350.0
 10
16850.0
 20
13350.0
  0
LWPOLYLINE
  5
127
100
AcDbEntity
  8
ASSEMBLY_OUTLINES_TOP
100
AcDbPolyline
 90
        4
 70
         0
 43
250.0
 10
14650.0
 20
21000.0
 10
14450.0
 20
21000.0
 10
14450.0
 20
20600.0
 10
14650.0
 20
20600.0
  0
LWPOLYLINE
  5
128
100
AcDbEntity
  8
ASSEMBLY_OUTLINES_TOP
100
AcDbPolyline
 90
        4
 70
         0
 43
250.0
 10
20500.0
 20
21250.0
 10
20500.0
 20
21050.0
 10
20900.0
 20
21050.0
 10
20900.0
 20
21250.0
  0
LWPOLYLINE
  5
129
100
AcDbEntity
  8
ASSEMBLY_OUTLINES_TOP
100
AcDbPolyline
 90
        2
 70
         1
 43
150.0
 10
25700.0
 20
17000.0
 42
-1.000000
 10
30300.0
 20
17000.0
 42
-1.000000
  0
LWPOLYLINE
  5
12A
100
AcDbEntity
  8
ASSEMBLY_OUTLINES_TOP
100
AcDbPolyline
 90
        4
 70
         0
 43
250.0
 10
16350.0
 20
21250.0
 10
16350.0
 20
21050.0
 10
16750.0
 20
21050.0
 10
16750.0
 20
21250.0
  0
LWPOLYLINE
  5
12B
100
AcDbEntity
  8
ASSEMBLY_OUTLINES_TOP
100
AcDbPolyline
 90
        4
 70
         0
 43
250.0
 10
12200.0
 20
16500.0
 10
12400.0
 20
16500.0
 10
12400.0
 20
16900.0
 10
12200.0
 20
16900.0
  0
LWPOLYLINE
  5
12C
100
AcDbEntity
  8
ASSEMBLY_OUTLINES_TOP
100
AcDbPolyline
 90
        4
 70
         0
 43
250.0
 10
19550.0
 20
13100.0
 10
19550.0
 20
13300.0
 10
19150.0
 20
13300.0
 10
19150.0
 20
13100.0
  0
LWPOLYLINE
  5
12D
100
AcDbEntity
  8
ASSEMBLY_OUTLINES_TOP
100
AcDbPolyline
 90
        2
 70
         0
 43
200.0
 10
12126.25
 20
14632.5
 10
12126.25
 20
15267.5
  0
LWPOLYLINE
  5
12E
100
AcDbEntity
  8
ASSEMBLY_OUTLINES_TOP
100
AcDbPolyline
 90
        2
 70
         0
 43
200.0
 10
12126.25
 20
15267.5
 10
11173.75
 20
15267.5
  0
LWPOLYLINE
  5
12F
100
AcDbEntity
  8
ASSEMBLY_OUTLINES_TOP
100
AcDbPolyline
 90
        2
 70
         0
 43
200.0
 10
11173.75
 20
15267.5
 10
11173.75
 20
14632.5
  0
LWPOLYLINE
  5
130
100
AcDbEntity
  8
ASSEMBLY_OUTLINES_TOP
100
AcDbPolyline
 90
        2
 70
         0
 43
200.0
 10
17932.5
 20
21823.75
 10
18567.5
 20
21823.75
  0
LWPOLYLINE
  5
131
100
AcDbEntity
  8
ASSEMBLY_OUTLINES_TOP
100
AcDbPolyline
 90
        2
 70
         0
 43
200.0
 10
18567.5
 20
21823.75
 10
18567.5
 20
22776.25
  0
LWPOLYLINE
  5
132
100
AcDbEntity
  8
ASSEMBLY_OUTLINES_TOP
100
AcDbPolyline
 90
        2
 70
         0
 43
200.0
 10
18567.5
 20
22776.25
 10
17932.5
 20
22776.25
  0
LWPOLYLINE
  5
133
100
AcDbEntity
  8
ASSEMBLY_OUTLINES_TOP
100
AcDbPolyline
 90
        4
 70
         0
 43
250.0
 10
20250.0
 20
22200.0
 10
20450.0
 20
22200.0
 10
20450.0
 20
22600.0
 10
20250.0
 20
22600.0
  0
LWPOLYLINE
  5
134
100
AcDbEntity
  8
ASSEMBLY_OUTLINES_TOP
100
AcDbPolyline
 90
        4
 70
         0
 43
250.0
 10
15200.0
 20
13350.0
 10
15400.0
 20
13350.0
 10
15400.0
 20
13750.0
 10
15200.0
 20
13750.0
  0
LWPOLYLINE
  5
135
100
AcDbEntity
  8
ASSEMBLY_OUTLINES_TOP
100
AcDbPolyline
 90
        4
 70
         0
 43
250.0
 10
12850.0
 20
15450.0
 10
12850.0
 20
15650.0
 10
12450.0
 20
15650.0
 10
12450.0
 20
15450.0
  0
LWPOLYLINE
  5
136
100
AcDbEntity
  8
ASSEMBLY_OUTLINES_TOP
100
AcDbPolyline
 90
        4
 70
         0
 43
250.0
 10
14650.0
 20
21750.0
 10
14450.0
 20
21750.0
 10
14450.0
 20
21350.0
 10
14650.0
 20
21350.0
  0
LWPOLYLINE
  5
137
100
AcDbEntity
  8
ASSEMBLY_OUTLINES_TOP
100
AcDbPolyline
 90
        4
 70
         0
 43
250.0
 10
23550.0
 20
21250.0
 10
23550.0
 20
21050.0
 10
23950.0
 20
21050.0
 10
23950.0
 20
21250.0
  0
LWPOLYLINE
  5
138
100
AcDbEntity
  8
ASSEMBLY_OUTLINES_TOP
100
AcDbPolyline
 90
        4
 70
         0
 43
250.0
 10
19750.0
 20
21350.0
 10
19750.0
 20
21150.0
 10
20150.0
 20
21150.0
 10
20150.0
 20
21350.0
  0
LWPOLYLINE
  5
139
100
AcDbEntity
  8
ASSEMBLY_OUTLINES_TOP
100
AcDbPolyline
 90
        4
 70
         0
 43
250.0
 10
12450.0
 20
17900.0
 10
12450.0
 20
17700.0
 10
12850.0
 20
17700.0
 10
12850.0
 20
17900.0
  0
TEXT
  5
13A
100
AcDbEntity
  8
ASSEMBLY_REF_DES_BTM
100
AcDbText
 10
10490.0
 20
22514.6
 30
0.0
 40
400.000000
 41
1.000000
  1
R56
  50
270.0
  7
ARIAL
 71
2
 72
 1
 11
10698.0
 21
23039.0
 31
0.0
100
AcDbText
 73
 2
  0
TEXT
  5
13B
100
AcDbEntity
  8
ASSEMBLY_REF_DES_BTM
100
AcDbText
 10
3442.0
 20
21175.6
 30
0.0
 40
400.000000
 41
1.000000
  1
R57
  50
270.0
  7
ARIAL
 71
2
 72
 1
 11
3650.0
 21
21700.0
 31
0.0
100
AcDbText
 73
 2
  0
TEXT
  5
13C
100
AcDbEntity
  8
ASSEMBLY_REF_DES_BTM
100
AcDbText
 10
3442.0
 20
22675.6
 30
0.0
 40
400.000000
 41
1.000000
  1
R58
  50
270.0
  7
ARIAL
 71
2
 72
 1
 11
3650.0
 21
23200.0
 31
0.0
100
AcDbText
 73
 2
  0
TEXT
  5
13D
100
AcDbEntity
  8
ASSEMBLY_REF_DES_BTM
100
AcDbText
 10
12574.4
 20
6692.0
 30
0.0
 40
400.000000
 41
1.000000
  1
R60
  7
ARIAL
 71
2
 72
 1
 11
12050.0
 21
6900.0
 31
0.0
100
AcDbText
 73
 2
  0
TEXT
  5
13E
100
AcDbEntity
  8
ASSEMBLY_REF_DES_BTM
100
AcDbText
 10
24474.4
 20
13892.0
 30
0.0
 40
400.000000
 41
1.000000
  1
R59
  7
ARIAL
 71
2
 72
 1
 11
23950.0
 21
14100.0
 31
0.0
100
AcDbText
 73
 2
  0
TEXT
  5
13F
100
AcDbEntity
  8
ASSEMBLY_REF_DES_BTM
100
AcDbText
 10
7874.4
 20
23442.0
 30
0.0
 40
400.000000
 41
1.000000
  1
R61
  7
ARIAL
 71
2
 72
 1
 11
7350.0
 21
23650.0
 31
0.0
100
AcDbText
 73
 2
  0
TEXT
  5
140
100
AcDbEntity
  8
ASSEMBLY_REF_DES_BTM
100
AcDbText
 10
14492.0
 20
6525.6
 30
0.0
 40
400.000000
 41
1.000000
  1
R62
  50
270.0
  7
ARIAL
 71
2
 72
 1
 11
14700.0
 21
7050.0
 31
0.0
100
AcDbText
 73
 2
  0
TEXT
  5
141
100
AcDbEntity
  8
ASSEMBLY_REF_DES_BTM
100
AcDbText
 10
28162.4
 20
21459.0
 30
0.0
 40
400.000000
 41
1.000000
  1
R63
  7
ARIAL
 71
2
 72
 1
 11
27638.0
 21
21667.0
 31
0.0
100
AcDbText
 73
 2
  0
TEXT
  5
142
100
AcDbEntity
  8
ASSEMBLY_REF_DES_BTM
100
AcDbText
 10
7874.4
 20
21892.0
 30
0.0
 40
400.000000
 41
1.000000
  1
R64
  7
ARIAL
 71
2
 72
 1
 11
7350.0
 21
22100.0
 31
0.0
100
AcDbText
 73
 2
  0
TEXT
  5
143
100
AcDbEntity
  8
ASSEMBLY_REF_DES_BTM
100
AcDbText
 10
2742.0
 20
25725.6
 30
0.0
 40
400.000000
 41
1.000000
  1
R65
  50
270.0
  7
ARIAL
 71
2
 72
 1
 11
2950.0
 21
26250.0
 31
0.0
100
AcDbText
 73
 2
  0
TEXT
  5
144
100
AcDbEntity
  8
ASSEMBLY_REF_DES_BTM
100
AcDbText
 10
3492.0
 20
25725.6
 30
0.0
 40
400.000000
 41
1.000000
  1
R66
  50
270.0
  7
ARIAL
 71
2
 72
 1
 11
3700.0
 21
26250.0
 31
0.0
100
AcDbText
 73
 2
  0
TEXT
  5
145
100
AcDbEntity
  8
ASSEMBLY_REF_DES_BTM
100
AcDbText
 10
8092.0
 20
7216.6
 30
0.0
 40
400.000000
 41
1.000000
  1
C121
  50
270.0
  7
ARIAL
 71
2
 72
 1
 11
8300.0
 21
7900.0
 31
0.0
100
AcDbText
 73
 2
  0
TEXT
  5
146
100
AcDbEntity
  8
ASSEMBLY_REF_DES_BTM
100
AcDbText
 10
28224.4
 20
27092.0
 30
0.0
 40
400.000000
 41
1.000000
  1
R67
  7
ARIAL
 71
2
 72
 1
 11
27700.0
 21
27300.0
 31
0.0
100
AcDbText
 73
 2
  0
TEXT
  5
147
100
AcDbEntity
  8
ASSEMBLY_REF_DES_BTM
100
AcDbText
 10
24683.4
 20
15942.0
 30
0.0
 40
400.000000
 41
1.000000
  1
C131
  7
ARIAL
 71
2
 72
 1
 11
24000.0
 21
16150.0
 31
0.0
100
AcDbText
 73
 2
  0
TEXT
  5
148
100
AcDbEntity
  8
ASSEMBLY_REF_DES_BTM
100
AcDbText
 10
28642.0
 20
21525.6
 30
0.0
 40
400.000000
 41
1.000000
  1
R70
  50
270.0
  7
ARIAL
 71
2
 72
 1
 11
28850.0
 21
22050.0
 31
0.0
100
AcDbText
 73
 2
  0
TEXT
  5
149
100
AcDbEntity
  8
ASSEMBLY_REF_DES_BTM
100
AcDbText
 10
28224.4
 20
26192.0
 30
0.0
 40
400.000000
 41
1.000000
  1
R68
  7
ARIAL
 71
2
 72
 1
 11
27700.0
 21
26400.0
 31
0.0
100
AcDbText
 73
 2
  0
TEXT
  5
14A
100
AcDbEntity
  8
ASSEMBLY_REF_DES_BTM
100
AcDbText
 10
5142.0
 20
7266.6
 30
0.0
 40
400.000000
 41
1.000000
  1
C119
  50
270.0
  7
ARIAL
 71
2
 72
 1
 11
5350.0
 21
7950.0
 31
0.0
100
AcDbText
 73
 2
  0
TEXT
  5
14B
100
AcDbEntity
  8
ASSEMBLY_REF_DES_BTM
100
AcDbText
 10
28174.4
 20
22192.0
 30
0.0
 40
400.000000
 41
1.000000
  1
R71
  7
ARIAL
 71
2
 72
 1
 11
27650.0
 21
22400.0
 31
0.0
100
AcDbText
 73
 2
  0
TEXT
  5
14C
100
AcDbEntity
  8
ASSEMBLY_REF_DES_BTM
100
AcDbText
 10
12574.4
 20
5692.0
 30
0.0
 40
400.000000
 41
1.000000
  1
R69
  7
ARIAL
 71
2
 72
 1
 11
12050.0
 21
5900.0
 31
0.0
100
AcDbText
 73
 2
  0
TEXT
  5
14D
100
AcDbEntity
  8
ASSEMBLY_REF_DES_BTM
100
AcDbText
 10
27042.0
 20
23025.6
 30
0.0
 40
400.000000
 41
1.000000
  1
R72
  50
270.0
  7
ARIAL
 71
2
 72
 1
 11
27250.0
 21
23550.0
 31
0.0
100
AcDbText
 73
 2
  0
TEXT
  5
14E
100
AcDbEntity
  8
ASSEMBLY_REF_DES_BTM
100
AcDbText
 10
12735.922
 20
9289.885
 30
0.0
 40
400.000000
 41
1.000000
  1
C139
  7
ARIAL
 71
2
 72
 1
 11
12052.522
 21
9497.885
 31
0.0
100
AcDbText
 73
 2
  0
TEXT
  5
14F
100
AcDbEntity
  8
ASSEMBLY_REF_DES_BTM
100
AcDbText
 10
14094.113
 20
8819.122
 30
0.0
 40
400.000000
 41
1.000000
  1
C161
  50
270.0
  7
ARIAL
 71
2
 72
 1
 11
14302.113
 21
9502.522
 31
0.0
100
AcDbText
 73
 2
  0
TEXT
  5
150
100
AcDbEntity
  8
ASSEMBLY_REF_DES_BTM
100
AcDbText
 10
30292.0
 20
11525.6
 30
0.0
 40
400.000000
 41
1.000000
  1
C78
  50
270.0
  7
ARIAL
 71
2
 72
 1
 11
30500.0
 21
12050.0
 31
0.0
100
AcDbText
 73
 2
  0
TEXT
  5
151
100
AcDbEntity
  8
ASSEMBLY_REF_DES_BTM
100
AcDbText
 10
3542.0
 20
9166.6
 30
0.0
 40
400.000000
 41
1.000000
  1
C159
  50
270.0
  7
ARIAL
 71
2
 72
 1
 11
3750.0
 21
9850.0
 31
0.0
100
AcDbText
 73
 2
  0
TEXT
  5
152
100
AcDbEntity
  8
ASSEMBLY_REF_DES_BTM
100
AcDbText
 10
26142.0
 20
24525.6
 30
0.0
 40
400.000000
 41
1.000000
  1
C81
  50
270.0
  7
ARIAL
 71
2
 72
 1
 11
26350.0
 21
25050.0
 31
0.0
100
AcDbText
 73
 2
  0
TEXT
  5
153
100
AcDbEntity
  8
ASSEMBLY_REF_DES_BTM
100
AcDbText
 10
3842.0
 20
6875.6
 30
0.0
 40
400.000000
 41
1.000000
  1
C82
  50
270.0
  7
ARIAL
 71
2
 72
 1
 11
4050.0
 21
7400.0
 31
0.0
100
AcDbText
 73
 2
  0
TEXT
  5
154
100
AcDbEntity
  8
ASSEMBLY_REF_DES_BTM
100
AcDbText
 10
3492.0
 20
24225.6
 30
0.0
 40
400.000000
 41
1.000000
  1
C90
  50
270.0
  7
ARIAL
 71
2
 72
 1
 11
3700.0
 21
24750.0
 31
0.0
100
AcDbText
 73
 2
  0
TEXT
  5
155
100
AcDbEntity
  8
ASSEMBLY_REF_DES_BTM
100
AcDbText
 10
6792.0
 20
24275.6
 30
0.0
 40
400.000000
 41
1.000000
  1
C89
  50
270.0
  7
ARIAL
 71
2
 72
 1
 11
7000.0
 21
24800.0
 31
0.0
100
AcDbText
 73
 2
  0
TEXT
  5
156
100
AcDbEntity
  8
ASSEMBLY_REF_DES_BTM
100
AcDbText
 10
2742.0
 20
24225.6
 30
0.0
 40
400.000000
 41
1.000000
  1
C93
  50
270.0
  7
ARIAL
 71
2
 72
 1
 11
2950.0
 21
24750.0
 31
0.0
100
AcDbText
 73
 2
  0
TEXT
  5
157
100
AcDbEntity
  8
ASSEMBLY_REF_DES_BTM
100
AcDbText
 10
7542.0
 20
24275.6
 30
0.0
 40
400.000000
 41
1.000000
  1
C94
  50
270.0
  7
ARIAL
 71
2
 72
 1
 11
7750.0
 21
24800.0
 31
0.0
100
AcDbText
 73
 2
  0
TEXT
  5
158
100
AcDbEntity
  8
ASSEMBLY_REF_DES_BTM
100
AcDbText
 10
29806.0
 20
9842.0
 30
0.0
 40
400.000000
 41
1.000000
  1
OZ1
  7
ARIAL
 71
2
 72
 1
 11
29250.0
 21
10050.0
 31
0.0
100
AcDbText
 73
 2
  0
TEXT
  5
159
100
AcDbEntity
  8
ASSEMBLY_REF_DES_BTM
100
AcDbText
 10
7585.922
 20
20139.885
 30
0.0
 40
400.000000
 41
1.000000
  1
C152
  7
ARIAL
 71
2
 72
 1
 11
6902.522
 21
20347.885
 31
0.0
100
AcDbText
 73
 2
  0
TEXT
  5
15A
100
AcDbEntity
  8
ASSEMBLY_REF_DES_BTM
100
AcDbText
 10
15092.0
 20
8616.6
 30
0.0
 40
400.000000
 41
1.000000
  1
C162
  50
270.0
  7
ARIAL
 71
2
 72
 1
 11
15300.0
 21
9300.0
 31
0.0
100
AcDbText
 73
 2
  0
TEXT
  5
15B
100
AcDbEntity
  8
ASSEMBLY_REF_DES_BTM
100
AcDbText
 10
6239.885
 20
26664.076
 30
0.0
 40
400.000000
 41
1.000000
  1
C133
  50
270.0
  7
ARIAL
 71
2
 72
 1
 11
6447.885
 21
27347.476
 31
0.0
100
AcDbText
 73
 2
  0
TEXT
  5
15C
100
AcDbEntity
  8
ASSEMBLY_REF_DES_BTM
100
AcDbText
 10
10492.0
 20
23866.6
 30
0.0
 40
400.000000
 41
1.000000
  1
C153
  50
270.0
  7
ARIAL
 71
2
 72
 1
 11
10700.0
 21
24550.0
 31
0.0
100
AcDbText
 73
 2
  0
TEXT
  5
15D
100
AcDbEntity
  8
ASSEMBLY_REF_DES_BTM
100
AcDbText
 10
16983.4
 20
12592.0
 30
0.0
 40
400.000000
 41
1.000000
  1
C163
  7
ARIAL
 71
2
 72
 1
 11
16300.0
 21
12800.0
 31
0.0
100
AcDbText
 73
 2
  0
TEXT
  5
15E
100
AcDbEntity
  8
ASSEMBLY_REF_DES_BTM
100
AcDbText
 10
11242.0
 20
23866.6
 30
0.0
 40
400.000000
 41
1.000000
  1
C104
  50
270.0
  7
ARIAL
 71
2
 72
 1
 11
11450.0
 21
24550.0
 31
0.0
100
AcDbText
 73
 2
  0
TEXT
  5
15F
100
AcDbEntity
  8
ASSEMBLY_REF_DES_BTM
100
AcDbText
 10
24683.4
 20
16692.0
 30
0.0
 40
400.000000
 41
1.000000
  1
C124
  7
ARIAL
 71
2
 72
 1
 11
24000.0
 21
16900.0
 31
0.0
100
AcDbText
 73
 2
  0
TEXT
  5
160
100
AcDbEntity
  8
ASSEMBLY_REF_DES_BTM
100
AcDbText
 10
1739.885
 20
23214.076
 30
0.0
 40
400.000000
 41
1.000000
  1
C134
  50
270.0
  7
ARIAL
 71
2
 72
 1
 11
1947.885
 21
23897.476
 31
0.0
100
AcDbText
 73
 2
  0
TEXT
  5
161
100
AcDbEntity
  8
ASSEMBLY_REF_DES_BTM
100
AcDbText
 10
9742.0
 20
23866.6
 30
0.0
 40
400.000000
 41
1.000000
  1
C154
  50
270.0
  7
ARIAL
 71
2
 72
 1
 11
9950.0
 21
24550.0
 31
0.0
100
AcDbText
 73
 2
  0
TEXT
  5
162
100
AcDbEntity
  8
ASSEMBLY_REF_DES_BTM
100
AcDbText
 10
20492.0
 20
8016.6
 30
0.0
 40
400.000000
 41
1.000000
  1
C164
  50
270.0
  7
ARIAL
 71
2
 72
 1
 11
20700.0
 21
8700.0
 31
0.0
100
AcDbText
 73
 2
  0
TEXT
  5
163
100
AcDbEntity
  8
ASSEMBLY_REF_DES_BTM
100
AcDbText
 10
12242.0
 20
7366.6
 30
0.0
 40
400.000000
 41
1.000000
  1
C125
  50
270.0
  7
ARIAL
 71
2
 72
 1
 11
12450.0
 21
8050.0
 31
0.0
100
AcDbText
 73
 2
  0
TEXT
  5
164
100
AcDbEntity
  8
ASSEMBLY_REF_DES_BTM
100
AcDbText
 10
31330.876
 20
26644.113
 30
0.0
 40
400.000000
 41
1.000000
  1
C135
  7
ARIAL
 71
2
 72
 1
 11
30647.476
 21
26852.113
 31
0.0
100
AcDbText
 73
 2
  0
TEXT
  5
165
100
AcDbEntity
  8
ASSEMBLY_REF_DES_BTM
100
AcDbText
 10
31392.0
 20
7716.6
 30
0.0
 40
400.000000
 41
1.000000
  1
C155
  50
270.0
  7
ARIAL
 71
2
 72
 1
 11
31600.0
 21
8400.0
 31
0.0
100
AcDbText
 73
 2
  0
TEXT
  5
166
100
AcDbEntity
  8
ASSEMBLY_REF_DES_BTM
100
AcDbText
 10
5492.0
 20
9884.6
 30
0.0
 40
400.000000
 41
1.000000
  1
D1
  50
270.0
  7
ARIAL
 71
2
 72
 1
 11
5700.0
 21
10250.0
 31
0.0
100
AcDbText
 73
 2
  0
TEXT
  5
167
100
AcDbEntity
  8
ASSEMBLY_REF_DES_BTM
100
AcDbText
 10
5792.0
 20
11916.6
 30
0.0
 40
400.000000
 41
1.000000
  1
C106
  50
270.0
  7
ARIAL
 71
2
 72
 1
 11
6000.0
 21
12600.0
 31
0.0
100
AcDbText
 73
 2
  0
TEXT
  5
168
100
AcDbEntity
  8
ASSEMBLY_REF_DES_BTM
100
AcDbText
 10
11492.0
 20
7366.6
 30
0.0
 40
400.000000
 41
1.000000
  1
C116
  50
270.0
  7
ARIAL
 71
2
 72
 1
 11
11700.0
 21
8050.0
 31
0.0
100
AcDbText
 73
 2
  0
TEXT
  5
169
100
AcDbEntity
  8
ASSEMBLY_REF_DES_BTM
100
AcDbText
 10
30733.4
 20
21442.0
 30
0.0
 40
400.000000
 41
1.000000
  1
C126
  7
ARIAL
 71
2
 72
 1
 11
30050.0
 21
21650.0
 31
0.0
100
AcDbText
 73
 2
  0
TEXT
  5
16A
100
AcDbEntity
  8
ASSEMBLY_REF_DES_BTM
100
AcDbText
 10
8639.885
 20
23914.076
 30
0.0
 40
400.000000
 41
1.000000
  1
C136
  50
270.0
  7
ARIAL
 71
2
 72
 1
 11
8847.885
 21
24597.476
 31
0.0
100
AcDbText
 73
 2
  0
TEXT
  5
16B
100
AcDbEntity
  8
ASSEMBLY_REF_DES_BTM
100
AcDbText
 10
24630.876
 20
14944.113
 30
0.0
 40
400.000000
 41
1.000000
  1
C146
  7
ARIAL
 71
2
 72
 1
 11
23947.476
 21
15152.113
 31
0.0
100
AcDbText
 73
 2
  0
TEXT
  5
16C
100
AcDbEntity
  8
ASSEMBLY_REF_DES_BTM
100
AcDbText
 10
28683.4
 20
11942.0
 30
0.0
 40
400.000000
 41
1.000000
  1
C156
  7
ARIAL
 71
2
 72
 1
 11
28000.0
 21
12150.0
 31
0.0
100
AcDbText
 73
 2
  0
TEXT
  5
16D
100
AcDbEntity
  8
ASSEMBLY_REF_DES_BTM
100
AcDbText
 10
4742.0
 20
26684.6
 30
0.0
 40
400.000000
 41
1.000000
  1
D2
  50
270.0
  7
ARIAL
 71
2
 72
 1
 11
4950.0
 21
27050.0
 31
0.0
100
AcDbText
 73
 2
  0
TEXT
  5
16E
100
AcDbEntity
  8
ASSEMBLY_REF_DES_BTM
100
AcDbText
 10
9399.6
 20
3042.0
 30
0.0
 40
400.000000
 41
1.000000
  1
X2
  7
ARIAL
 71
2
 72
 1
 11
9050.0
 21
3250.0
 31
0.0
100
AcDbText
 73
 2
  0
TEXT
  5
16F
100
AcDbEntity
  8
ASSEMBLY_REF_DES_BTM
100
AcDbText
 10
28009.951
 20
31736.973
 30
0.0
 40
400.000000
 41
1.000000
  1
Z2
  7
ARIAL
 71
2
 72
 1
 11
27676.351
 21
31944.973
 31
0.0
100
AcDbText
 73
 2
  0
TEXT
  5
170
100
AcDbEntity
  8
ASSEMBLY_REF_DES_BTM
100
AcDbText
 10
31742.0
 20
23734.6
 30
0.0
 40
400.000000
 41
1.000000
  1
D3
  50
270.0
  7
ARIAL
 71
2
 72
 1
 11
31950.0
 21
24100.0
 31
0.0
100
AcDbText
 73
 2
  0
TEXT
  5
171
100
AcDbEntity
  8
ASSEMBLY_REF_DES_BTM
100
AcDbText
 10
9865.4
 20
9442.0
 30
0.0
 40
400.000000
 41
1.000000
  1
D4
  7
ARIAL
 71
2
 72
 1
 11
9500.0
 21
9650.0
 31
0.0
100
AcDbText
 73
 2
  0
TEXT
  5
172
100
AcDbEntity
  8
ASSEMBLY_REF_DES_BTM
100
AcDbText
 10
2333.6
 20
6442.0
 30
0.0
 40
400.000000
 41
1.000000
  1
Z4
  7
ARIAL
 71
2
 72
 1
 11
2000.0
 21
6650.0
 31
0.0
100
AcDbText
 73
 2
  0
TEXT
  5
173
100
AcDbEntity
  8
ASSEMBLY_REF_DES_BTM
100
AcDbText
 10
20292.0
 20
24078.2
 30
0.0
 40
400.000000
 41
1.000000
  1
RN1
  50
270.0
  7
ARIAL
 71
2
 72
 1
 11
20500.0
 21
24650.0
 31
0.0
100
AcDbText
 73
 2
  0
TEXT
  5
174
100
AcDbEntity
  8
ASSEMBLY_REF_DES_BTM
100
AcDbText
 10
21792.0
 20
24078.2
 30
0.0
 40
400.000000
 41
1.000000
  1
RN2
  50
270.0
  7
ARIAL
 71
2
 72
 1
 11
22000.0
 21
24650.0
 31
0.0
100
AcDbText
 73
 2
  0
TEXT
  5
175
100
AcDbEntity
  8
ASSEMBLY_REF_DES_BTM
100
AcDbText
 10
23292.0
 20
24078.2
 30
0.0
 40
400.000000
 41
1.000000
  1
RN3
  50
270.0
  7
ARIAL
 71
2
 72
 1
 11
23500.0
 21
24650.0
 31
0.0
100
AcDbText
 73
 2
  0
TEXT
  5
176
100
AcDbEntity
  8
ASSEMBLY_REF_DES_BTM
100
AcDbText
 10
30733.4
 20
22192.0
 30
0.0
 40
400.000000
 41
1.000000
  1
C117
  7
ARIAL
 71
2
 72
 1
 11
30050.0
 21
22400.0
 31
0.0
100
AcDbText
 73
 2
  0
TEXT
  5
177
100
AcDbEntity
  8
ASSEMBLY_REF_DES_BTM
100
AcDbText
 10
14292.0
 20
2984.6
 30
0.0
 40
400.000000
 41
1.000000
  1
U5
  50
270.0
  7
ARIAL
 71
2
 72
 1
 11
14500.0
 21
3350.0
 31
0.0
100
AcDbText
 73
 2
  0
TEXT
  5
178
100
AcDbEntity
  8
ASSEMBLY_REF_DES_BTM
100
AcDbText
 10
28383.4
 20
27892.0
 30
0.0
 40
400.000000
 41
1.000000
  1
C127
  7
ARIAL
 71
2
 72
 1
 11
27700.0
 21
28100.0
 31
0.0
100
AcDbText
 73
 2
  0
TEXT
  5
179
100
AcDbEntity
  8
ASSEMBLY_REF_DES_BTM
100
AcDbText
 10
17292.0
 20
24078.2
 30
0.0
 40
400.000000
 41
1.000000
  1
RN4
  50
270.0
  7
ARIAL
 71
2
 72
 1
 11
17500.0
 21
24650.0
 31
0.0
100
AcDbText
 73
 2
  0
TEXT
  5
17A
100
AcDbEntity
  8
ASSEMBLY_REF_DES_BTM
100
AcDbText
 10
32057.0
 20
16476.4
 30
0.0
 40
400.000000
 41
1.000000
  1
Z5
  50
270.0
  7
ARIAL
 71
2
 72
 1
 11
32265.0
 21
16810.0
 31
0.0
100
AcDbText
 73
 2
  0
TEXT
  5
17B
100
AcDbEntity
  8
ASSEMBLY_REF_DES_BTM
100
AcDbText
 10
1744.113
 20
25869.122
 30
0.0
 40
400.000000
 41
1.000000
  1
C137
  50
270.0
  7
ARIAL
 71
2
 72
 1
 11
1952.113
 21
26552.522
 31
0.0
100
AcDbText
 73
 2
  0
TEXT
  5
17C
100
AcDbEntity
  8
ASSEMBLY_REF_DES_BTM
100
AcDbText
 10
18792.0
 20
24078.2
 30
0.0
 40
400.000000
 41
1.000000
  1
RN5
  50
270.0
  7
ARIAL
 71
2
 72
 1
 11
19000.0
 21
24650.0
 31
0.0
100
AcDbText
 73
 2
  0
TEXT
  5
17D
100
AcDbEntity
  8
ASSEMBLY_REF_DES_BTM
100
AcDbText
 10
12335.922
 20
20789.885
 30
0.0
 40
400.000000
 41
1.000000
  1
C157
  7
ARIAL
 71
2
 72
 1
 11
11652.522
 21
20997.885
 31
0.0
100
AcDbText
 73
 2
  0
TEXT
  5
17E
100
AcDbEntity
  8
ASSEMBLY_REF_DES_BTM
100
AcDbText
 10
16942.0
 20
3064.0
 30
0.0
 40
400.000000
 41
1.000000
  1
J10
  50
270.0
  7
ARIAL
 71
2
 72
 1
 11
17150.0
 21
3525.0
 31
0.0
100
AcDbText
 73
 2
  0
TEXT
  5
17F
100
AcDbEntity
  8
ASSEMBLY_REF_DES_BTM
100
AcDbText
 10
16886.0
 20
1242.0
 30
0.0
 40
400.000000
 41
1.000000
  1
J11
  7
ARIAL
 71
2
 72
 1
 11
16425.0
 21
1450.0
 31
0.0
100
AcDbText
 73
 2
  0
TEXT
  5
180
100
AcDbEntity
  8
ASSEMBLY_REF_DES_BTM
100
AcDbText
 10
15590.4
 20
22342.0
 30
0.0
 40
400.000000
 41
1.000000
  1
Q10
  7
ARIAL
 71
2
 72
 1
 11
15050.0
 21
22550.0
 31
0.0
100
AcDbText
 73
 2
  0
TEXT
  5
181
100
AcDbEntity
  8
ASSEMBLY_REF_DES_BTM
100
AcDbText
 10
14470.4
 20
22342.0
 30
0.0
 40
400.000000
 41
1.000000
  1
Q11
  7
ARIAL
 71
2
 72
 1
 11
13930.0
 21
22550.0
 31
0.0
100
AcDbText
 73
 2
  0
TEXT
  5
182
100
AcDbEntity
  8
ASSEMBLY_REF_DES_BTM
100
AcDbText
 10
5142.0
 20
23175.6
 30
0.0
 40
400.000000
 41
1.000000
  1
U10
  50
270.0
  7
ARIAL
 71
2
 72
 1
 11
5350.0
 21
23700.0
 31
0.0
100
AcDbText
 73
 2
  0
TEXT
  5
183
100
AcDbEntity
  8
ASSEMBLY_REF_DES_BTM
100
AcDbText
 10
8465.4
 20
12392.0
 30
0.0
 40
400.000000
 41
1.000000
  1
U7
  7
ARIAL
 71
2
 72
 1
 11
8100.0
 21
12600.0
 31
0.0
100
AcDbText
 73
 2
  0
TEXT
  5
184
100
AcDbEntity
  8
ASSEMBLY_REF_DES_BTM
100
AcDbText
 10
16161.0
 20
5492.0
 30
0.0
 40
400.000000
 41
1.000000
  1
J13
  7
ARIAL
 71
2
 72
 1
 11
15700.0
 21
5700.0
 31
0.0
100
AcDbText
 73
 2
  0
TEXT
  5
185
100
AcDbEntity
  8
ASSEMBLY_REF_DES_BTM
100
AcDbText
 10
9792.0
 20
6275.6
 30
0.0
 40
400.000000
 41
1.000000
  1
U11
  50
270.0
  7
ARIAL
 71
2
 72
 1
 11
10000.0
 21
6800.0
 31
0.0
100
AcDbText
 73
 2
  0
TEXT
  5
186
100
AcDbEntity
  8
ASSEMBLY_REF_DES_BTM
100
AcDbText
 10
24792.0
 20
20039.0
 30
0.0
 40
400.000000
 41
1.000000
  1
J14
  50
270.0
  7
ARIAL
 71
2
 72
 1
 11
25000.0
 21
20500.0
 31
0.0
100
AcDbText
 73
 2
  0
TEXT
  5
187
100
AcDbEntity
  8
ASSEMBLY_REF_DES_BTM
100
AcDbText
 10
23508.6
 20
4917.0
 30
0.0
 40
400.000000
 41
1.000000
  1
X11
  7
ARIAL
 71
2
 72
 1
 11
23000.0
 21
5125.0
 31
0.0
100
AcDbText
 73
 2
  0
TEXT
  5
188
100
AcDbEntity
  8
ASSEMBLY_REF_DES_BTM
100
AcDbText
 10
31092.0
 20
11573.0
 30
0.0
 40
400.000000
 41
1.000000
  1
L14
  50
270.0
  7
ARIAL
 71
2
 72
 1
 11
31300.0
 21
12050.0
 31
0.0
100
AcDbText
 73
 2
  0
TEXT
  5
189
100
AcDbEntity
  8
ASSEMBLY_REF_DES_BTM
100
AcDbText
 10
29474.4
 20
23892.0
 30
0.0
 40
400.000000
 41
1.000000
  1
U12
  7
ARIAL
 71
2
 72
 1
 11
28950.0
 21
24100.0
 31
0.0
100
AcDbText
 73
 2
  0
TEXT
  5
18A
100
AcDbEntity
  8
ASSEMBLY_REF_DES_BTM
100
AcDbText
 10
23892.0
 20
20039.0
 30
0.0
 40
400.000000
 41
1.000000
  1
J15
  50
270.0
  7
ARIAL
 71
2
 72
 1
 11
24100.0
 21
20500.0
 31
0.0
100
AcDbText
 73
 2
  0
TEXT
  5
18B
100
AcDbEntity
  8
ASSEMBLY_REF_DES_BTM
100
AcDbText
 10
4292.0
 20
9325.6
 30
0.0
 40
400.000000
 41
1.000000
  1
R14
  50
270.0
  7
ARIAL
 71
2
 72
 1
 11
4500.0
 21
9850.0
 31
0.0
100
AcDbText
 73
 2
  0
TEXT
  5
18C
100
AcDbEntity
  8
ASSEMBLY_REF_DES_BTM
100
AcDbText
 10
29542.0
 20
11525.6
 30
0.0
 40
400.000000
 41
1.000000
  1
C18
  50
270.0
  7
ARIAL
 71
2
 72
 1
 11
29750.0
 21
12050.0
 31
0.0
100
AcDbText
 73
 2
  0
TEXT
  5
18D
100
AcDbEntity
  8
ASSEMBLY_REF_DES_BTM
100
AcDbText
 10
17742.0
 20
9775.6
 30
0.0
 40
400.000000
 41
1.000000
  1
U14
  50
270.0
  7
ARIAL
 71
2
 72
 1
 11
17950.0
 21
10300.0
 31
0.0
100
AcDbText
 73
 2
  0
TEXT
  5
18E
100
AcDbEntity
  8
ASSEMBLY_REF_DES_BTM
100
AcDbText
 10
14742.0
 20
20239.0
 30
0.0
 40
400.000000
 41
1.000000
  1
J19
  50
270.0
  7
ARIAL
 71
2
 72
 1
 11
14950.0
 21
20700.0
 31
0.0
100
AcDbText
 73
 2
  0
TEXT
  5
18F
100
AcDbEntity
  8
ASSEMBLY_REF_DES_BTM
100
AcDbText
 10
6992.476
 20
6427.113
 30
0.0
 40
400.000000
 41
1.000000
  1
L21
  7
ARIAL
 71
2
 72
 1
 11
6515.476
 21
6635.113
 31
0.0
100
AcDbText
 73
 2
  0
TEXT
  5
190
100
AcDbEntity
  8
ASSEMBLY_REF_DES_BTM
100
AcDbText
 10
19281.4
 20
13792.0
 30
0.0
 40
400.000000
 41
1.000000
  1
Q8
  7
ARIAL
 71
2
 72
 1
 11
18900.0
 21
14000.0
 31
0.0
100
AcDbText
 73
 2
  0
TEXT
  5
191
100
AcDbEntity
  8
ASSEMBLY_REF_DES_BTM
100
AcDbText
 10
8694.113
 20
20525.522
 30
0.0
 40
400.000000
 41
1.000000
  1
L22
  50
270.0
  7
ARIAL
 71
2
 72
 1
 11
8902.113
 21
21002.522
 31
0.0
100
AcDbText
 73
 2
  0
TEXT
  5
192
100
AcDbEntity
  8
ASSEMBLY_REF_DES_BTM
100
AcDbText
 10
12087.0
 20
16549.6
 30
0.0
 40
400.000000
 41
1.000000
  1
U8
  50
270.0
  7
ARIAL
 71
2
 72
 1
 11
12295.0
 21
16915.0
 31
0.0
100
AcDbText
 73
 2
  0
TEXT
  5
193
100
AcDbEntity
  8
ASSEMBLY_REF_DES_BTM
100
AcDbText
 10
27429.522
 20
20439.885
 30
0.0
 40
400.000000
 41
1.000000
  1
L23
  7
ARIAL
 71
2
 72
 1
 11
26952.522
 21
20647.885
 31
0.0
100
AcDbText
 73
 2
  0
TEXT
  5
194
100
AcDbEntity
  8
ASSEMBLY_REF_DES_BTM
100
AcDbText
 10
13244.113
 20
5925.522
 30
0.0
 40
400.000000
 41
1.000000
  1
L24
  50
270.0
  7
ARIAL
 71
2
 72
 1
 11
13452.113
 21
6402.522
 31
0.0
100
AcDbText
 73
 2
  0
TEXT
  5
195
100
AcDbEntity
  8
ASSEMBLY_REF_DES_BTM
100
AcDbText
 10
30942.0
 20
9975.6
 30
0.0
 40
400.000000
 41
1.000000
  1
R23
  50
270.0
  7
ARIAL
 71
2
 72
 1
 11
31150.0
 21
10500.0
 31
0.0
100
AcDbText
 73
 2
  0
TEXT
  5
196
100
AcDbEntity
  8
ASSEMBLY_REF_DES_BTM
100
AcDbText
 10
12983.4
 20
18492.0
 30
0.0
 40
400.000000
 41
1.000000
  1
C100
  7
ARIAL
 71
2
 72
 1
 11
12300.0
 21
18700.0
 31
0.0
100
AcDbText
 73
 2
  0
TEXT
  5
197
100
AcDbEntity
  8
ASSEMBLY_REF_DES_BTM
100
AcDbText
 10
30733.4
 20
25642.0
 30
0.0
 40
400.000000
 41
1.000000
  1
C120
  7
ARIAL
 71
2
 72
 1
 11
30050.0
 21
25850.0
 31
0.0
100
AcDbText
 73
 2
  0
TEXT
  5
198
100
AcDbEntity
  8
ASSEMBLY_REF_DES_BTM
100
AcDbText
 10
1192.0
 20
10266.6
 30
0.0
 40
400.000000
 41
1.000000
  1
C108
  50
270.0
  7
ARIAL
 71
2
 72
 1
 11
1400.0
 21
10950.0
 31
0.0
100
AcDbText
 73
 2
  0
TEXT
  5
199
100
AcDbEntity
  8
ASSEMBLY_REF_DES_BTM
100
AcDbText
 10
21331.4
 20
13842.0
 30
0.0
 40
400.000000
 41
1.000000
  1
Q9
  7
ARIAL
 71
2
 72
 1
 11
20950.0
 21
14050.0
 31
0.0
100
AcDbText
 73
 2
  0
TEXT
  5
19A
100
AcDbEntity
  8
ASSEMBLY_REF_DES_BTM
100
AcDbText
 10
28383.4
 20
28642.0
 30
0.0
 40
400.000000
 41
1.000000
  1
C118
  7
ARIAL
 71
2
 72
 1
 11
27700.0
 21
28850.0
 31
0.0
100
AcDbText
 73
 2
  0
TEXT
  5
19B
100
AcDbEntity
  8
ASSEMBLY_REF_DES_BTM
100
AcDbText
 10
7089.885
 20
7864.076
 30
0.0
 40
400.000000
 41
1.000000
  1
C140
  50
270.0
  7
ARIAL
 71
2
 72
 1
 11
7297.885
 21
8547.476
 31
0.0
100
AcDbText
 73
 2
  0
TEXT
  5
19C
100
AcDbEntity
  8
ASSEMBLY_REF_DES_BTM
100
AcDbText
 10
3415.4
 20
12392.0
 30
0.0
 40
400.000000
 41
1.000000
  1
U9
  7
ARIAL
 71
2
 72
 1
 11
3050.0
 21
12600.0
 31
0.0
100
AcDbText
 73
 2
  0
TEXT
  5
19D
100
AcDbEntity
  8
ASSEMBLY_REF_DES_BTM
100
AcDbText
 10
17349.6
 20
28442.0
 30
0.0
 40
400.000000
 41
1.000000
  1
X9
  7
ARIAL
 71
2
 72
 1
 11
17000.0
 21
28650.0
 31
0.0
100
AcDbText
 73
 2
  0
TEXT
  5
19E
100
AcDbEntity
  8
ASSEMBLY_REF_DES_BTM
100
AcDbText
 10
5892.0
 20
7266.6
 30
0.0
 40
400.000000
 41
1.000000
  1
C128
  50
270.0
  7
ARIAL
 71
2
 72
 1
 11
6100.0
 21
7950.0
 31
0.0
100
AcDbText
 73
 2
  0
TEXT
  5
19F
100
AcDbEntity
  8
ASSEMBLY_REF_DES_BTM
100
AcDbText
 10
30380.876
 20
20444.113
 30
0.0
 40
400.000000
 41
1.000000
  1
C138
  7
ARIAL
 71
2
 72
 1
 11
29697.476
 21
20652.113
 31
0.0
100
AcDbText
 73
 2
  0
TEXT
  5
1A0
100
AcDbEntity
  8
ASSEMBLY_REF_DES_BTM
100
AcDbText
 10
8033.4
 20
22692.0
 30
0.0
 40
400.000000
 41
1.000000
  1
C160
  7
ARIAL
 71
2
 72
 1
 11
7350.0
 21
22900.0
 31
0.0
100
AcDbText
 73
 2
  0
TEXT
  5
1A1
100
AcDbEntity
  8
ASSEMBLY_REF_DES_BTM
100
AcDbText
 10
27474.4
 20
10492.0
 30
0.0
 40
400.000000
 41
1.000000
  1
R33
  7
ARIAL
 71
2
 72
 1
 11
26950.0
 21
10700.0
 31
0.0
100
AcDbText
 73
 2
  0
TEXT
  5
1A2
100
AcDbEntity
  8
ASSEMBLY_REF_DES_BTM
100
AcDbText
 10
2792.0
 20
9325.6
 30
0.0
 40
400.000000
 41
1.000000
  1
R36
  50
270.0
  7
ARIAL
 71
2
 72
 1
 11
3000.0
 21
9850.0
 31
0.0
100
AcDbText
 73
 2
  0
TEXT
  5
1A3
100
AcDbEntity
  8
ASSEMBLY_REF_DES_BTM
100
AcDbText
 10
14042.0
 20
17225.6
 30
0.0
 40
400.000000
 41
1.000000
  1
R37
  50
270.0
  7
ARIAL
 71
2
 72
 1
 11
14250.0
 21
17750.0
 31
0.0
100
AcDbText
 73
 2
  0
TEXT
  5
1A4
100
AcDbEntity
  8
ASSEMBLY_REF_DES_BTM
100
AcDbText
 10
14042.0
 20
15725.6
 30
0.0
 40
400.000000
 41
1.000000
  1
R38
  50
270.0
  7
ARIAL
 71
2
 72
 1
 11
14250.0
 21
16250.0
 31
0.0
100
AcDbText
 73
 2
  0
TEXT
  5
1A5
100
AcDbEntity
  8
ASSEMBLY_REF_DES_BTM
100
AcDbText
 10
10042.0
 20
10775.6
 30
0.0
 40
400.000000
 41
1.000000
  1
R41
  50
270.0
  7
ARIAL
 71
2
 72
 1
 11
10250.0
 21
11300.0
 31
0.0
100
AcDbText
 73
 2
  0
TEXT
  5
1A6
100
AcDbEntity
  8
ASSEMBLY_REF_DES_BTM
100
AcDbText
 10
10574.4
 20
17892.0
 30
0.0
 40
400.000000
 41
1.000000
  1
R43
  7
ARIAL
 71
2
 72
 1
 11
10050.0
 21
18100.0
 31
0.0
100
AcDbText
 73
 2
  0
TEXT
  5
1A7
100
AcDbEntity
  8
ASSEMBLY_REF_DES_BTM
100
AcDbText
 10
10574.4
 20
15642.0
 30
0.0
 40
400.000000
 41
1.000000
  1
R44
  7
ARIAL
 71
2
 72
 1
 11
10050.0
 21
15850.0
 31
0.0
100
AcDbText
 73
 2
  0
TEXT
  5
1A8
100
AcDbEntity
  8
ASSEMBLY_REF_DES_BTM
100
AcDbText
 10
4942.0
 20
12075.6
 30
0.0
 40
400.000000
 41
1.000000
  1
R45
  50
270.0
  7
ARIAL
 71
2
 72
 1
 11
5150.0
 21
12600.0
 31
0.0
100
AcDbText
 73
 2
  0
TEXT
  5
1A9
100
AcDbEntity
  8
ASSEMBLY_REF_DES_BTM
100
AcDbText
 10
17742.0
 20
13475.6
 30
0.0
 40
400.000000
 41
1.000000
  1
R47
  50
270.0
  7
ARIAL
 71
2
 72
 1
 11
17950.0
 21
14000.0
 31
0.0
100
AcDbText
 73
 2
  0
TEXT
  5
1AA
100
AcDbEntity
  8
ASSEMBLY_REF_DES_BTM
100
AcDbText
 10
13124.4
 20
22692.0
 30
0.0
 40
400.000000
 41
1.000000
  1
R50
  7
ARIAL
 71
2
 72
 1
 11
12600.0
 21
22900.0
 31
0.0
100
AcDbText
 73
 2
  0
TEXT
  5
1AB
100
AcDbEntity
  8
ASSEMBLY_REF_DES_BTM
100
AcDbText
 10
19792.0
 20
13525.6
 30
0.0
 40
400.000000
 41
1.000000
  1
R48
  50
270.0
  7
ARIAL
 71
2
 72
 1
 11
20000.0
 21
14050.0
 31
0.0
100
AcDbText
 73
 2
  0
TEXT
  5
1AC
100
AcDbEntity
  8
ASSEMBLY_REF_DES_BTM
100
AcDbText
 10
12142.0
 20
3825.6
 30
0.0
 40
400.000000
 41
1.000000
  1
C54
  50
270.0
  7
ARIAL
 71
2
 72
 1
 11
12350.0
 21
4350.0
 31
0.0
100
AcDbText
 73
 2
  0
TEXT
  5
1AD
100
AcDbEntity
  8
ASSEMBLY_REF_DES_BTM
100
AcDbText
 10
13124.4
 20
23442.0
 30
0.0
 40
400.000000
 41
1.000000
  1
R51
  7
ARIAL
 71
2
 72
 1
 11
12600.0
 21
23650.0
 31
0.0
100
AcDbText
 73
 2
  0
TEXT
  5
1AE
100
AcDbEntity
  8
ASSEMBLY_REF_DES_BTM
100
AcDbText
 10
15774.4
 20
23242.0
 30
0.0
 40
400.000000
 41
1.000000
  1
R49
  7
ARIAL
 71
2
 72
 1
 11
15250.0
 21
23450.0
 31
0.0
100
AcDbText
 73
 2
  0
TEXT
  5
1AF
100
AcDbEntity
  8
ASSEMBLY_REF_DES_BTM
100
AcDbText
 10
29592.0
 20
6925.6
 30
0.0
 40
400.000000
 41
1.000000
  1
C55
  50
270.0
  7
ARIAL
 71
2
 72
 1
 11
29800.0
 21
7450.0
 31
0.0
100
AcDbText
 73
 2
  0
TEXT
  5
1B0
100
AcDbEntity
  8
ASSEMBLY_REF_DES_BTM
100
AcDbText
 10
13792.0
 20
24025.6
 30
0.0
 40
400.000000
 41
1.000000
  1
R52
  50
270.0
  7
ARIAL
 71
2
 72
 1
 11
14000.0
 21
24550.0
 31
0.0
100
AcDbText
 73
 2
  0
TEXT
  5
1B1
100
AcDbEntity
  8
ASSEMBLY_REF_DES_BTM
100
AcDbText
 10
30792.0
 20
16325.6
 30
0.0
 40
400.000000
 41
1.000000
  1
C56
  50
270.0
  7
ARIAL
 71
2
 72
 1
 11
31000.0
 21
16850.0
 31
0.0
100
AcDbText
 73
 2
  0
TEXT
  5
1B2
100
AcDbEntity
  8
ASSEMBLY_REF_DES_BTM
100
AcDbText
 10
10574.4
 20
17142.0
 30
0.0
 40
400.000000
 41
1.000000
  1
R53
  7
ARIAL
 71
2
 72
 1
 11
10050.0
 21
17350.0
 31
0.0
100
AcDbText
 73
 2
  0
TEXT
  5
1B3
100
AcDbEntity
  8
ASSEMBLY_REF_DES_BTM
100
AcDbText
 10
10574.4
 20
16392.0
 30
0.0
 40
400.000000
 41
1.000000
  1
R54
  7
ARIAL
 71
2
 72
 1
 11
10050.0
 21
16600.0
 31
0.0
100
AcDbText
 73
 2
  0
TEXT
  5
1B4
100
AcDbEntity
  8
ASSEMBLY_REF_DES_BTM
100
AcDbText
 10
12824.4
 20
19292.0
 30
0.0
 40
400.000000
 41
1.000000
  1
R55
  7
ARIAL
 71
2
 72
 1
 11
12300.0
 21
19500.0
 31
0.0
100
AcDbText
 73
 2
  0
TEXT
  5
1B5
100
AcDbEntity
  8
ASSEMBLY_REF_DES_BTM
100
AcDbText
 10
2142.0
 20
16775.6
 30
0.0
 40
400.000000
 41
1.000000
  1
C61
  50
270.0
  7
ARIAL
 71
2
 72
 1
 11
2350.0
 21
17300.0
 31
0.0
100
AcDbText
 73
 2
  0
TEXT
  5
1B6
100
AcDbEntity
  8
ASSEMBLY_REF_DES_TOP
100
AcDbText
 10
16919.122
 20
12394.113
 30
0.0
 40
400.000000
 41
1.000000
  1
C141
  7
ARIAL
 72
 1
 11
17602.522
 21
12602.113
 31
0.0
100
AcDbText
 73
 2
  0
TEXT
  5
1B7
100
AcDbEntity
  8
ASSEMBLY_REF_DES_TOP
100
AcDbText
 10
12442.0
 20
14733.4
 30
0.0
 40
400.000000
 41
1.000000
  1
C129
  50
270.0
  7
ARIAL
 72
 1
 11
12650.0
 21
14050.0
 31
0.0
100
AcDbText
 73
 2
  0
TEXT
  5
1B8
100
AcDbEntity
  8
ASSEMBLY_REF_DES_TOP
100
AcDbText
 10
22594.113
 20
22430.876
 30
0.0
 40
400.000000
 41
1.000000
  1
C151
  50
270.0
  7
ARIAL
 72
 1
 11
22802.113
 21
21747.476
 31
0.0
100
AcDbText
 73
 2
  0
TEXT
  5
1B9
100
AcDbEntity
  8
ASSEMBLY_REF_DES_TOP
100
AcDbText
 10
11444.113
 20
19080.876
 30
0.0
 40
400.000000
 41
1.000000
  1
C149
  50
270.0
  7
ARIAL
 72
 1
 11
11652.113
 21
18397.476
 31
0.0
100
AcDbText
 73
 2
  0
TEXT
  5
1BA
100
AcDbEntity
  8
ASSEMBLY_REF_DES_TOP
100
AcDbText
 10
19925.6
 20
13342.0
 30
0.0
 40
400.000000
 41
1.000000
  1
C92
  7
ARIAL
 72
 1
 11
20450.0
 21
13550.0
 31
0.0
100
AcDbText
 73
 2
  0
TEXT
  5
1BB
100
AcDbEntity
  8
ASSEMBLY_REF_DES_TOP
100
AcDbText
 10
19925.6
 20
12592.0
 30
0.0
 40
400.000000
 41
1.000000
  1
C96
  7
ARIAL
 72
 1
 11
20450.0
 21
12800.0
 31
0.0
100
AcDbText
 73
 2
  0
TEXT
  5
1BC
100
AcDbEntity
  8
ASSEMBLY_REF_DES_TOP
100
AcDbText
 10
17516.6
 20
13342.0
 30
0.0
 40
400.000000
 41
1.000000
  1
C122
  7
ARIAL
 72
 1
 11
18200.0
 21
13550.0
 31
0.0
100
AcDbText
 73
 2
  0
TEXT
  5
1BD
100
AcDbEntity
  8
ASSEMBLY_REF_DES_TOP
100
AcDbText
 10
22492.0
 20
13283.4
 30
0.0
 40
400.000000
 41
1.000000
  1
C132
  50
270.0
  7
ARIAL
 72
 1
 11
22700.0
 21
12600.0
 31
0.0
100
AcDbText
 73
 2
  0
TEXT
  5
1BE
100
AcDbEntity
  8
ASSEMBLY_REF_DES_TOP
100
AcDbText
 10
11519.122
 20
12394.113
 30
0.0
 40
400.000000
 41
1.000000
  1
C142
  7
ARIAL
 72
 1
 11
12202.522
 21
12602.113
 31
0.0
100
AcDbText
 73
 2
  0
TEXT
  5
1BF
100
AcDbEntity
  8
ASSEMBLY_REF_DES_TOP
100
AcDbText
 10
13116.6
 20
13342.0
 30
0.0
 40
400.000000
 41
1.000000
  1
C123
  7
ARIAL
 72
 1
 11
13800.0
 21
13550.0
 31
0.0
100
AcDbText
 73
 2
  0
TEXT
  5
1C0
100
AcDbEntity
  8
ASSEMBLY_REF_DES_TOP
100
AcDbText
 10
21444.113
 20
22430.876
 30
0.0
 40
400.000000
 41
1.000000
  1
C143
  50
270.0
  7
ARIAL
 72
 1
 11
21652.113
 21
21747.476
 31
0.0
100
AcDbText
 73
 2
  0
TEXT
  5
1C1
100
AcDbEntity
  8
ASSEMBLY_REF_DES_TOP
100
AcDbText
 10
13864.076
 20
22289.885
 30
0.0
 40
400.000000
 41
1.000000
  1
C144
  7
ARIAL
 72
 1
 11
14547.476
 21
22497.885
 31
0.0
100
AcDbText
 73
 2
  0
TEXT
  5
1C2
100
AcDbEntity
  8
ASSEMBLY_REF_DES_TOP
100
AcDbText
 10
14269.122
 20
12394.113
 30
0.0
 40
400.000000
 41
1.000000
  1
C145
  7
ARIAL
 72
 1
 11
14952.522
 21
12602.113
 31
0.0
100
AcDbText
 73
 2
  0
TEXT
  5
1C3
100
AcDbEntity
  8
ASSEMBLY_REF_DES_TOP
100
AcDbText
 10
7340.048
 20
3336.973
 30
0.0
 40
400.000000
 41
1.000000
  1
Z1
  7
ARIAL
 72
 1
 11
7673.648
 21
3544.973
 31
0.0
100
AcDbText
 73
 2
  0
TEXT
  5
1C4
100
AcDbEntity
  8
ASSEMBLY_REF_DES_TOP
100
AcDbText
 10
2650.4
 20
30791.999
 30
0.0
 40
400.000000
 41
1.000000
  1
X3
  7
ARIAL
 72
 1
 11
3000.0
 21
30999.999
 31
0.0
100
AcDbText
 73
 2
  0
TEXT
  5
1C5
100
AcDbEntity
  8
ASSEMBLY_REF_DES_TOP
100
AcDbText
 10
26416.4
 20
29892.0
 30
0.0
 40
400.000000
 41
1.000000
  1
Z3
  7
ARIAL
 72
 1
 11
26750.0
 21
30100.0
 31
0.0
100
AcDbText
 73
 2
  0
TEXT
  5
1C6
100
AcDbEntity
  8
ASSEMBLY_REF_DES_TOP
100
AcDbText
 10
30650.4
 20
30791.999
 30
0.0
 40
400.000000
 41
1.000000
  1
X4
  7
ARIAL
 72
 1
 11
31000.0
 21
30999.999
 31
0.0
100
AcDbText
 73
 2
  0
TEXT
  5
1C7
100
AcDbEntity
  8
ASSEMBLY_REF_DES_TOP
100
AcDbText
 10
2650.4
 20
2791.999
 30
0.0
 40
400.000000
 41
1.000000
  1
X5
  7
ARIAL
 72
 1
 11
3000.0
 21
2999.999
 31
0.0
100
AcDbText
 73
 2
  0
TEXT
  5
1C8
100
AcDbEntity
  8
ASSEMBLY_REF_DES_TOP
100
AcDbText
 10
19869.122
 20
11644.113
 30
0.0
 40
400.000000
 41
1.000000
  1
C147
  7
ARIAL
 72
 1
 11
20552.522
 21
11852.113
 31
0.0
100
AcDbText
 73
 2
  0
TEXT
  5
1C9
100
AcDbEntity
  8
ASSEMBLY_REF_DES_TOP
100
AcDbText
 10
30650.4
 20
2791.999
 30
0.0
 40
400.000000
 41
1.000000
  1
X6
  7
ARIAL
 72
 1
 11
31000.0
 21
2999.999
 31
0.0
100
AcDbText
 73
 2
  0
TEXT
  5
1CA
100
AcDbEntity
  8
ASSEMBLY_REF_DES_TOP
100
AcDbText
 10
5650.4
 20
16791.999
 30
0.0
 40
400.000000
 41
1.000000
  1
X7
  7
ARIAL
 72
 1
 11
6000.0
 21
16999.999
 31
0.0
100
AcDbText
 73
 2
  0
TEXT
  5
1CB
100
AcDbEntity
  8
ASSEMBLY_REF_DES_TOP
100
AcDbText
 10
17746.6
 20
16940.0
 30
0.0
 40
400.000000
 41
1.000000
  1
U13
  7
ARIAL
 72
 1
 11
18271.0
 21
17148.0
 31
0.0
100
AcDbText
 73
 2
  0
TEXT
  5
1CC
100
AcDbEntity
  8
ASSEMBLY_REF_DES_TOP
100
AcDbText
 10
16225.6
 20
13342.0
 30
0.0
 40
400.000000
 41
1.000000
  1
C22
  7
ARIAL
 72
 1
 11
16750.0
 21
13550.0
 31
0.0
100
AcDbText
 73
 2
  0
TEXT
  5
1CD
100
AcDbEntity
  8
ASSEMBLY_REF_DES_TOP
100
AcDbText
 10
14025.6
 20
20592.0
 30
0.0
 40
400.000000
 41
1.000000
  1
C23
  7
ARIAL
 72
 1
 11
14550.0
 21
20800.0
 31
0.0
100
AcDbText
 73
 2
  0
TEXT
  5
1CE
100
AcDbEntity
  8
ASSEMBLY_REF_DES_TOP
100
AcDbText
 10
20492.0
 20
21674.4
 30
0.0
 40
400.000000
 41
1.000000
  1
C24
  50
270.0
  7
ARIAL
 72
 1
 11
20700.0
 21
21150.0
 31
0.0
100
AcDbText
 73
 2
  0
TEXT
  5
1CF
100
AcDbEntity
  8
ASSEMBLY_REF_DES_TOP
100
AcDbText
 10
27650.4
 20
16791.999
 30
0.0
 40
400.000000
 41
1.000000
  1
X8
  7
ARIAL
 72
 1
 11
28000.0
 21
16999.999
 31
0.0
100
AcDbText
 73
 2
  0
TEXT
  5
1D0
100
AcDbEntity
  8
ASSEMBLY_REF_DES_TOP
100
AcDbText
 10
16342.0
 20
21674.4
 30
0.0
 40
400.000000
 41
1.000000
  1
C27
  50
270.0
  7
ARIAL
 72
 1
 11
16550.0
 21
21150.0
 31
0.0
100
AcDbText
 73
 2
  0
TEXT
  5
1D1
100
AcDbEntity
  8
ASSEMBLY_REF_DES_TOP
100
AcDbText
 10
11775.6
 20
16492.0
 30
0.0
 40
400.000000
 41
1.000000
  1
C28
  7
ARIAL
 72
 1
 11
12300.0
 21
16700.0
 31
0.0
100
AcDbText
 73
 2
  0
TEXT
  5
1D2
100
AcDbEntity
  8
ASSEMBLY_REF_DES_TOP
100
AcDbText
 10
19142.0
 20
13883.4
 30
0.0
 40
400.000000
 41
1.000000
  1
C130
  50
270.0
  7
ARIAL
 72
 1
 11
19350.0
 21
13200.0
 31
0.0
100
AcDbText
 73
 2
  0
TEXT
  5
1D3
100
AcDbEntity
  8
ASSEMBLY_REF_DES_TOP
100
AcDbText
 10
11439.885
 20
15635.922
 30
0.0
 40
400.000000
 41
1.000000
  1
C150
  50
270.0
  7
ARIAL
 72
 1
 11
11647.885
 21
14952.522
 31
0.0
100
AcDbText
 73
 2
  0
TEXT
  5
1D4
100
AcDbEntity
  8
ASSEMBLY_REF_DES_TOP
100
AcDbText
 10
17569.122
 20
22094.113
 30
0.0
 40
400.000000
 41
1.000000
  1
C148
  7
ARIAL
 72
 1
 11
18252.522
 21
22302.113
 31
0.0
100
AcDbText
 73
 2
  0
TEXT
  5
1D5
100
AcDbEntity
  8
ASSEMBLY_REF_DES_TOP
100
AcDbText
 10
19825.6
 20
22192.0
 30
0.0
 40
400.000000
 41
1.000000
  1
C40
  7
ARIAL
 72
 1
 11
20350.0
 21
22400.0
 31
0.0
100
AcDbText
 73
 2
  0
TEXT
  5
1D6
100
AcDbEntity
  8
ASSEMBLY_REF_DES_TOP
100
AcDbText
 10
14775.6
 20
13342.0
 30
0.0
 40
400.000000
 41
1.000000
  1
C38
  7
ARIAL
 72
 1
 11
15300.0
 21
13550.0
 31
0.0
100
AcDbText
 73
 2
  0
TEXT
  5
1D7
100
AcDbEntity
  8
ASSEMBLY_REF_DES_TOP
100
AcDbText
 10
12442.0
 20
16074.4
 30
0.0
 40
400.000000
 41
1.000000
  1
C41
  50
270.0
  7
ARIAL
 72
 1
 11
12650.0
 21
15550.0
 31
0.0
100
AcDbText
 73
 2
  0
TEXT
  5
1D8
100
AcDbEntity
  8
ASSEMBLY_REF_DES_TOP
100
AcDbText
 10
14025.6
 20
21342.0
 30
0.0
 40
400.000000
 41
1.000000
  1
C39
  7
ARIAL
 72
 1
 11
14550.0
 21
21550.0
 31
0.0
100
AcDbText
 73
 2
  0
TEXT
  5
1D9
100
AcDbEntity
  8
ASSEMBLY_REF_DES_TOP
100
AcDbText
 10
23542.0
 20
21674.4
 30
0.0
 40
400.000000
 41
1.000000
  1
C42
  50
270.0
  7
ARIAL
 72
 1
 11
23750.0
 21
21150.0
 31
0.0
100
AcDbText
 73
 2
  0
TEXT
  5
1DA
100
AcDbEntity
  8
ASSEMBLY_REF_DES_TOP
100
AcDbText
 10
19742.0
 20
21774.4
 30
0.0
 40
400.000000
 41
1.000000
  1
C43
  50
270.0
  7
ARIAL
 72
 1
 11
19950.0
 21
21250.0
 31
0.0
100
AcDbText
 73
 2
  0
TEXT
  5
1DB
100
AcDbEntity
  8
ASSEMBLY_REF_DES_TOP
100
AcDbText
 10
12442.0
 20
18324.4
 30
0.0
 40
400.000000
 41
1.000000
  1
C44
  50
270.0
  7
ARIAL
 72
 1
 11
12650.0
 21
17800.0
 31
0.0
100
AcDbText
 73
 2
  0
LWPOLYLINE
  5
1DC
100
AcDbEntity
  8
BOARD_OUTLINE
100
AcDbPolyline
 90
        4
 70
         1
 43
0.0
 10
0.0
 20
0.0
 10
0.0
 20
34000.0
 10
34000.0
 20
34000.0
 10
34000.0
 20
0.0
  0
CIRCLE
  5
1DD
100
AcDbEntity
  8
PART_HOLES_LAYER_TOP
100
AcDbCircle
 10
3000.0
 20
31000.0
 30
0.0
 40
1350.0
  0
HATCH
  5
1DE
100
AcDbEntity
  8
PART_HOLES_LAYER_TOP
100
AcDbHatch
 10
0.0
 20
0.0
 30
0.0
 210
0.0
 220
0.0
 230
1.0
  2
SOLID
 70
         1
 71
        1
 91
        1
  92
     1
  93
     1
 72
     2
 10
3000.0
 20
31000.0
  40
1350.0
  50
     0.0
  51
     360.0
 73
     0
  97
     1
  330
    477
 75
     0
 76
     1
  98
     1
 10
0.0
 20
0.0
  0
CIRCLE
  5
1DF
100
AcDbEntity
  8
PART_HOLES_LAYER_TOP
100
AcDbCircle
 10
31000.0
 20
31000.0
 30
0.0
 40
1350.0
  0
HATCH
  5
1E0
100
AcDbEntity
  8
PART_HOLES_LAYER_TOP
100
AcDbHatch
 10
0.0
 20
0.0
 30
0.0
 210
0.0
 220
0.0
 230
1.0
  2
SOLID
 70
         1
 71
        1
 91
        1
  92
     1
  93
     1
 72
     2
 10
31000.0
 20
31000.0
  40
1350.0
  50
     0.0
  51
     360.0
 73
     0
  97
     1
  330
    479
 75
     0
 76
     1
  98
     1
 10
0.0
 20
0.0
  0
CIRCLE
  5
1E1
100
AcDbEntity
  8
PART_HOLES_LAYER_TOP
100
AcDbCircle
 10
3000.0
 20
3000.0
 30
0.0
 40
1350.0
  0
HATCH
  5
1E2
100
AcDbEntity
  8
PART_HOLES_LAYER_TOP
100
AcDbHatch
 10
0.0
 20
0.0
 30
0.0
 210
0.0
 220
0.0
 230
1.0
  2
SOLID
 70
         1
 71
        1
 91
        1
  92
     1
  93
     1
 72
     2
 10
3000.0
 20
3000.0
  40
1350.0
  50
     0.0
  51
     360.0
 73
     0
  97
     1
  330
    481
 75
     0
 76
     1
  98
     1
 10
0.0
 20
0.0
  0
CIRCLE
  5
1E3
100
AcDbEntity
  8
PART_HOLES_LAYER_TOP
100
AcDbCircle
 10
31000.0
 20
3000.0
 30
0.0
 40
1350.0
  0
HATCH
  5
1E4
100
AcDbEntity
  8
PART_HOLES_LAYER_TOP
100
AcDbHatch
 10
0.0
 20
0.0
 30
0.0
 210
0.0
 220
0.0
 230
1.0
  2
SOLID
 70
         1
 71
        1
 91
        1
  92
     1
  93
     1
 72
     2
 10
31000.0
 20
3000.0
  40
1350.0
  50
     0.0
  51
     360.0
 73
     0
  97
     1
  330
    483
 75
     0
 76
     1
  98
     1
 10
0.0
 20
0.0
  0
CIRCLE
  5
1E5
100
AcDbEntity
  8
PART_HOLES_LAYER_TOP
100
AcDbCircle
 10
6000.0
 20
17000.0
 30
0.0
 40
1300.0
  0
HATCH
  5
1E6
100
AcDbEntity
  8
PART_HOLES_LAYER_TOP
100
AcDbHatch
 10
0.0
 20
0.0
 30
0.0
 210
0.0
 220
0.0
 230
1.0
  2
SOLID
 70
         1
 71
        1
 91
        1
  92
     1
  93
     1
 72
     2
 10
6000.0
 20
17000.0
  40
1300.0
  50
     0.0
  51
     360.0
 73
     0
  97
     1
  330
    485
 75
     0
 76
     1
  98
     1
 10
0.0
 20
0.0
  0
CIRCLE
  5
1E7
100
AcDbEntity
  8
PART_HOLES_LAYER_TOP
100
AcDbCircle
 10
28000.0
 20
17000.0
 30
0.0
 40
1300.0
  0
HATCH
  5
1E8
100
AcDbEntity
  8
PART_HOLES_LAYER_TOP
100
AcDbHatch
 10
0.0
 20
0.0
 30
0.0
 210
0.0
 220
0.0
 230
1.0
  2
SOLID
 70
         1
 71
        1
 91
        1
  92
     1
  93
     1
 72
     2
 10
28000.0
 20
17000.0
  40
1300.0
  50
     0.0
  51
     360.0
 73
     0
  97
     1
  330
    487
 75
     0
 76
     1
  98
     1
 10
0.0
 20
0.0
  0
LWPOLYLINE
  5
1E9
100
AcDbEntity
  8
PART_PADS_SMD_BTM
100
AcDbPolyline
 90
        4
 70
         1
 43
0.0
 10
10448.0
 20
23239.0
 10
10448.0
 20
23639.0
 10
10948.0
 20
23639.0
 10
10948.0
 20
23239.0
  0
LWPOLYLINE
  5
1EA
100
AcDbEntity
  8
PART_PADS_SMD_BTM
100
AcDbPolyline
 90
        4
 70
         1
 43
0.0
 10
10448.0
 20
22439.0
 10
10448.0
 20
22839.0
 10
10948.0
 20
22839.0
 10
10948.0
 20
22439.0
  0
LWPOLYLINE
  5
1EB
100
AcDbEntity
  8
PART_PADS_SMD_BTM
100
AcDbPolyline
 90
        4
 70
         1
 43
0.0
 10
3400.0
 20
21100.0
 10
3400.0
 20
21500.0
 10
3900.0
 20
21500.0
 10
3900.0
 20
21100.0
  0
LWPOLYLINE
  5
1EC
100
AcDbEntity
  8
PART_PADS_SMD_BTM
100
AcDbPolyline
 90
        4
 70
         1
 43
0.0
 10
3400.0
 20
21900.0
 10
3400.0
 20
22300.0
 10
3900.0
 20
22300.0
 10
3900.0
 20
21900.0
  0
LWPOLYLINE
  5
1ED
100
AcDbEntity
  8
PART_PADS_SMD_BTM
100
AcDbPolyline
 90
        4
 70
         1
 43
0.0
 10
3375.0
 20
22600.0
 10
3375.0
 20
23000.0
 10
3925.0
 20
23000.0
 10
3925.0
 20
22600.0
  0
LWPOLYLINE
  5
1EE
100
AcDbEntity
  8
PART_PADS_SMD_BTM
100
AcDbPolyline
 90
        4
 70
         1
 43
0.0
 10
3375.0
 20
23400.0
 10
3375.0
 20
23800.0
 10
3925.0
 20
23800.0
 10
3925.0
 20
23400.0
  0
LWPOLYLINE
  5
1EF
100
AcDbEntity
  8
PART_PADS_SMD_BTM
100
AcDbPolyline
 90
        4
 70
         1
 43
0.0
 10
11450.0
 20
6625.0
 10
11450.0
 20
7175.0
 10
11850.0
 20
7175.0
 10
11850.0
 20
6625.0
  0
LWPOLYLINE
  5
1F0
100
AcDbEntity
  8
PART_PADS_SMD_BTM
100
AcDbPolyline
 90
        4
 70
         1
 43
0.0
 10
12250.0
 20
6625.0
 10
12250.0
 20
7175.0
 10
12650.0
 20
7175.0
 10
12650.0
 20
6625.0
  0
LWPOLYLINE
  5
1F1
100
AcDbEntity
  8
PART_PADS_SMD_BTM
100
AcDbPolyline
 90
        4
 70
         1
 43
0.0
 10
23350.0
 20
13850.0
 10
23350.0
 20
14350.0
 10
23750.0
 20
14350.0
 10
23750.0
 20
13850.0
  0
LWPOLYLINE
  5
1F2
100
AcDbEntity
  8
PART_PADS_SMD_BTM
100
AcDbPolyline
 90
        4
 70
         1
 43
0.0
 10
24150.0
 20
13850.0
 10
24150.0
 20
14350.0
 10
24550.0
 20
14350.0
 10
24550.0
 20
13850.0
  0
LWPOLYLINE
  5
1F3
100
AcDbEntity
  8
PART_PADS_SMD_BTM
100
AcDbPolyline
 90
        4
 70
         1
 43
0.0
 10
6750.0
 20
23400.0
 10
6750.0
 20
23900.0
 10
7150.0
 20
23900.0
 10
7150.0
 20
23400.0
  0
LWPOLYLINE
  5
1F4
100
AcDbEntity
  8
PART_PADS_SMD_BTM
100
AcDbPolyline
 90
        4
 70
         1
 43
0.0
 10
7550.0
 20
23400.0
 10
7550.0
 20
23900.0
 10
7950.0
 20
23900.0
 10
7950.0
 20
23400.0
  0
LWPOLYLINE
  5
1F5
100
AcDbEntity
  8
PART_PADS_SMD_BTM
100
AcDbPolyline
 90
        4
 70
         1
 43
0.0
 10
14450.0
 20
6450.0
 10
14450.0
 20
6850.0
 10
14950.0
 20
6850.0
 10
14950.0
 20
6450.0
  0
LWPOLYLINE
  5
1F6
100
AcDbEntity
  8
PART_PADS_SMD_BTM
100
AcDbPolyline
 90
        4
 70
         1
 43
0.0
 10
14450.0
 20
7250.0
 10
14450.0
 20
7650.0
 10
14950.0
 20
7650.0
 10
14950.0
 20
7250.0
  0
LWPOLYLINE
  5
1F7
100
AcDbEntity
  8
PART_PADS_SMD_BTM
100
AcDbPolyline
 90
        4
 70
         1
 43
0.0
 10
27038.0
 20
21417.0
 10
27038.0
 20
21917.0
 10
27438.0
 20
21917.0
 10
27438.0
 20
21417.0
  0
LWPOLYLINE
  5
1F8
100
AcDbEntity
  8
PART_PADS_SMD_BTM
100
AcDbPolyline
 90
        4
 70
         1
 43
0.0
 10
27838.0
 20
21417.0
 10
27838.0
 20
21917.0
 10
28238.0
 20
21917.0
 10
28238.0
 20
21417.0
  0
LWPOLYLINE
  5
1F9
100
AcDbEntity
  8
PART_PADS_SMD_BTM
100
AcDbPolyline
 90
        4
 70
         1
 43
0.0
 10
6750.0
 20
21850.0
 10
6750.0
 20
22350.0
 10
7150.0
 20
22350.0
 10
7150.0
 20
21850.0
  0
LWPOLYLINE
  5
1FA
100
AcDbEntity
  8
PART_PADS_SMD_BTM
100
AcDbPolyline
 90
        4
 70
         1
 43
0.0
 10
7550.0
 20
21850.0
 10
7550.0
 20
22350.0
 10
7950.0
 20
22350.0
 10
7950.0
 20
21850.0
  0
LWPOLYLINE
  5
1FB
100
AcDbEntity
  8
PART_PADS_SMD_BTM
100
AcDbPolyline
 90
        4
 70
         1
 43
0.0
 10
2700.0
 20
26450.0
 10
2700.0
 20
26850.0
 10
3200.0
 20
26850.0
 10
3200.0
 20
26450.0
  0
LWPOLYLINE
  5
1FC
100
AcDbEntity
  8
PART_PADS_SMD_BTM
100
AcDbPolyline
 90
        4
 70
         1
 43
0.0
 10
2700.0
 20
25650.0
 10
2700.0
 20
26050.0
 10
3200.0
 20
26050.0
 10
3200.0
 20
25650.0
  0
LWPOLYLINE
  5
1FD
100
AcDbEntity
  8
PART_PADS_SMD_BTM
100
AcDbPolyline
 90
        4
 70
         1
 43
0.0
 10
3450.0
 20
26450.0
 10
3450.0
 20
26850.0
 10
3950.0
 20
26850.0
 10
3950.0
 20
26450.0
  0
LWPOLYLINE
  5
1FE
100
AcDbEntity
  8
PART_PADS_SMD_BTM
100
AcDbPolyline
 90
        4
 70
         1
 43
0.0
 10
3450.0
 20
25650.0
 10
3450.0
 20
26050.0
 10
3950.0
 20
26050.0
 10
3950.0
 20
25650.0
  0
LWPOLYLINE
  5
1FF
100
AcDbEntity
  8
PART_PADS_SMD_BTM
100
AcDbPolyline
 90
        4
 70
         1
 43
0.0
 10
8050.0
 20
7300.0
 10
8050.0
 20
7700.0
 10
8550.0
 20
7700.0
 10
8550.0
 20
7300.0
  0
LWPOLYLINE
  5
200
100
AcDbEntity
  8
PART_PADS_SMD_BTM
100
AcDbPolyline
 90
        4
 70
         1
 43
0.0
 10
8050.0
 20
8100.0
 10
8050.0
 20
8500.0
 10
8550.0
 20
8500.0
 10
8550.0
 20
8100.0
  0
LWPOLYLINE
  5
201
100
AcDbEntity
  8
PART_PADS_SMD_BTM
100
AcDbPolyline
 90
        4
 70
         1
 43
0.0
 10
27900.0
 20
27025.0
 10
27900.0
 20
27575.0
 10
28300.0
 20
27575.0
 10
28300.0
 20
27025.0
  0
LWPOLYLINE
  5
202
100
AcDbEntity
  8
PART_PADS_SMD_BTM
100
AcDbPolyline
 90
        4
 70
         1
 43
0.0
 10
27100.0
 20
27025.0
 10
27100.0
 20
27575.0
 10
27500.0
 20
27575.0
 10
27500.0
 20
27025.0
  0
LWPOLYLINE
  5
203
100
AcDbEntity
  8
PART_PADS_SMD_BTM
100
AcDbPolyline
 90
        4
 70
         1
 43
0.0
 10
23400.0
 20
15900.0
 10
23400.0
 20
16400.0
 10
23800.0
 20
16400.0
 10
23800.0
 20
15900.0
  0
LWPOLYLINE
  5
204
100
AcDbEntity
  8
PART_PADS_SMD_BTM
100
AcDbPolyline
 90
        4
 70
         1
 43
0.0
 10
24200.0
 20
15900.0
 10
24200.0
 20
16400.0
 10
24600.0
 20
16400.0
 10
24600.0
 20
15900.0
  0
LWPOLYLINE
  5
205
100
AcDbEntity
  8
PART_PADS_SMD_BTM
100
AcDbPolyline
 90
        4
 70
         1
 43
0.0
 10
28575.0
 20
22250.0
 10
28575.0
 20
22650.0
 10
29125.0
 20
22650.0
 10
29125.0
 20
22250.0
  0
LWPOLYLINE
  5
206
100
AcDbEntity
  8
PART_PADS_SMD_BTM
100
AcDbPolyline
 90
        4
 70
         1
 43
0.0
 10
28575.0
 20
21450.0
 10
28575.0
 20
21850.0
 10
29125.0
 20
21850.0
 10
29125.0
 20
21450.0
  0
LWPOLYLINE
  5
207
100
AcDbEntity
  8
PART_PADS_SMD_BTM
100
AcDbPolyline
 90
        4
 70
         1
 43
0.0
 10
27900.0
 20
26125.0
 10
27900.0
 20
26675.0
 10
28300.0
 20
26675.0
 10
28300.0
 20
26125.0
  0
LWPOLYLINE
  5
208
100
AcDbEntity
  8
PART_PADS_SMD_BTM
100
AcDbPolyline
 90
        4
 70
         1
 43
0.0
 10
27100.0
 20
26125.0
 10
27100.0
 20
26675.0
 10
27500.0
 20
26675.0
 10
27500.0
 20
26125.0
  0
LWPOLYLINE
  5
209
100
AcDbEntity
  8
PART_PADS_SMD_BTM
100
AcDbPolyline
 90
        4
 70
         1
 43
0.0
 10
5100.0
 20
7350.0
 10
5100.0
 20
7750.0
 10
5600.0
 20
7750.0
 10
5600.0
 20
7350.0
  0
LWPOLYLINE
  5
20A
100
AcDbEntity
  8
PART_PADS_SMD_BTM
100
AcDbPolyline
 90
        4
 70
         1
 43
0.0
 10
5100.0
 20
8150.0
 10
5100.0
 20
8550.0
 10
5600.0
 20
8550.0
 10
5600.0
 20
8150.0
  0
LWPOLYLINE
  5
20B
100
AcDbEntity
  8
PART_PADS_SMD_BTM
100
AcDbPolyline
 90
        4
 70
         1
 43
0.0
 10
27050.0
 20
22150.0
 10
27050.0
 20
22650.0
 10
27450.0
 20
22650.0
 10
27450.0
 20
22150.0
  0
LWPOLYLINE
  5
20C
100
AcDbEntity
  8
PART_PADS_SMD_BTM
100
AcDbPolyline
 90
        4
 70
         1
 43
0.0
 10
27850.0
 20
22150.0
 10
27850.0
 20
22650.0
 10
28250.0
 20
22650.0
 10
28250.0
 20
22150.0
  0
LWPOLYLINE
  5
20D
100
AcDbEntity
  8
PART_PADS_SMD_BTM
100
AcDbPolyline
 90
        4
 70
         1
 43
0.0
 10
12250.0
 20
5650.0
 10
12250.0
 20
6150.0
 10
12650.0
 20
6150.0
 10
12650.0
 20
5650.0
  0
LWPOLYLINE
  5
20E
100
AcDbEntity
  8
PART_PADS_SMD_BTM
100
AcDbPolyline
 90
        4
 70
         1
 43
0.0
 10
11450.0
 20
5650.0
 10
11450.0
 20
6150.0
 10
11850.0
 20
6150.0
 10
11850.0
 20
5650.0
  0
LWPOLYLINE
  5
20F
100
AcDbEntity
  8
PART_PADS_SMD_BTM
100
AcDbPolyline
 90
        4
 70
         1
 43
0.0
 10
27000.0
 20
22950.0
 10
27000.0
 20
23350.0
 10
27500.0
 20
23350.0
 10
27500.0
 20
22950.0
  0
LWPOLYLINE
  5
210
100
AcDbEntity
  8
PART_PADS_SMD_BTM
100
AcDbPolyline
 90
        4
 70
         1
 43
0.0
 10
27000.0
 20
23750.0
 10
27000.0
 20
24150.0
 10
27500.0
 20
24150.0
 10
27500.0
 20
23750.0
  0
LWPOLYLINE
  5
211
100
AcDbEntity
  8
PART_PADS_SMD_BTM
100
AcDbPolyline
 90
        4
 70
         1
 43
0.0
 10
10856.25
 20
9050.0
 10
10856.25
 20
9950.0
 10
11656.25
 20
9950.0
 10
11656.25
 20
9050.0
  0
LWPOLYLINE
  5
212
100
AcDbEntity
  8
PART_PADS_SMD_BTM
100
AcDbPolyline
 90
        4
 70
         1
 43
0.0
 10
12443.75
 20
9050.0
 10
12443.75
 20
9950.0
 10
13243.75
 20
9950.0
 10
13243.75
 20
9050.0
  0
LWPOLYLINE
  5
213
100
AcDbEntity
  8
PART_PADS_SMD_BTM
100
AcDbPolyline
 90
        4
 70
         1
 43
0.0
 10
13850.0
 20
9893.75
 10
13850.0
 20
10693.75
 10
14750.0
 20
10693.75
 10
14750.0
 20
9893.75
  0
LWPOLYLINE
  5
214
100
AcDbEntity
  8
PART_PADS_SMD_BTM
100
AcDbPolyline
 90
        4
 70
         1
 43
0.0
 10
13850.0
 20
8306.25
 10
13850.0
 20
9106.25
 10
14750.0
 20
9106.25
 10
14750.0
 20
8306.25
  0
LWPOLYLINE
  5
215
100
AcDbEntity
  8
PART_PADS_SMD_BTM
100
AcDbPolyline
 90
        4
 70
         1
 43
0.0
 10
30250.0
 20
11450.0
 10
30250.0
 20
11850.0
 10
30750.0
 20
11850.0
 10
30750.0
 20
11450.0
  0
LWPOLYLINE
  5
216
100
AcDbEntity
  8
PART_PADS_SMD_BTM
100
AcDbPolyline
 90
        4
 70
         1
 43
0.0
 10
30250.0
 20
12250.0
 10
30250.0
 20
12650.0
 10
30750.0
 20
12650.0
 10
30750.0
 20
12250.0
  0
LWPOLYLINE
  5
217
100
AcDbEntity
  8
PART_PADS_SMD_BTM
100
AcDbPolyline
 90
        4
 70
         1
 43
0.0
 10
3500.0
 20
9250.0
 10
3500.0
 20
9650.0
 10
4000.0
 20
9650.0
 10
4000.0
 20
9250.0
  0
LWPOLYLINE
  5
218
100
AcDbEntity
  8
PART_PADS_SMD_BTM
100
AcDbPolyline
 90
        4
 70
         1
 43
0.0
 10
3500.0
 20
10050.0
 10
3500.0
 20
10450.0
 10
4000.0
 20
10450.0
 10
4000.0
 20
10050.0
  0
LWPOLYLINE
  5
219
100
AcDbEntity
  8
PART_PADS_SMD_BTM
100
AcDbPolyline
 90
        4
 70
         1
 43
0.0
 10
26100.0
 20
25250.0
 10
26100.0
 20
25650.0
 10
26600.0
 20
25650.0
 10
26600.0
 20
25250.0
  0
LWPOLYLINE
  5
21A
100
AcDbEntity
  8
PART_PADS_SMD_BTM
100
AcDbPolyline
 90
        4
 70
         1
 43
0.0
 10
26100.0
 20
24450.0
 10
26100.0
 20
24850.0
 10
26600.0
 20
24850.0
 10
26600.0
 20
24450.0
  0
LWPOLYLINE
  5
21B
100
AcDbEntity
  8
PART_PADS_SMD_BTM
100
AcDbPolyline
 90
        4
 70
         1
 43
0.0
 10
3800.0
 20
7600.0
 10
3800.0
 20
8000.0
 10
4300.0
 20
8000.0
 10
4300.0
 20
7600.0
  0
LWPOLYLINE
  5
21C
100
AcDbEntity
  8
PART_PADS_SMD_BTM
100
AcDbPolyline
 90
        4
 70
         1
 43
0.0
 10
3800.0
 20
6800.0
 10
3800.0
 20
7200.0
 10
4300.0
 20
7200.0
 10
4300.0
 20
6800.0
  0
LWPOLYLINE
  5
21D
100
AcDbEntity
  8
PART_PADS_SMD_BTM
100
AcDbPolyline
 90
        4
 70
         1
 43
0.0
 10
3450.0
 20
24150.0
 10
3450.0
 20
24550.0
 10
3950.0
 20
24550.0
 10
3950.0
 20
24150.0
  0
LWPOLYLINE
  5
21E
100
AcDbEntity
  8
PART_PADS_SMD_BTM
100
AcDbPolyline
 90
        4
 70
         1
 43
0.0
 10
3450.0
 20
24950.0
 10
3450.0
 20
25350.0
 10
3950.0
 20
25350.0
 10
3950.0
 20
24950.0
  0
LWPOLYLINE
  5
21F
100
AcDbEntity
  8
PART_PADS_SMD_BTM
100
AcDbPolyline
 90
        4
 70
         1
 43
0.0
 10
6750.0
 20
25000.0
 10
6750.0
 20
25400.0
 10
7250.0
 20
25400.0
 10
7250.0
 20
25000.0
  0
LWPOLYLINE
  5
220
100
AcDbEntity
  8
PART_PADS_SMD_BTM
100
AcDbPolyline
 90
        4
 70
         1
 43
0.0
 10
6750.0
 20
24200.0
 10
6750.0
 20
24600.0
 10
7250.0
 20
24600.0
 10
7250.0
 20
24200.0
  0
LWPOLYLINE
  5
221
100
AcDbEntity
  8
PART_PADS_SMD_BTM
100
AcDbPolyline
 90
        4
 70
         1
 43
0.0
 10
2700.0
 20
24150.0
 10
2700.0
 20
24550.0
 10
3200.0
 20
24550.0
 10
3200.0
 20
24150.0
  0
LWPOLYLINE
  5
222
100
AcDbEntity
  8
PART_PADS_SMD_BTM
100
AcDbPolyline
 90
        4
 70
         1
 43
0.0
 10
2700.0
 20
24950.0
 10
2700.0
 20
25350.0
 10
3200.0
 20
25350.0
 10
3200.0
 20
24950.0
  0
LWPOLYLINE
  5
223
100
AcDbEntity
  8
PART_PADS_SMD_BTM
100
AcDbPolyline
 90
        4
 70
         1
 43
0.0
 10
7500.0
 20
25000.0
 10
7500.0
 20
25400.0
 10
8000.0
 20
25400.0
 10
8000.0
 20
25000.0
  0
LWPOLYLINE
  5
224
100
AcDbEntity
  8
PART_PADS_SMD_BTM
100
AcDbPolyline
 90
        4
 70
         1
 43
0.0
 10
7500.0
 20
24200.0
 10
7500.0
 20
24600.0
 10
8000.0
 20
24600.0
 10
8000.0
 20
24200.0
  0
LWPOLYLINE
  5
225
100
AcDbEntity
  8
PART_PADS_SMD_BTM
100
AcDbPolyline
 90
        4
 70
         1
 43
0.0
 10
27875.0
 20
10375.0
 10
27875.0
 20
11175.0
 10
28775.0
 20
11175.0
 10
28775.0
 20
10375.0
  0
LWPOLYLINE
  5
226
100
AcDbEntity
  8
PART_PADS_SMD_BTM
100
AcDbPolyline
 90
        4
 70
         1
 43
0.0
 10
29725.0
 20
10375.0
 10
29725.0
 20
11175.0
 10
30625.0
 20
11175.0
 10
30625.0
 20
10375.0
  0
LWPOLYLINE
  5
227
100
AcDbEntity
  8
PART_PADS_SMD_BTM
100
AcDbPolyline
 90
        4
 70
         1
 43
0.0
 10
29725.0
 20
8925.0
 10
29725.0
 20
9725.0
 10
30625.0
 20
9725.0
 10
30625.0
 20
8925.0
  0
LWPOLYLINE
  5
228
100
AcDbEntity
  8
PART_PADS_SMD_BTM
100
AcDbPolyline
 90
        4
 70
         1
 43
0.0
 10
27875.0
 20
8925.0
 10
27875.0
 20
9725.0
 10
28775.0
 20
9725.0
 10
28775.0
 20
8925.0
  0
LWPOLYLINE
  5
229
100
AcDbEntity
  8
PART_PADS_SMD_BTM
100
AcDbPolyline
 90
        4
 70
         1
 43
0.0
 10
5706.25
 20
19900.0
 10
5706.25
 20
20800.0
 10
6506.25
 20
20800.0
 10
6506.25
 20
19900.0
  0
LWPOLYLINE
  5
22A
100
AcDbEntity
  8
PART_PADS_SMD_BTM
100
AcDbPolyline
 90
        4
 70
         1
 43
0.0
 10
7293.75
 20
19900.0
 10
7293.75
 20
20800.0
 10
8093.75
 20
20800.0
 10
8093.75
 20
19900.0
  0
LWPOLYLINE
  5
22B
100
AcDbEntity
  8
PART_PADS_SMD_BTM
100
AcDbPolyline
 90
        4
 70
         1
 43
0.0
 10
15050.0
 20
9500.0
 10
15050.0
 20
9900.0
 10
15550.0
 20
9900.0
 10
15550.0
 20
9500.0
  0
LWPOLYLINE
  5
22C
100
AcDbEntity
  8
PART_PADS_SMD_BTM
100
AcDbPolyline
 90
        4
 70
         1
 43
0.0
 10
15050.0
 20
8700.0
 10
15050.0
 20
9100.0
 10
15550.0
 20
9100.0
 10
15550.0
 20
8700.0
  0
CIRCLE
  5
22D
100
AcDbEntity
  8
PART_PADS_SMD_BTM
100
AcDbCircle
 10
13000.0
 20
13200.0
 30
0.0
 40
0.5
  0
LWPOLYLINE
  5
22E
100
AcDbEntity
  8
PART_PADS_SMD_BTM
100
AcDbPolyline
 90
        4
 70
         1
 43
0.0
 10
6000.0
 20
27743.75
 10
6000.0
 20
28543.75
 10
6900.0
 20
28543.75
 10
6900.0
 20
27743.75
  0
LWPOLYLINE
  5
22F
100
AcDbEntity
  8
PART_PADS_SMD_BTM
100
AcDbPolyline
 90
        4
 70
         1
 43
0.0
 10
6000.0
 20
26156.25
 10
6000.0
 20
26956.25
 10
6900.0
 20
26956.25
 10
6900.0
 20
26156.25
  0
LWPOLYLINE
  5
230
100
AcDbEntity
  8
PART_PADS_SMD_BTM
100
AcDbPolyline
 90
        4
 70
         1
 43
0.0
 10
10450.0
 20
23950.0
 10
10450.0
 20
24350.0
 10
10950.0
 20
24350.0
 10
10950.0
 20
23950.0
  0
LWPOLYLINE
  5
231
100
AcDbEntity
  8
PART_PADS_SMD_BTM
100
AcDbPolyline
 90
        4
 70
         1
 43
0.0
 10
10450.0
 20
24750.0
 10
10450.0
 20
25150.0
 10
10950.0
 20
25150.0
 10
10950.0
 20
24750.0
  0
LWPOLYLINE
  5
232
100
AcDbEntity
  8
PART_PADS_SMD_BTM
100
AcDbPolyline
 90
        4
 70
         1
 43
0.0
 10
15700.0
 20
12550.0
 10
15700.0
 20
13050.0
 10
16100.0
 20
13050.0
 10
16100.0
 20
12550.0
  0
LWPOLYLINE
  5
233
100
AcDbEntity
  8
PART_PADS_SMD_BTM
100
AcDbPolyline
 90
        4
 70
         1
 43
0.0
 10
16500.0
 20
12550.0
 10
16500.0
 20
13050.0
 10
16900.0
 20
13050.0
 10
16900.0
 20
12550.0
  0
LWPOLYLINE
  5
234
100
AcDbEntity
  8
PART_PADS_SMD_BTM
100
AcDbPolyline
 90
        4
 70
         1
 43
0.0
 10
11200.0
 20
23950.0
 10
11200.0
 20
24350.0
 10
11700.0
 20
24350.0
 10
11700.0
 20
23950.0
  0
LWPOLYLINE
  5
235
100
AcDbEntity
  8
PART_PADS_SMD_BTM
100
AcDbPolyline
 90
        4
 70
         1
 43
0.0
 10
11200.0
 20
24750.0
 10
11200.0
 20
25150.0
 10
11700.0
 20
25150.0
 10
11700.0
 20
24750.0
  0
LWPOLYLINE
  5
236
100
AcDbEntity
  8
PART_PADS_SMD_BTM
100
AcDbPolyline
 90
        4
 70
         1
 43
0.0
 10
24200.0
 20
16650.0
 10
24200.0
 20
17150.0
 10
24600.0
 20
17150.0
 10
24600.0
 20
16650.0
  0
LWPOLYLINE
  5
237
100
AcDbEntity
  8
PART_PADS_SMD_BTM
100
AcDbPolyline
 90
        4
 70
         1
 43
0.0
 10
23400.0
 20
16650.0
 10
23400.0
 20
17150.0
 10
23800.0
 20
17150.0
 10
23800.0
 20
16650.0
  0
LWPOLYLINE
  5
238
100
AcDbEntity
  8
PART_PADS_SMD_BTM
100
AcDbPolyline
 90
        4
 70
         1
 43
0.0
 10
1500.0
 20
22706.25
 10
1500.0
 20
23506.25
 10
2400.0
 20
23506.25
 10
2400.0
 20
22706.25
  0
LWPOLYLINE
  5
239
100
AcDbEntity
  8
PART_PADS_SMD_BTM
100
AcDbPolyline
 90
        4
 70
         1
 43
0.0
 10
1500.0
 20
24293.75
 10
1500.0
 20
25093.75
 10
2400.0
 20
25093.75
 10
2400.0
 20
24293.75
  0
LWPOLYLINE
  5
23A
100
AcDbEntity
  8
PART_PADS_SMD_BTM
100
AcDbPolyline
 90
        4
 70
         1
 43
0.0
 10
9700.0
 20
23950.0
 10
9700.0
 20
24350.0
 10
10200.0
 20
24350.0
 10
10200.0
 20
23950.0
  0
LWPOLYLINE
  5
23B
100
AcDbEntity
  8
PART_PADS_SMD_BTM
100
AcDbPolyline
 90
        4
 70
         1
 43
0.0
 10
9700.0
 20
24750.0
 10
9700.0
 20
25150.0
 10
10200.0
 20
25150.0
 10
10200.0
 20
24750.0
  0
LWPOLYLINE
  5
23C
100
AcDbEntity
  8
PART_PADS_SMD_BTM
100
AcDbPolyline
 90
        4
 70
         1
 43
0.0
 10
20425.0
 20
8100.0
 10
20425.0
 20
8500.0
 10
20975.0
 20
8500.0
 10
20975.0
 20
8100.0
  0
LWPOLYLINE
  5
23D
100
AcDbEntity
  8
PART_PADS_SMD_BTM
100
AcDbPolyline
 90
        4
 70
         1
 43
0.0
 10
20425.0
 20
8900.0
 10
20425.0
 20
9300.0
 10
20975.0
 20
9300.0
 10
20975.0
 20
8900.0
  0
LWPOLYLINE
  5
23E
100
AcDbEntity
  8
PART_PADS_SMD_BTM
100
AcDbPolyline
 90
        4
 70
         1
 43
0.0
 10
12200.0
 20
7450.0
 10
12200.0
 20
7850.0
 10
12700.0
 20
7850.0
 10
12700.0
 20
7450.0
  0
LWPOLYLINE
  5
23F
100
AcDbEntity
  8
PART_PADS_SMD_BTM
100
AcDbPolyline
 90
        4
 70
         1
 43
0.0
 10
12200.0
 20
8250.0
 10
12200.0
 20
8650.0
 10
12700.0
 20
8650.0
 10
12700.0
 20
8250.0
  0
LWPOLYLINE
  5
240
100
AcDbEntity
  8
PART_PADS_SMD_BTM
100
AcDbPolyline
 90
        4
 70
         1
 43
0.0
 10
29456.25
 20
26400.0
 10
29456.25
 20
27300.0
 10
30256.25
 20
27300.0
 10
30256.25
 20
26400.0
  0
LWPOLYLINE
  5
241
100
AcDbEntity
  8
PART_PADS_SMD_BTM
100
AcDbPolyline
 90
        4
 70
         1
 43
0.0
 10
31043.75
 20
26400.0
 10
31043.75
 20
27300.0
 10
31843.75
 20
27300.0
 10
31843.75
 20
26400.0
  0
LWPOLYLINE
  5
242
100
AcDbEntity
  8
PART_PADS_SMD_BTM
100
AcDbPolyline
 90
        4
 70
         1
 43
0.0
 10
30975.0
 20
8750.0
 10
30975.0
 20
9600.0
 10
32225.0
 20
9600.0
 10
32225.0
 20
8750.0
  0
LWPOLYLINE
  5
243
100
AcDbEntity
  8
PART_PADS_SMD_BTM
100
AcDbPolyline
 90
        4
 70
         1
 43
0.0
 10
30975.0
 20
7200.0
 10
30975.0
 20
8050.0
 10
32225.0
 20
8050.0
 10
32225.0
 20
7200.0
  0
LWPOLYLINE
  5
244
100
AcDbEntity
  8
PART_PADS_SMD_BTM
100
AcDbPolyline
 90
        4
 70
         1
 43
0.0
 10
5400.0
 20
9300.0
 10
5400.0
 20
9800.0
 10
6000.0
 20
9800.0
 10
6000.0
 20
9300.0
  0
LWPOLYLINE
  5
245
100
AcDbEntity
  8
PART_PADS_SMD_BTM
100
AcDbPolyline
 90
        4
 70
         1
 43
0.0
 10
5400.0
 20
10700.0
 10
5400.0
 20
11200.0
 10
6000.0
 20
11200.0
 10
6000.0
 20
10700.0
  0
LWPOLYLINE
  5
246
100
AcDbEntity
  8
PART_PADS_SMD_BTM
100
AcDbPolyline
 90
        4
 70
         1
 43
0.0
 10
5750.0
 20
12800.0
 10
5750.0
 20
13200.0
 10
6250.0
 20
13200.0
 10
6250.0
 20
12800.0
  0
LWPOLYLINE
  5
247
100
AcDbEntity
  8
PART_PADS_SMD_BTM
100
AcDbPolyline
 90
        4
 70
         1
 43
0.0
 10
5750.0
 20
12000.0
 10
5750.0
 20
12400.0
 10
6250.0
 20
12400.0
 10
6250.0
 20
12000.0
  0
LWPOLYLINE
  5
248
100
AcDbEntity
  8
PART_PADS_SMD_BTM
100
AcDbPolyline
 90
        4
 70
         1
 43
0.0
 10
11450.0
 20
7450.0
 10
11450.0
 20
7850.0
 10
11950.0
 20
7850.0
 10
11950.0
 20
7450.0
  0
LWPOLYLINE
  5
249
100
AcDbEntity
  8
PART_PADS_SMD_BTM
100
AcDbPolyline
 90
        4
 70
         1
 43
0.0
 10
11450.0
 20
8250.0
 10
11450.0
 20
8650.0
 10
11950.0
 20
8650.0
 10
11950.0
 20
8250.0
  0
LWPOLYLINE
  5
24A
100
AcDbEntity
  8
PART_PADS_SMD_BTM
100
AcDbPolyline
 90
        4
 70
         1
 43
0.0
 10
30250.0
 20
21400.0
 10
30250.0
 20
21900.0
 10
30650.0
 20
21900.0
 10
30650.0
 20
21400.0
  0
LWPOLYLINE
  5
24B
100
AcDbEntity
  8
PART_PADS_SMD_BTM
100
AcDbPolyline
 90
        4
 70
         1
 43
0.0
 10
29450.0
 20
21400.0
 10
29450.0
 20
21900.0
 10
29850.0
 20
21900.0
 10
29850.0
 20
21400.0
  0
LWPOLYLINE
  5
24C
100
AcDbEntity
  8
PART_PADS_SMD_BTM
100
AcDbPolyline
 90
        4
 70
         1
 43
0.0
 10
8400.0
 20
24993.75
 10
8400.0
 20
25793.75
 10
9300.0
 20
25793.75
 10
9300.0
 20
24993.75
  0
LWPOLYLINE
  5
24D
100
AcDbEntity
  8
PART_PADS_SMD_BTM
100
AcDbPolyline
 90
        4
 70
         1
 43
0.0
 10
8400.0
 20
23406.25
 10
8400.0
 20
24206.25
 10
9300.0
 20
24206.25
 10
9300.0
 20
23406.25
  0
LWPOLYLINE
  5
24E
100
AcDbEntity
  8
PART_PADS_SMD_BTM
100
AcDbPolyline
 90
        4
 70
         1
 43
0.0
 10
22756.25
 20
14700.0
 10
22756.25
 20
15600.0
 10
23556.25
 20
15600.0
 10
23556.25
 20
14700.0
  0
LWPOLYLINE
  5
24F
100
AcDbEntity
  8
PART_PADS_SMD_BTM
100
AcDbPolyline
 90
        4
 70
         1
 43
0.0
 10
24343.75
 20
14700.0
 10
24343.75
 20
15600.0
 10
25143.75
 20
15600.0
 10
25143.75
 20
14700.0
  0
LWPOLYLINE
  5
250
100
AcDbEntity
  8
PART_PADS_SMD_BTM
100
AcDbPolyline
 90
        4
 70
         1
 43
0.0
 10
28350.0
 20
11525.0
 10
28350.0
 20
12775.0
 10
29200.0
 20
12775.0
 10
29200.0
 20
11525.0
  0
LWPOLYLINE
  5
251
100
AcDbEntity
  8
PART_PADS_SMD_BTM
100
AcDbPolyline
 90
        4
 70
         1
 43
0.0
 10
26800.0
 20
11525.0
 10
26800.0
 20
12775.0
 10
27650.0
 20
12775.0
 10
27650.0
 20
11525.0
  0
LWPOLYLINE
  5
252
100
AcDbEntity
  8
PART_PADS_SMD_BTM
100
AcDbPolyline
 90
        4
 70
         1
 43
0.0
 10
4650.0
 20
27500.0
 10
4650.0
 20
28000.0
 10
5250.0
 20
28000.0
 10
5250.0
 20
27500.0
  0
LWPOLYLINE
  5
253
100
AcDbEntity
  8
PART_PADS_SMD_BTM
100
AcDbPolyline
 90
        4
 70
         1
 43
0.0
 10
4650.0
 20
26100.0
 10
4650.0
 20
26600.0
 10
5250.0
 20
26600.0
 10
5250.0
 20
26100.0
  0
LWPOLYLINE
  5
254
100
AcDbEntity
  8
PART_PADS_SMD_BTM
100
AcDbPolyline
 90
        4
 70
         1
 43
0.0
 10
7750.0
 20
3900.0
 10
7750.0
 20
5300.0
 10
8350.0
 20
5300.0
 10
8350.0
 20
3900.0
  0
LWPOLYLINE
  5
255
100
AcDbEntity
  8
PART_PADS_SMD_BTM
100
AcDbPolyline
 90
        4
 70
         1
 43
0.0
 10
9750.0
 20
3900.0
 10
9750.0
 20
5300.0
 10
10350.0
 20
5300.0
 10
10350.0
 20
3900.0
  0
LWPOLYLINE
  5
256
100
AcDbEntity
  8
PART_PADS_SMD_BTM
100
AcDbPolyline
 90
        4
 70
         1
 43
0.0
 10
10750.0
 20
1200.0
 10
10750.0
 20
3000.0
 10
11950.0
 20
3000.0
 10
11950.0
 20
1200.0
  0
LWPOLYLINE
  5
257
100
AcDbEntity
  8
PART_PADS_SMD_BTM
100
AcDbPolyline
 90
        4
 70
         1
 43
0.0
 10
6150.0
 20
1200.0
 10
6150.0
 20
3000.0
 10
7350.0
 20
3000.0
 10
7350.0
 20
1200.0
  0
LWPOLYLINE
  5
258
100
AcDbEntity
  8
PART_PADS_SMD_BTM
100
AcDbPolyline
 90
        4
 70
         1
 43
0.0
 10
8750.0
 20
3900.0
 10
8750.0
 20
5300.0
 10
9350.0
 20
5300.0
 10
9350.0
 20
3900.0
  0
CIRCLE
  5
259
100
AcDbEntity
  8
PART_PADS_SMD_BTM
100
AcDbCircle
 10
27676.351
 20
31944.974
 30
0.0
 40
500.0
  0
LWPOLYLINE
  5
25A
100
AcDbEntity
  8
PART_PADS_SMD_BTM
100
AcDbPolyline
 90
        4
 70
         1
 43
0.0
 10
31650.0
 20
24550.0
 10
31650.0
 20
25050.0
 10
32250.0
 20
25050.0
 10
32250.0
 20
24550.0
  0
LWPOLYLINE
  5
25B
100
AcDbEntity
  8
PART_PADS_SMD_BTM
100
AcDbPolyline
 90
        4
 70
         1
 43
0.0
 10
31650.0
 20
23150.0
 10
31650.0
 20
23650.0
 10
32250.0
 20
23650.0
 10
32250.0
 20
23150.0
  0
LWPOLYLINE
  5
25C
100
AcDbEntity
  8
PART_PADS_SMD_BTM
100
AcDbPolyline
 90
        4
 70
         1
 43
0.0
 10
8550.0
 20
9350.0
 10
8550.0
 20
9950.0
 10
9050.0
 20
9950.0
 10
9050.0
 20
9350.0
  0
LWPOLYLINE
  5
25D
100
AcDbEntity
  8
PART_PADS_SMD_BTM
100
AcDbPolyline
 90
        4
 70
         1
 43
0.0
 10
9950.0
 20
9350.0
 10
9950.0
 20
9950.0
 10
10450.0
 20
9950.0
 10
10450.0
 20
9350.0
  0
LWPOLYLINE
  5
25E
100
AcDbEntity
  8
PART_PADS_SMD_BTM
100
AcDbPolyline
 90
        4
 70
         1
 43
0.0
 10
1500.0
 20
6150.0
 10
1500.0
 20
7150.0
 10
2500.0
 20
7150.0
 10
2500.0
 20
6150.0
  0
LWPOLYLINE
  5
25F
100
AcDbEntity
  8
PART_PADS_SMD_BTM
100
AcDbPolyline
 90
        4
 70
         1
 43
0.0
 10
20050.0
 20
24250.0
 10
20050.0
 20
24550.0
 10
20400.0
 20
24550.0
 10
20400.0
 20
24250.0
  0
LWPOLYLINE
  5
260
100
AcDbEntity
  8
PART_PADS_SMD_BTM
100
AcDbPolyline
 90
        4
 70
         1
 43
0.0
 10
20600.0
 20
24250.0
 10
20600.0
 20
24550.0
 10
20950.0
 20
24550.0
 10
20950.0
 20
24250.0
  0
LWPOLYLINE
  5
261
100
AcDbEntity
  8
PART_PADS_SMD_BTM
100
AcDbPolyline
 90
        4
 70
         1
 43
0.0
 10
20600.0
 20
24750.0
 10
20600.0
 20
25050.0
 10
20950.0
 20
25050.0
 10
20950.0
 20
24750.0
  0
LWPOLYLINE
  5
262
100
AcDbEntity
  8
PART_PADS_SMD_BTM
100
AcDbPolyline
 90
        4
 70
         1
 43
0.0
 10
20050.0
 20
24750.0
 10
20050.0
 20
25050.0
 10
20400.0
 20
25050.0
 10
20400.0
 20
24750.0
  0
LWPOLYLINE
  5
263
100
AcDbEntity
  8
PART_PADS_SMD_BTM
100
AcDbPolyline
 90
        4
 70
         1
 43
0.0
 10
21550.0
 20
24250.0
 10
21550.0
 20
24550.0
 10
21900.0
 20
24550.0
 10
21900.0
 20
24250.0
  0
LWPOLYLINE
  5
264
100
AcDbEntity
  8
PART_PADS_SMD_BTM
100
AcDbPolyline
 90
        4
 70
         1
 43
0.0
 10
22100.0
 20
24250.0
 10
22100.0
 20
24550.0
 10
22450.0
 20
24550.0
 10
22450.0
 20
24250.0
  0
LWPOLYLINE
  5
265
100
AcDbEntity
  8
PART_PADS_SMD_BTM
100
AcDbPolyline
 90
        4
 70
         1
 43
0.0
 10
21550.0
 20
24750.0
 10
21550.0
 20
25050.0
 10
21900.0
 20
25050.0
 10
21900.0
 20
24750.0
  0
LWPOLYLINE
  5
266
100
AcDbEntity
  8
PART_PADS_SMD_BTM
100
AcDbPolyline
 90
        4
 70
         1
 43
0.0
 10
22100.0
 20
24750.0
 10
22100.0
 20
25050.0
 10
22450.0
 20
25050.0
 10
22450.0
 20
24750.0
  0
LWPOLYLINE
  5
267
100
AcDbEntity
  8
PART_PADS_SMD_BTM
100
AcDbPolyline
 90
        4
 70
         1
 43
0.0
 10
23050.0
 20
24250.0
 10
23050.0
 20
24550.0
 10
23400.0
 20
24550.0
 10
23400.0
 20
24250.0
  0
LWPOLYLINE
  5
268
100
AcDbEntity
  8
PART_PADS_SMD_BTM
100
AcDbPolyline
 90
        4
 70
         1
 43
0.0
 10
23600.0
 20
24250.0
 10
23600.0
 20
24550.0
 10
23950.0
 20
24550.0
 10
23950.0
 20
24250.0
  0
LWPOLYLINE
  5
269
100
AcDbEntity
  8
PART_PADS_SMD_BTM
100
AcDbPolyline
 90
        4
 70
         1
 43
0.0
 10
23600.0
 20
24750.0
 10
23600.0
 20
25050.0
 10
23950.0
 20
25050.0
 10
23950.0
 20
24750.0
  0
LWPOLYLINE
  5
26A
100
AcDbEntity
  8
PART_PADS_SMD_BTM
100
AcDbPolyline
 90
        4
 70
         1
 43
0.0
 10
23050.0
 20
24750.0
 10
23050.0
 20
25050.0
 10
23400.0
 20
25050.0
 10
23400.0
 20
24750.0
  0
LWPOLYLINE
  5
26B
100
AcDbEntity
  8
PART_PADS_SMD_BTM
100
AcDbPolyline
 90
        4
 70
         1
 43
0.0
 10
30250.0
 20
22150.0
 10
30250.0
 20
22650.0
 10
30650.0
 20
22650.0
 10
30650.0
 20
22150.0
  0
LWPOLYLINE
  5
26C
100
AcDbEntity
  8
PART_PADS_SMD_BTM
100
AcDbPolyline
 90
        4
 70
         1
 43
0.0
 10
29450.0
 20
22150.0
 10
29450.0
 20
22650.0
 10
29850.0
 20
22650.0
 10
29850.0
 20
22150.0
  0
LWPOLYLINE
  5
26D
100
AcDbEntity
  8
PART_PADS_SMD_BTM
100
AcDbPolyline
 90
        4
 70
         1
 43
0.0
 10
13700.0
 20
2550.0
 10
13700.0
 20
4150.0
 10
15300.0
 20
4150.0
 10
15300.0
 20
2550.0
  0
LWPOLYLINE
  5
26E
100
AcDbEntity
  8
PART_PADS_SMD_BTM
100
AcDbPolyline
 90
        4
 70
         1
 43
0.0
 10
13000.0
 20
3950.0
 10
13000.0
 20
4250.0
 10
13450.0
 20
4250.0
 10
13450.0
 20
3950.0
  0
LWPOLYLINE
  5
26F
100
AcDbEntity
  8
PART_PADS_SMD_BTM
100
AcDbPolyline
 90
        4
 70
         1
 43
0.0
 10
13000.0
 20
2950.0
 10
13000.0
 20
3250.0
 10
13450.0
 20
3250.0
 10
13450.0
 20
2950.0
  0
LWPOLYLINE
  5
270
100
AcDbEntity
  8
PART_PADS_SMD_BTM
100
AcDbPolyline
 90
        4
 70
         1
 43
0.0
 10
13000.0
 20
2450.0
 10
13000.0
 20
2750.0
 10
13450.0
 20
2750.0
 10
13450.0
 20
2450.0
  0
LWPOLYLINE
  5
271
100
AcDbEntity
  8
PART_PADS_SMD_BTM
100
AcDbPolyline
 90
        4
 70
         1
 43
0.0
 10
15550.0
 20
2950.0
 10
15550.0
 20
3250.0
 10
16000.0
 20
3250.0
 10
16000.0
 20
2950.0
  0
LWPOLYLINE
  5
272
100
AcDbEntity
  8
PART_PADS_SMD_BTM
100
AcDbPolyline
 90
        4
 70
         1
 43
0.0
 10
15550.0
 20
3450.0
 10
15550.0
 20
3750.0
 10
16000.0
 20
3750.0
 10
16000.0
 20
3450.0
  0
LWPOLYLINE
  5
273
100
AcDbEntity
  8
PART_PADS_SMD_BTM
100
AcDbPolyline
 90
        4
 70
         1
 43
0.0
 10
15550.0
 20
3950.0
 10
15550.0
 20
4250.0
 10
16000.0
 20
4250.0
 10
16000.0
 20
3950.0
  0
LWPOLYLINE
  5
274
100
AcDbEntity
  8
PART_PADS_SMD_BTM
100
AcDbPolyline
 90
        4
 70
         1
 43
0.0
 10
13000.0
 20
3450.0
 10
13000.0
 20
3750.0
 10
13450.0
 20
3750.0
 10
13450.0
 20
3450.0
  0
LWPOLYLINE
  5
275
100
AcDbEntity
  8
PART_PADS_SMD_BTM
100
AcDbPolyline
 90
        4
 70
         1
 43
0.0
 10
15550.0
 20
2450.0
 10
15550.0
 20
2750.0
 10
16000.0
 20
2750.0
 10
16000.0
 20
2450.0
  0
LWPOLYLINE
  5
276
100
AcDbEntity
  8
PART_PADS_SMD_BTM
100
AcDbPolyline
 90
        4
 70
         1
 43
0.0
 10
27900.0
 20
27850.0
 10
27900.0
 20
28350.0
 10
28300.0
 20
28350.0
 10
28300.0
 20
27850.0
  0
LWPOLYLINE
  5
277
100
AcDbEntity
  8
PART_PADS_SMD_BTM
100
AcDbPolyline
 90
        4
 70
         1
 43
0.0
 10
27100.0
 20
27850.0
 10
27100.0
 20
28350.0
 10
27500.0
 20
28350.0
 10
27500.0
 20
27850.0
  0
LWPOLYLINE
  5
278
100
AcDbEntity
  8
PART_PADS_SMD_BTM
100
AcDbPolyline
 90
        4
 70
         1
 43
0.0
 10
17050.0
 20
24250.0
 10
17050.0
 20
24550.0
 10
17400.0
 20
24550.0
 10
17400.0
 20
24250.0
  0
LWPOLYLINE
  5
279
100
AcDbEntity
  8
PART_PADS_SMD_BTM
100
AcDbPolyline
 90
        4
 70
         1
 43
0.0
 10
17600.0
 20
24250.0
 10
17600.0
 20
24550.0
 10
17950.0
 20
24550.0
 10
17950.0
 20
24250.0
  0
LWPOLYLINE
  5
27A
100
AcDbEntity
  8
PART_PADS_SMD_BTM
100
AcDbPolyline
 90
        4
 70
         1
 43
0.0
 10
17050.0
 20
24750.0
 10
17050.0
 20
25050.0
 10
17400.0
 20
25050.0
 10
17400.0
 20
24750.0
  0
LWPOLYLINE
  5
27B
100
AcDbEntity
  8
PART_PADS_SMD_BTM
100
AcDbPolyline
 90
        4
 70
         1
 43
0.0
 10
17600.0
 20
24750.0
 10
17600.0
 20
25050.0
 10
17950.0
 20
25050.0
 10
17950.0
 20
24750.0
  0
CIRCLE
  5
27C
100
AcDbEntity
  8
PART_PADS_SMD_BTM
100
AcDbCircle
 10
32350.0
 20
16750.0
 30
0.0
 40
0.5
  0
LWPOLYLINE
  5
27D
100
AcDbEntity
  8
PART_PADS_SMD_BTM
100
AcDbPolyline
 90
        4
 70
         1
 43
0.0
 10
1500.0
 20
25356.25
 10
1500.0
 20
26156.25
 10
2400.0
 20
26156.25
 10
2400.0
 20
25356.25
  0
LWPOLYLINE
  5
27E
100
AcDbEntity
  8
PART_PADS_SMD_BTM
100
AcDbPolyline
 90
        4
 70
         1
 43
0.0
 10
1500.0
 20
26943.75
 10
1500.0
 20
27743.75
 10
2400.0
 20
27743.75
 10
2400.0
 20
26943.75
  0
LWPOLYLINE
  5
27F
100
AcDbEntity
  8
PART_PADS_SMD_BTM
100
AcDbPolyline
 90
        4
 70
         1
 43
0.0
 10
18550.0
 20
24250.0
 10
18550.0
 20
24550.0
 10
18900.0
 20
24550.0
 10
18900.0
 20
24250.0
  0
LWPOLYLINE
  5
280
100
AcDbEntity
  8
PART_PADS_SMD_BTM
100
AcDbPolyline
 90
        4
 70
         1
 43
0.0
 10
19100.0
 20
24250.0
 10
19100.0
 20
24550.0
 10
19450.0
 20
24550.0
 10
19450.0
 20
24250.0
  0
LWPOLYLINE
  5
281
100
AcDbEntity
  8
PART_PADS_SMD_BTM
100
AcDbPolyline
 90
        4
 70
         1
 43
0.0
 10
18550.0
 20
24750.0
 10
18550.0
 20
25050.0
 10
18900.0
 20
25050.0
 10
18900.0
 20
24750.0
  0
LWPOLYLINE
  5
282
100
AcDbEntity
  8
PART_PADS_SMD_BTM
100
AcDbPolyline
 90
        4
 70
         1
 43
0.0
 10
19100.0
 20
24750.0
 10
19100.0
 20
25050.0
 10
19450.0
 20
25050.0
 10
19450.0
 20
24750.0
  0
LWPOLYLINE
  5
283
100
AcDbEntity
  8
PART_PADS_SMD_BTM
100
AcDbPolyline
 90
        4
 70
         1
 43
0.0
 10
10456.25
 20
20550.0
 10
10456.25
 20
21450.0
 10
11256.25
 20
21450.0
 10
11256.25
 20
20550.0
  0
LWPOLYLINE
  5
284
100
AcDbEntity
  8
PART_PADS_SMD_BTM
100
AcDbPolyline
 90
        4
 70
         1
 43
0.0
 10
12043.75
 20
20550.0
 10
12043.75
 20
21450.0
 10
12843.75
 20
21450.0
 10
12843.75
 20
20550.0
  0
LWPOLYLINE
  5
285
100
AcDbEntity
  8
PART_PADS_SMD_BTM
100
AcDbPolyline
 90
        4
 70
         1
 43
0.0
 10
16900.0
 20
3300.0
 10
16900.0
 20
3700.0
 10
17400.0
 20
3700.0
 10
17400.0
 20
3300.0
  0
LWPOLYLINE
  5
286
100
AcDbEntity
  8
PART_PADS_SMD_BTM
100
AcDbPolyline
 90
        4
 70
         1
 43
0.0
 10
16900.0
 20
2500.0
 10
16900.0
 20
2900.0
 10
17400.0
 20
2900.0
 10
17400.0
 20
2500.0
  0
LWPOLYLINE
  5
287
100
AcDbEntity
  8
PART_PADS_SMD_BTM
100
AcDbPolyline
 90
        4
 70
         1
 43
0.0
 10
16900.0
 20
4100.0
 10
16900.0
 20
4500.0
 10
17400.0
 20
4500.0
 10
17400.0
 20
4100.0
  0
LWPOLYLINE
  5
288
100
AcDbEntity
  8
PART_PADS_SMD_BTM
100
AcDbPolyline
 90
        4
 70
         1
 43
0.0
 10
16250.0
 20
1200.0
 10
16250.0
 20
1700.0
 10
16650.0
 20
1700.0
 10
16650.0
 20
1200.0
  0
LWPOLYLINE
  5
289
100
AcDbEntity
  8
PART_PADS_SMD_BTM
100
AcDbPolyline
 90
        4
 70
         1
 43
0.0
 10
17050.0
 20
1200.0
 10
17050.0
 20
1700.0
 10
17450.0
 20
1700.0
 10
17450.0
 20
1200.0
  0
LWPOLYLINE
  5
28A
100
AcDbEntity
  8
PART_PADS_SMD_BTM
100
AcDbPolyline
 90
        4
 70
         1
 43
0.0
 10
15450.0
 20
1200.0
 10
15450.0
 20
1700.0
 10
15850.0
 20
1700.0
 10
15850.0
 20
1200.0
  0
LWPOLYLINE
  5
28B
100
AcDbEntity
  8
PART_PADS_SMD_BTM
100
AcDbPolyline
 90
        4
 70
         1
 43
0.0
 10
14550.0
 20
22325.0
 10
14550.0
 20
22775.0
 10
14970.0
 20
22775.0
 10
14970.0
 20
22325.0
  0
LWPOLYLINE
  5
28C
100
AcDbEntity
  8
PART_PADS_SMD_BTM
100
AcDbPolyline
 90
        4
 70
         1
 43
0.0
 10
15172.5
 20
22650.0
 10
15172.5
 20
22825.0
 10
15547.5
 20
22825.0
 10
15547.5
 20
22650.0
  0
LWPOLYLINE
  5
28D
100
AcDbEntity
  8
PART_PADS_SMD_BTM
100
AcDbPolyline
 90
        4
 70
         1
 43
0.0
 10
15172.5
 20
22275.0
 10
15172.5
 20
22450.0
 10
15547.5
 20
22450.0
 10
15547.5
 20
22275.0
  0
LWPOLYLINE
  5
28E
100
AcDbEntity
  8
PART_PADS_SMD_BTM
100
AcDbPolyline
 90
        4
 70
         1
 43
0.0
 10
13430.0
 20
22325.0
 10
13430.0
 20
22775.0
 10
13850.0
 20
22775.0
 10
13850.0
 20
22325.0
  0
LWPOLYLINE
  5
28F
100
AcDbEntity
  8
PART_PADS_SMD_BTM
100
AcDbPolyline
 90
        4
 70
         1
 43
0.0
 10
14052.5
 20
22650.0
 10
14052.5
 20
22825.0
 10
14427.5
 20
22825.0
 10
14427.5
 20
22650.0
  0
LWPOLYLINE
  5
290
100
AcDbEntity
  8
PART_PADS_SMD_BTM
100
AcDbPolyline
 90
        4
 70
         1
 43
0.0
 10
14052.5
 20
22275.0
 10
14052.5
 20
22450.0
 10
14427.5
 20
22450.0
 10
14427.5
 20
22275.0
  0
LWPOLYLINE
  5
291
100
AcDbEntity
  8
PART_PADS_SMD_BTM
100
AcDbPolyline
 90
        4
 70
         1
 43
0.0
 10
6100.0
 20
24200.0
 10
6100.0
 20
24500.0
 10
6550.0
 20
24500.0
 10
6550.0
 20
24200.0
  0
LWPOLYLINE
  5
292
100
AcDbEntity
  8
PART_PADS_SMD_BTM
100
AcDbPolyline
 90
        4
 70
         1
 43
0.0
 10
6100.0
 20
23550.0
 10
6100.0
 20
23850.0
 10
6550.0
 20
23850.0
 10
6550.0
 20
23550.0
  0
LWPOLYLINE
  5
293
100
AcDbEntity
  8
PART_PADS_SMD_BTM
100
AcDbPolyline
 90
        4
 70
         1
 43
0.0
 10
6100.0
 20
22900.0
 10
6100.0
 20
23200.0
 10
6550.0
 20
23200.0
 10
6550.0
 20
22900.0
  0
LWPOLYLINE
  5
294
100
AcDbEntity
  8
PART_PADS_SMD_BTM
100
AcDbPolyline
 90
        4
 70
         1
 43
0.0
 10
4150.0
 20
22900.0
 10
4150.0
 20
23200.0
 10
4600.0
 20
23200.0
 10
4600.0
 20
22900.0
  0
LWPOLYLINE
  5
295
100
AcDbEntity
  8
PART_PADS_SMD_BTM
100
AcDbPolyline
 90
        4
 70
         1
 43
0.0
 10
4150.0
 20
23550.0
 10
4150.0
 20
23850.0
 10
4600.0
 20
23850.0
 10
4600.0
 20
23550.0
  0
LWPOLYLINE
  5
296
100
AcDbEntity
  8
PART_PADS_SMD_BTM
100
AcDbPolyline
 90
        4
 70
         1
 43
0.0
 10
4150.0
 20
24200.0
 10
4150.0
 20
24500.0
 10
4600.0
 20
24500.0
 10
4600.0
 20
24200.0
  0
LWPOLYLINE
  5
297
100
AcDbEntity
  8
PART_PADS_SMD_BTM
100
AcDbPolyline
 90
        4
 70
         1
 43
0.0
 10
4850.0
 20
22900.0
 10
4850.0
 20
24500.0
 10
5850.0
 20
24500.0
 10
5850.0
 20
22900.0
  0
LWPOLYLINE
  5
298
100
AcDbEntity
  8
PART_PADS_SMD_BTM
100
AcDbPolyline
 90
        4
 70
         1
 43
0.0
 10
6925.0
 20
10600.0
 10
6925.0
 20
11800.0
 10
7375.0
 20
11800.0
 10
7375.0
 20
10600.0
  0
LWPOLYLINE
  5
299
100
AcDbEntity
  8
PART_PADS_SMD_BTM
100
AcDbPolyline
 90
        4
 70
         1
 43
0.0
 10
8825.0
 20
10600.0
 10
8825.0
 20
11800.0
 10
9275.0
 20
11800.0
 10
9275.0
 20
10600.0
  0
LWPOLYLINE
  5
29A
100
AcDbEntity
  8
PART_PADS_SMD_BTM
100
AcDbPolyline
 90
        4
 70
         1
 43
0.0
 10
7875.0
 20
13400.0
 10
7875.0
 20
14600.0
 10
8325.0
 20
14600.0
 10
8325.0
 20
13400.0
  0
LWPOLYLINE
  5
29B
100
AcDbEntity
  8
PART_PADS_SMD_BTM
100
AcDbPolyline
 90
        4
 70
         1
 43
0.0
 10
6925.0
 20
13400.0
 10
6925.0
 20
14600.0
 10
7375.0
 20
14600.0
 10
7375.0
 20
13400.0
  0
LWPOLYLINE
  5
29C
100
AcDbEntity
  8
PART_PADS_SMD_BTM
100
AcDbPolyline
 90
        4
 70
         1
 43
0.0
 10
8825.0
 20
13400.0
 10
8825.0
 20
14600.0
 10
9275.0
 20
14600.0
 10
9275.0
 20
13400.0
  0
LWPOLYLINE
  5
29D
100
AcDbEntity
  8
PART_PADS_SMD_BTM
100
AcDbPolyline
 90
        4
 70
         1
 43
0.0
 10
14750.0
 20
5100.0
 10
14750.0
 20
5600.0
 10
15250.0
 20
5600.0
 10
15250.0
 20
5100.0
  0
LWPOLYLINE
  5
29E
100
AcDbEntity
  8
PART_PADS_SMD_BTM
100
AcDbPolyline
 90
        4
 70
         1
 43
0.0
 10
15450.0
 20
5100.0
 10
15450.0
 20
5600.0
 10
15950.0
 20
5600.0
 10
15950.0
 20
5100.0
  0
LWPOLYLINE
  5
29F
100
AcDbEntity
  8
PART_PADS_SMD_BTM
100
AcDbPolyline
 90
        4
 70
         1
 43
0.0
 10
15450.0
 20
5800.0
 10
15450.0
 20
6300.0
 10
15950.0
 20
6300.0
 10
15950.0
 20
5800.0
  0
LWPOLYLINE
  5
2A0
100
AcDbEntity
  8
PART_PADS_SMD_BTM
100
AcDbPolyline
 90
        4
 70
         1
 43
0.0
 10
16150.0
 20
5100.0
 10
16150.0
 20
5600.0
 10
16650.0
 20
5600.0
 10
16650.0
 20
5100.0
  0
LWPOLYLINE
  5
2A1
100
AcDbEntity
  8
PART_PADS_SMD_BTM
100
AcDbPolyline
 90
        4
 70
         1
 43
0.0
 10
10750.0
 20
7300.0
 10
10750.0
 20
7600.0
 10
11200.0
 20
7600.0
 10
11200.0
 20
7300.0
  0
LWPOLYLINE
  5
2A2
100
AcDbEntity
  8
PART_PADS_SMD_BTM
100
AcDbPolyline
 90
        4
 70
         1
 43
0.0
 10
10750.0
 20
6650.0
 10
10750.0
 20
6950.0
 10
11200.0
 20
6950.0
 10
11200.0
 20
6650.0
  0
LWPOLYLINE
  5
2A3
100
AcDbEntity
  8
PART_PADS_SMD_BTM
100
AcDbPolyline
 90
        4
 70
         1
 43
0.0
 10
10750.0
 20
6000.0
 10
10750.0
 20
6300.0
 10
11200.0
 20
6300.0
 10
11200.0
 20
6000.0
  0
LWPOLYLINE
  5
2A4
100
AcDbEntity
  8
PART_PADS_SMD_BTM
100
AcDbPolyline
 90
        4
 70
         1
 43
0.0
 10
8800.0
 20
6000.0
 10
8800.0
 20
6300.0
 10
9250.0
 20
6300.0
 10
9250.0
 20
6000.0
  0
LWPOLYLINE
  5
2A5
100
AcDbEntity
  8
PART_PADS_SMD_BTM
100
AcDbPolyline
 90
        4
 70
         1
 43
0.0
 10
8800.0
 20
6650.0
 10
8800.0
 20
6950.0
 10
9250.0
 20
6950.0
 10
9250.0
 20
6650.0
  0
LWPOLYLINE
  5
2A6
100
AcDbEntity
  8
PART_PADS_SMD_BTM
100
AcDbPolyline
 90
        4
 70
         1
 43
0.0
 10
8800.0
 20
7300.0
 10
8800.0
 20
7600.0
 10
9250.0
 20
7600.0
 10
9250.0
 20
7300.0
  0
LWPOLYLINE
  5
2A7
100
AcDbEntity
  8
PART_PADS_SMD_BTM
100
AcDbPolyline
 90
        4
 70
         1
 43
0.0
 10
9500.0
 20
6000.0
 10
9500.0
 20
7600.0
 10
10500.0
 20
7600.0
 10
10500.0
 20
6000.0
  0
LWPOLYLINE
  5
2A8
100
AcDbEntity
  8
PART_PADS_SMD_BTM
100
AcDbPolyline
 90
        4
 70
         1
 43
0.0
 10
24750.0
 20
20700.0
 10
24750.0
 20
21100.0
 10
25250.0
 20
21100.0
 10
25250.0
 20
20700.0
  0
LWPOLYLINE
  5
2A9
100
AcDbEntity
  8
PART_PADS_SMD_BTM
100
AcDbPolyline
 90
        4
 70
         1
 43
0.0
 10
24750.0
 20
19900.0
 10
24750.0
 20
20300.0
 10
25250.0
 20
20300.0
 10
25250.0
 20
19900.0
  0
LWPOLYLINE
  5
2AA
100
AcDbEntity
  8
PART_PADS_SMD_BTM
100
AcDbPolyline
 90
        4
 70
         1
 43
0.0
 10
24200.0
 20
7800.0
 10
24200.0
 20
9700.0
 10
24800.0
 20
9700.0
 10
24800.0
 20
7800.0
  0
LWPOLYLINE
  5
2AB
100
AcDbEntity
  8
PART_PADS_SMD_BTM
100
AcDbPolyline
 90
        4
 70
         1
 43
0.0
 10
23200.0
 20
7800.0
 10
23200.0
 20
9700.0
 10
23800.0
 20
9700.0
 10
23800.0
 20
7800.0
  0
LWPOLYLINE
  5
2AC
100
AcDbEntity
  8
PART_PADS_SMD_BTM
100
AcDbPolyline
 90
        4
 70
         1
 43
0.0
 10
22200.0
 20
7800.0
 10
22200.0
 20
9700.0
 10
22800.0
 20
9700.0
 10
22800.0
 20
7800.0
  0
LWPOLYLINE
  5
2AD
100
AcDbEntity
  8
PART_PADS_SMD_BTM
100
AcDbPolyline
 90
        4
 70
         1
 43
0.0
 10
21200.0
 20
7800.0
 10
21200.0
 20
9700.0
 10
21800.0
 20
9700.0
 10
21800.0
 20
7800.0
  0
LWPOLYLINE
  5
2AE
100
AcDbEntity
  8
PART_PADS_SMD_BTM
100
AcDbPolyline
 90
        4
 70
         1
 43
0.0
 10
17300.0
 20
5200.0
 10
17300.0
 20
7600.0
 10
19400.0
 20
7600.0
 10
19400.0
 20
5200.0
  0
LWPOLYLINE
  5
2AF
100
AcDbEntity
  8
PART_PADS_SMD_BTM
100
AcDbPolyline
 90
        4
 70
         1
 43
0.0
 10
26600.0
 20
5200.0
 10
26600.0
 20
7600.0
 10
28700.0
 20
7600.0
 10
28700.0
 20
5200.0
  0
LWPOLYLINE
  5
2B0
100
AcDbEntity
  8
PART_PADS_SMD_BTM
100
AcDbPolyline
 90
        4
 70
         1
 43
0.0
 10
31025.0
 20
12250.0
 10
31025.0
 20
12650.0
 10
31575.0
 20
12650.0
 10
31575.0
 20
12250.0
  0
LWPOLYLINE
  5
2B1
100
AcDbEntity
  8
PART_PADS_SMD_BTM
100
AcDbPolyline
 90
        4
 70
         1
 43
0.0
 10
31025.0
 20
11450.0
 10
31025.0
 20
11850.0
 10
31575.0
 20
11850.0
 10
31575.0
 20
11450.0
  0
LWPOLYLINE
  5
2B2
100
AcDbEntity
  8
PART_PADS_SMD_BTM
100
AcDbPolyline
 90
        4
 70
         1
 43
0.0
 10
29450.0
 20
22900.0
 10
29450.0
 20
23350.0
 10
29750.0
 20
23350.0
 10
29750.0
 20
22900.0
  0
LWPOLYLINE
  5
2B3
100
AcDbEntity
  8
PART_PADS_SMD_BTM
100
AcDbPolyline
 90
        4
 70
         1
 43
0.0
 10
28800.0
 20
22900.0
 10
28800.0
 20
23350.0
 10
29100.0
 20
23350.0
 10
29100.0
 20
22900.0
  0
LWPOLYLINE
  5
2B4
100
AcDbEntity
  8
PART_PADS_SMD_BTM
100
AcDbPolyline
 90
        4
 70
         1
 43
0.0
 10
28150.0
 20
22900.0
 10
28150.0
 20
23350.0
 10
28450.0
 20
23350.0
 10
28450.0
 20
22900.0
  0
LWPOLYLINE
  5
2B5
100
AcDbEntity
  8
PART_PADS_SMD_BTM
100
AcDbPolyline
 90
        4
 70
         1
 43
0.0
 10
28150.0
 20
24850.0
 10
28150.0
 20
25300.0
 10
28450.0
 20
25300.0
 10
28450.0
 20
24850.0
  0
LWPOLYLINE
  5
2B6
100
AcDbEntity
  8
PART_PADS_SMD_BTM
100
AcDbPolyline
 90
        4
 70
         1
 43
0.0
 10
28800.0
 20
24850.0
 10
28800.0
 20
25300.0
 10
29100.0
 20
25300.0
 10
29100.0
 20
24850.0
  0
LWPOLYLINE
  5
2B7
100
AcDbEntity
  8
PART_PADS_SMD_BTM
100
AcDbPolyline
 90
        4
 70
         1
 43
0.0
 10
29450.0
 20
24850.0
 10
29450.0
 20
25300.0
 10
29750.0
 20
25300.0
 10
29750.0
 20
24850.0
  0
LWPOLYLINE
  5
2B8
100
AcDbEntity
  8
PART_PADS_SMD_BTM
100
AcDbPolyline
 90
        4
 70
         1
 43
0.0
 10
28150.0
 20
23600.0
 10
28150.0
 20
24600.0
 10
29750.0
 20
24600.0
 10
29750.0
 20
23600.0
  0
LWPOLYLINE
  5
2B9
100
AcDbEntity
  8
PART_PADS_SMD_BTM
100
AcDbPolyline
 90
        4
 70
         1
 43
0.0
 10
23850.0
 20
20700.0
 10
23850.0
 20
21100.0
 10
24350.0
 20
21100.0
 10
24350.0
 20
20700.0
  0
LWPOLYLINE
  5
2BA
100
AcDbEntity
  8
PART_PADS_SMD_BTM
100
AcDbPolyline
 90
        4
 70
         1
 43
0.0
 10
23850.0
 20
19900.0
 10
23850.0
 20
20300.0
 10
24350.0
 20
20300.0
 10
24350.0
 20
19900.0
  0
LWPOLYLINE
  5
2BB
100
AcDbEntity
  8
PART_PADS_SMD_BTM
100
AcDbPolyline
 90
        4
 70
         1
 43
0.0
 10
4250.0
 20
9250.0
 10
4250.0
 20
9650.0
 10
4750.0
 20
9650.0
 10
4750.0
 20
9250.0
  0
LWPOLYLINE
  5
2BC
100
AcDbEntity
  8
PART_PADS_SMD_BTM
100
AcDbPolyline
 90
        4
 70
         1
 43
0.0
 10
4250.0
 20
10050.0
 10
4250.0
 20
10450.0
 10
4750.0
 20
10450.0
 10
4750.0
 20
10050.0
  0
LWPOLYLINE
  5
2BD
100
AcDbEntity
  8
PART_PADS_SMD_BTM
100
AcDbPolyline
 90
        4
 70
         1
 43
0.0
 10
29500.0
 20
11450.0
 10
29500.0
 20
11850.0
 10
30000.0
 20
11850.0
 10
30000.0
 20
11450.0
  0
LWPOLYLINE
  5
2BE
100
AcDbEntity
  8
PART_PADS_SMD_BTM
100
AcDbPolyline
 90
        4
 70
         1
 43
0.0
 10
29500.0
 20
12250.0
 10
29500.0
 20
12650.0
 10
30000.0
 20
12650.0
 10
30000.0
 20
12250.0
  0
LWPOLYLINE
  5
2BF
100
AcDbEntity
  8
PART_PADS_SMD_BTM
100
AcDbPolyline
 90
        4
 70
         1
 43
0.0
 10
19675.0
 20
10775.0
 42
-1.000000
 10
19675.0
 20
11125.0
 10
20200.0
 20
11125.0
 10
20200.0
 20
10775.0
  0
LWPOLYLINE
  5
2C0
100
AcDbEntity
  8
PART_PADS_SMD_BTM
100
AcDbPolyline
 90
        4
 70
         1
 43
0.0
 10
19675.0
 20
10125.0
 42
-1.000000
 10
19675.0
 20
10475.0
 10
20200.0
 20
10475.0
 10
20200.0
 20
10125.0
  0
LWPOLYLINE
  5
2C1
100
AcDbEntity
  8
PART_PADS_SMD_BTM
100
AcDbPolyline
 90
        4
 70
         1
 43
0.0
 10
19675.0
 20
9475.0
 42
-1.000000
 10
19675.0
 20
9825.0
 10
20200.0
 20
9825.0
 10
20200.0
 20
9475.0
  0
LWPOLYLINE
  5
2C2
100
AcDbEntity
  8
PART_PADS_SMD_BTM
100
AcDbPolyline
 90
        4
 70
         1
 43
0.0
 10
19675.0
 20
8825.0
 42
-1.000000
 10
19675.0
 20
9175.0
 10
20200.0
 20
9175.0
 10
20200.0
 20
8825.0
  0
LWPOLYLINE
  5
2C3
100
AcDbEntity
  8
PART_PADS_SMD_BTM
100
AcDbPolyline
 90
        4
 70
         1
 43
0.0
 10
16225.0
 20
9825.0
 42
-1.000000
 10
16225.0
 20
9475.0
 10
15700.0
 20
9475.0
 10
15700.0
 20
9825.0
  0
LWPOLYLINE
  5
2C4
100
AcDbEntity
  8
PART_PADS_SMD_BTM
100
AcDbPolyline
 90
        4
 70
         1
 43
0.0
 10
16225.0
 20
10475.0
 42
-1.000000
 10
16225.0
 20
10125.0
 10
15700.0
 20
10125.0
 10
15700.0
 20
10475.0
  0
LWPOLYLINE
  5
2C5
100
AcDbEntity
  8
PART_PADS_SMD_BTM
100
AcDbPolyline
 90
        4
 70
         1
 43
0.0
 10
16225.0
 20
11125.0
 42
-1.000000
 10
16225.0
 20
10775.0
 10
15700.0
 20
10775.0
 10
15700.0
 20
11125.0
  0
LWPOLYLINE
  5
2C6
100
AcDbEntity
  8
PART_PADS_SMD_BTM
100
AcDbPolyline
 90
        4
 70
         1
 43
0.0
 10
16225.0
 20
11775.0
 42
-1.000000
 10
16225.0
 20
11425.0
 10
15700.0
 20
11425.0
 10
15700.0
 20
11775.0
  0
LWPOLYLINE
  5
2C7
100
AcDbEntity
  8
PART_PADS_SMD_BTM
100
AcDbPolyline
 90
        4
 70
         1
 43
0.0
 10
16225.0
 20
9175.0
 42
-1.000000
 10
16225.0
 20
8825.0
 10
15700.0
 20
8825.0
 10
15700.0
 20
9175.0
  0
LWPOLYLINE
  5
2C8
100
AcDbEntity
  8
PART_PADS_SMD_BTM
100
AcDbPolyline
 90
        4
 70
         1
 43
0.0
 10
19675.0
 20
11425.0
 42
-1.000000
 10
19675.0
 20
11775.0
 10
20200.0
 20
11775.0
 10
20200.0
 20
11425.0
  0
LWPOLYLINE
  5
2C9
100
AcDbEntity
  8
PART_PADS_SMD_BTM
100
AcDbPolyline
 90
        4
 70
         1
 43
0.0
 10
16550.0
 20
8550.0
 10
16550.0
 20
12050.0
 10
19350.0
 20
12050.0
 10
19350.0
 20
8550.0
  0
LWPOLYLINE
  5
2CA
100
AcDbEntity
  8
PART_PADS_SMD_BTM
100
AcDbPolyline
 90
        4
 70
         1
 43
0.0
 10
14350.0
 20
20450.0
 10
14350.0
 20
20950.0
 10
14850.0
 20
20950.0
 10
14850.0
 20
20450.0
  0
LWPOLYLINE
  5
2CB
100
AcDbEntity
  8
PART_PADS_SMD_BTM
100
AcDbPolyline
 90
        4
 70
         1
 43
0.0
 10
15050.0
 20
20450.0
 10
15050.0
 20
20950.0
 10
15550.0
 20
20950.0
 10
15550.0
 20
20450.0
  0
LWPOLYLINE
  5
2CC
100
AcDbEntity
  8
PART_PADS_SMD_BTM
100
AcDbPolyline
 90
        4
 70
         1
 43
0.0
 10
15050.0
 20
21150.0
 10
15050.0
 20
21650.0
 10
15550.0
 20
21650.0
 10
15550.0
 20
21150.0
  0
LWPOLYLINE
  5
2CD
100
AcDbEntity
  8
PART_PADS_SMD_BTM
100
AcDbPolyline
 90
        4
 70
         1
 43
0.0
 10
15050.0
 20
19750.0
 10
15050.0
 20
20250.0
 10
15550.0
 20
20250.0
 10
15550.0
 20
19750.0
  0
LWPOLYLINE
  5
2CE
100
AcDbEntity
  8
PART_PADS_SMD_BTM
100
AcDbPolyline
 90
        4
 70
         1
 43
0.0
 10
5324.25
 20
6183.0
 10
5324.25
 20
7083.0
 10
6124.25
 20
7083.0
 10
6124.25
 20
6183.0
  0
LWPOLYLINE
  5
2CF
100
AcDbEntity
  8
PART_PADS_SMD_BTM
100
AcDbPolyline
 90
        4
 70
         1
 43
0.0
 10
6911.75
 20
6183.0
 10
6911.75
 20
7083.0
 10
7711.75
 20
7083.0
 10
7711.75
 20
6183.0
  0
LWPOLYLINE
  5
2D0
100
AcDbEntity
  8
PART_PADS_SMD_BTM
100
AcDbPolyline
 90
        4
 70
         1
 43
0.0
 10
18980.0
 20
13775.0
 10
18980.0
 20
14225.0
 10
19400.0
 20
14225.0
 10
19400.0
 20
13775.0
  0
LWPOLYLINE
  5
2D1
100
AcDbEntity
  8
PART_PADS_SMD_BTM
100
AcDbPolyline
 90
        4
 70
         1
 43
0.0
 10
18402.5
 20
14100.0
 10
18402.5
 20
14275.0
 10
18777.5
 20
14275.0
 10
18777.5
 20
14100.0
  0
LWPOLYLINE
  5
2D2
100
AcDbEntity
  8
PART_PADS_SMD_BTM
100
AcDbPolyline
 90
        4
 70
         1
 43
0.0
 10
18402.5
 20
13725.0
 10
18402.5
 20
13900.0
 10
18777.5
 20
13900.0
 10
18777.5
 20
13725.0
  0
LWPOLYLINE
  5
2D3
100
AcDbEntity
  8
PART_PADS_SMD_BTM
100
AcDbPolyline
 90
        4
 70
         1
 43
0.0
 10
8450.0
 20
21393.75
 10
8450.0
 20
22193.75
 10
9350.0
 20
22193.75
 10
9350.0
 20
21393.75
  0
LWPOLYLINE
  5
2D4
100
AcDbEntity
  8
PART_PADS_SMD_BTM
100
AcDbPolyline
 90
        4
 70
         1
 43
0.0
 10
8450.0
 20
19806.25
 10
8450.0
 20
20606.25
 10
9350.0
 20
20606.25
 10
9350.0
 20
19806.25
  0
LWPOLYLINE
  5
2D5
100
AcDbEntity
  8
PART_PADS_SMD_BTM
100
AcDbPolyline
 90
        4
 70
         1
 43
0.0
 10
10900.0
 20
17380.0
 10
10900.0
 20
17680.0
 10
11700.0
 20
17680.0
 10
11700.0
 20
17380.0
  0
LWPOLYLINE
  5
2D6
100
AcDbEntity
  8
PART_PADS_SMD_BTM
100
AcDbPolyline
 90
        4
 70
         1
 43
0.0
 10
10900.0
 20
16080.0
 10
10900.0
 20
16380.0
 10
11700.0
 20
16380.0
 10
11700.0
 20
16080.0
  0
LWPOLYLINE
  5
2D7
100
AcDbEntity
  8
PART_PADS_SMD_BTM
100
AcDbPolyline
 90
        4
 70
         1
 43
0.0
 10
12900.0
 20
17380.0
 10
12900.0
 20
17680.0
 10
13700.0
 20
17680.0
 10
13700.0
 20
17380.0
  0
LWPOLYLINE
  5
2D8
100
AcDbEntity
  8
PART_PADS_SMD_BTM
100
AcDbPolyline
 90
        4
 70
         1
 43
0.0
 10
12900.0
 20
16080.0
 10
12900.0
 20
16380.0
 10
13700.0
 20
16380.0
 10
13700.0
 20
16080.0
  0
LWPOLYLINE
  5
2D9
100
AcDbEntity
  8
PART_PADS_SMD_BTM
100
AcDbPolyline
 90
        4
 70
         1
 43
0.0
 10
10900.0
 20
16730.0
 10
10900.0
 20
17030.0
 10
11700.0
 20
17030.0
 10
11700.0
 20
16730.0
  0
LWPOLYLINE
  5
2DA
100
AcDbEntity
  8
PART_PADS_SMD_BTM
100
AcDbPolyline
 90
        4
 70
         1
 43
0.0
 10
12900.0
 20
16730.0
 10
12900.0
 20
17030.0
 10
13700.0
 20
17030.0
 10
13700.0
 20
16730.0
  0
LWPOLYLINE
  5
2DB
100
AcDbEntity
  8
PART_PADS_SMD_BTM
100
AcDbPolyline
 90
        4
 70
         1
 43
0.0
 10
25756.25
 20
20200.0
 10
25756.25
 20
21100.0
 10
26556.25
 20
21100.0
 10
26556.25
 20
20200.0
  0
LWPOLYLINE
  5
2DC
100
AcDbEntity
  8
PART_PADS_SMD_BTM
100
AcDbPolyline
 90
        4
 70
         1
 43
0.0
 10
27343.75
 20
20200.0
 10
27343.75
 20
21100.0
 10
28143.75
 20
21100.0
 10
28143.75
 20
20200.0
  0
LWPOLYLINE
  5
2DD
100
AcDbEntity
  8
PART_PADS_SMD_BTM
100
AcDbPolyline
 90
        4
 70
         1
 43
0.0
 10
13000.0
 20
5206.25
 10
13000.0
 20
6006.25
 10
13900.0
 20
6006.25
 10
13900.0
 20
5206.25
  0
LWPOLYLINE
  5
2DE
100
AcDbEntity
  8
PART_PADS_SMD_BTM
100
AcDbPolyline
 90
        4
 70
         1
 43
0.0
 10
13000.0
 20
6793.75
 10
13000.0
 20
7593.75
 10
13900.0
 20
7593.75
 10
13900.0
 20
6793.75
  0
LWPOLYLINE
  5
2DF
100
AcDbEntity
  8
PART_PADS_SMD_BTM
100
AcDbPolyline
 90
        4
 70
         1
 43
0.0
 10
30900.0
 20
9900.0
 10
30900.0
 20
10300.0
 10
31400.0
 20
10300.0
 10
31400.0
 20
9900.0
  0
LWPOLYLINE
  5
2E0
100
AcDbEntity
  8
PART_PADS_SMD_BTM
100
AcDbPolyline
 90
        4
 70
         1
 43
0.0
 10
30900.0
 20
10700.0
 10
30900.0
 20
11100.0
 10
31400.0
 20
11100.0
 10
31400.0
 20
10700.0
  0
LWPOLYLINE
  5
2E1
100
AcDbEntity
  8
PART_PADS_SMD_BTM
100
AcDbPolyline
 90
        4
 70
         1
 43
0.0
 10
11700.0
 20
18450.0
 10
11700.0
 20
18950.0
 10
12100.0
 20
18950.0
 10
12100.0
 20
18450.0
  0
LWPOLYLINE
  5
2E2
100
AcDbEntity
  8
PART_PADS_SMD_BTM
100
AcDbPolyline
 90
        4
 70
         1
 43
0.0
 10
12500.0
 20
18450.0
 10
12500.0
 20
18950.0
 10
12900.0
 20
18950.0
 10
12900.0
 20
18450.0
  0
LWPOLYLINE
  5
2E3
100
AcDbEntity
  8
PART_PADS_SMD_BTM
100
AcDbPolyline
 90
        4
 70
         1
 43
0.0
 10
29450.0
 20
25600.0
 10
29450.0
 20
26100.0
 10
29850.0
 20
26100.0
 10
29850.0
 20
25600.0
  0
LWPOLYLINE
  5
2E4
100
AcDbEntity
  8
PART_PADS_SMD_BTM
100
AcDbPolyline
 90
        4
 70
         1
 43
0.0
 10
30250.0
 20
25600.0
 10
30250.0
 20
26100.0
 10
30650.0
 20
26100.0
 10
30650.0
 20
25600.0
  0
LWPOLYLINE
  5
2E5
100
AcDbEntity
  8
PART_PADS_SMD_BTM
100
AcDbPolyline
 90
        4
 70
         1
 43
0.0
 10
1150.0
 20
11150.0
 10
1150.0
 20
11550.0
 10
1650.0
 20
11550.0
 10
1650.0
 20
11150.0
  0
LWPOLYLINE
  5
2E6
100
AcDbEntity
  8
PART_PADS_SMD_BTM
100
AcDbPolyline
 90
        4
 70
         1
 43
0.0
 10
1150.0
 20
10350.0
 10
1150.0
 20
10750.0
 10
1650.0
 20
10750.0
 10
1650.0
 20
10350.0
  0
LWPOLYLINE
  5
2E7
100
AcDbEntity
  8
PART_PADS_SMD_BTM
100
AcDbPolyline
 90
        4
 70
         1
 43
0.0
 10
21030.0
 20
13825.0
 10
21030.0
 20
14275.0
 10
21450.0
 20
14275.0
 10
21450.0
 20
13825.0
  0
LWPOLYLINE
  5
2E8
100
AcDbEntity
  8
PART_PADS_SMD_BTM
100
AcDbPolyline
 90
        4
 70
         1
 43
0.0
 10
20452.5
 20
14150.0
 10
20452.5
 20
14325.0
 10
20827.5
 20
14325.0
 10
20827.5
 20
14150.0
  0
LWPOLYLINE
  5
2E9
100
AcDbEntity
  8
PART_PADS_SMD_BTM
100
AcDbPolyline
 90
        4
 70
         1
 43
0.0
 10
20452.5
 20
13775.0
 10
20452.5
 20
13950.0
 10
20827.5
 20
13950.0
 10
20827.5
 20
13775.0
  0
LWPOLYLINE
  5
2EA
100
AcDbEntity
  8
PART_PADS_SMD_BTM
100
AcDbPolyline
 90
        4
 70
         1
 43
0.0
 10
27900.0
 20
28600.0
 10
27900.0
 20
29100.0
 10
28300.0
 20
29100.0
 10
28300.0
 20
28600.0
  0
LWPOLYLINE
  5
2EB
100
AcDbEntity
  8
PART_PADS_SMD_BTM
100
AcDbPolyline
 90
        4
 70
         1
 43
0.0
 10
27100.0
 20
28600.0
 10
27100.0
 20
29100.0
 10
27500.0
 20
29100.0
 10
27500.0
 20
28600.0
  0
LWPOLYLINE
  5
2EC
100
AcDbEntity
  8
PART_PADS_SMD_BTM
100
AcDbPolyline
 90
        4
 70
         1
 43
0.0
 10
6850.0
 20
7356.25
 10
6850.0
 20
8156.25
 10
7750.0
 20
8156.25
 10
7750.0
 20
7356.25
  0
LWPOLYLINE
  5
2ED
100
AcDbEntity
  8
PART_PADS_SMD_BTM
100
AcDbPolyline
 90
        4
 70
         1
 43
0.0
 10
6850.0
 20
8943.75
 10
6850.0
 20
9743.75
 10
7750.0
 20
9743.75
 10
7750.0
 20
8943.75
  0
LWPOLYLINE
  5
2EE
100
AcDbEntity
  8
PART_PADS_SMD_BTM
100
AcDbPolyline
 90
        4
 70
         1
 43
0.0
 10
1875.0
 20
10600.0
 10
1875.0
 20
11800.0
 10
2325.0
 20
11800.0
 10
2325.0
 20
10600.0
  0
LWPOLYLINE
  5
2EF
100
AcDbEntity
  8
PART_PADS_SMD_BTM
100
AcDbPolyline
 90
        4
 70
         1
 43
0.0
 10
3775.0
 20
10600.0
 10
3775.0
 20
11800.0
 10
4225.0
 20
11800.0
 10
4225.0
 20
10600.0
  0
LWPOLYLINE
  5
2F0
100
AcDbEntity
  8
PART_PADS_SMD_BTM
100
AcDbPolyline
 90
        4
 70
         1
 43
0.0
 10
2825.0
 20
13400.0
 10
2825.0
 20
14600.0
 10
3275.0
 20
14600.0
 10
3275.0
 20
13400.0
  0
LWPOLYLINE
  5
2F1
100
AcDbEntity
  8
PART_PADS_SMD_BTM
100
AcDbPolyline
 90
        4
 70
         1
 43
0.0
 10
1875.0
 20
13400.0
 10
1875.0
 20
14600.0
 10
2325.0
 20
14600.0
 10
2325.0
 20
13400.0
  0
LWPOLYLINE
  5
2F2
100
AcDbEntity
  8
PART_PADS_SMD_BTM
100
AcDbPolyline
 90
        4
 70
         1
 43
0.0
 10
3775.0
 20
13400.0
 10
3775.0
 20
14600.0
 10
4225.0
 20
14600.0
 10
4225.0
 20
13400.0
  0
LWPOLYLINE
  5
2F3
100
AcDbEntity
  8
PART_PADS_SMD_BTM
100
AcDbPolyline
 90
        4
 70
         1
 43
0.0
 10
9600.0
 20
25350.0
 10
9600.0
 20
26050.0
 10
9900.0
 20
26050.0
 10
9900.0
 20
25350.0
  0
LWPOLYLINE
  5
2F4
100
AcDbEntity
  8
PART_PADS_SMD_BTM
100
AcDbPolyline
 90
        4
 70
         1
 43
0.0
 10
10100.0
 20
25350.0
 10
10100.0
 20
26050.0
 10
10400.0
 20
26050.0
 10
10400.0
 20
25350.0
  0
LWPOLYLINE
  5
2F5
100
AcDbEntity
  8
PART_PADS_SMD_BTM
100
AcDbPolyline
 90
        4
 70
         1
 43
0.0
 10
10600.0
 20
25350.0
 10
10600.0
 20
26050.0
 10
10900.0
 20
26050.0
 10
10900.0
 20
25350.0
  0
LWPOLYLINE
  5
2F6
100
AcDbEntity
  8
PART_PADS_SMD_BTM
100
AcDbPolyline
 90
        4
 70
         1
 43
0.0
 10
11600.0
 20
25350.0
 10
11600.0
 20
26050.0
 10
11900.0
 20
26050.0
 10
11900.0
 20
25350.0
  0
LWPOLYLINE
  5
2F7
100
AcDbEntity
  8
PART_PADS_SMD_BTM
100
AcDbPolyline
 90
        4
 70
         1
 43
0.0
 10
12100.0
 20
25350.0
 10
12100.0
 20
26050.0
 10
12400.0
 20
26050.0
 10
12400.0
 20
25350.0
  0
LWPOLYLINE
  5
2F8
100
AcDbEntity
  8
PART_PADS_SMD_BTM
100
AcDbPolyline
 90
        4
 70
         1
 43
0.0
 10
12600.0
 20
25350.0
 10
12600.0
 20
26050.0
 10
12900.0
 20
26050.0
 10
12900.0
 20
25350.0
  0
LWPOLYLINE
  5
2F9
100
AcDbEntity
  8
PART_PADS_SMD_BTM
100
AcDbPolyline
 90
        4
 70
         1
 43
0.0
 10
13100.0
 20
25350.0
 10
13100.0
 20
26050.0
 10
13400.0
 20
26050.0
 10
13400.0
 20
25350.0
  0
LWPOLYLINE
  5
2FA
100
AcDbEntity
  8
PART_PADS_SMD_BTM
100
AcDbPolyline
 90
        4
 70
         1
 43
0.0
 10
13600.0
 20
25350.0
 10
13600.0
 20
26050.0
 10
13900.0
 20
26050.0
 10
13900.0
 20
25350.0
  0
LWPOLYLINE
  5
2FB
100
AcDbEntity
  8
PART_PADS_SMD_BTM
100
AcDbPolyline
 90
        4
 70
         1
 43
0.0
 10
11100.0
 20
25350.0
 10
11100.0
 20
26050.0
 10
11400.0
 20
26050.0
 10
11400.0
 20
25350.0
  0
LWPOLYLINE
  5
2FC
100
AcDbEntity
  8
PART_PADS_SMD_BTM
100
AcDbPolyline
 90
        4
 70
         1
 43
0.0
 10
14100.0
 20
25350.0
 10
14100.0
 20
26050.0
 10
14400.0
 20
26050.0
 10
14400.0
 20
25350.0
  0
LWPOLYLINE
  5
2FD
100
AcDbEntity
  8
PART_PADS_SMD_BTM
100
AcDbPolyline
 90
        4
 70
         1
 43
0.0
 10
16600.0
 20
25350.0
 10
16600.0
 20
26050.0
 10
16900.0
 20
26050.0
 10
16900.0
 20
25350.0
  0
LWPOLYLINE
  5
2FE
100
AcDbEntity
  8
PART_PADS_SMD_BTM
100
AcDbPolyline
 90
        4
 70
         1
 43
0.0
 10
14600.0
 20
25350.0
 10
14600.0
 20
26050.0
 10
14900.0
 20
26050.0
 10
14900.0
 20
25350.0
  0
LWPOLYLINE
  5
2FF
100
AcDbEntity
  8
PART_PADS_SMD_BTM
100
AcDbPolyline
 90
        4
 70
         1
 43
0.0
 10
15100.0
 20
25350.0
 10
15100.0
 20
26050.0
 10
15400.0
 20
26050.0
 10
15400.0
 20
25350.0
  0
LWPOLYLINE
  5
300
100
AcDbEntity
  8
PART_PADS_SMD_BTM
100
AcDbPolyline
 90
        4
 70
         1
 43
0.0
 10
16100.0
 20
25350.0
 10
16100.0
 20
26050.0
 10
16400.0
 20
26050.0
 10
16400.0
 20
25350.0
  0
LWPOLYLINE
  5
301
100
AcDbEntity
  8
PART_PADS_SMD_BTM
100
AcDbPolyline
 90
        4
 70
         1
 43
0.0
 10
24100.0
 20
25350.0
 10
24100.0
 20
26050.0
 10
24400.0
 20
26050.0
 10
24400.0
 20
25350.0
  0
LWPOLYLINE
  5
302
100
AcDbEntity
  8
PART_PADS_SMD_BTM
100
AcDbPolyline
 90
        4
 70
         1
 43
0.0
 10
23100.0
 20
30750.0
 10
23100.0
 20
31950.0
 10
23400.0
 20
31950.0
 10
23400.0
 20
30750.0
  0
LWPOLYLINE
  5
303
100
AcDbEntity
  8
PART_PADS_SMD_BTM
100
AcDbPolyline
 90
        4
 70
         1
 43
0.0
 10
20600.0
 20
30750.0
 10
20600.0
 20
31950.0
 10
20900.0
 20
31950.0
 10
20900.0
 20
30750.0
  0
LWPOLYLINE
  5
304
100
AcDbEntity
  8
PART_PADS_SMD_BTM
100
AcDbPolyline
 90
        4
 70
         1
 43
0.0
 10
18100.0
 20
30750.0
 10
18100.0
 20
31950.0
 10
18400.0
 20
31950.0
 10
18400.0
 20
30750.0
  0
LWPOLYLINE
  5
305
100
AcDbEntity
  8
PART_PADS_SMD_BTM
100
AcDbPolyline
 90
        4
 70
         1
 43
0.0
 10
15600.0
 20
30750.0
 10
15600.0
 20
31950.0
 10
15900.0
 20
31950.0
 10
15900.0
 20
30750.0
  0
LWPOLYLINE
  5
306
100
AcDbEntity
  8
PART_PADS_SMD_BTM
100
AcDbPolyline
 90
        4
 70
         1
 43
0.0
 10
13100.0
 20
30750.0
 10
13100.0
 20
31950.0
 10
13400.0
 20
31950.0
 10
13400.0
 20
30750.0
  0
LWPOLYLINE
  5
307
100
AcDbEntity
  8
PART_PADS_SMD_BTM
100
AcDbPolyline
 90
        4
 70
         1
 43
0.0
 10
10600.0
 20
30750.0
 10
10600.0
 20
31950.0
 10
10900.0
 20
31950.0
 10
10900.0
 20
30750.0
  0
LWPOLYLINE
  5
308
100
AcDbEntity
  8
PART_PADS_SMD_BTM
100
AcDbPolyline
 90
        4
 70
         1
 43
0.0
 10
8285.0
 20
30100.0
 10
8285.0
 20
31700.0
 10
8715.0
 20
31700.0
 10
8715.0
 20
30100.0
  0
LWPOLYLINE
  5
309
100
AcDbEntity
  8
PART_PADS_SMD_BTM
100
AcDbPolyline
 90
        4
 70
         1
 43
0.0
 10
25285.0
 20
30100.0
 10
25285.0
 20
31700.0
 10
25715.0
 20
31700.0
 10
25715.0
 20
30100.0
  0
LWPOLYLINE
  5
30A
100
AcDbEntity
  8
PART_PADS_SMD_BTM
100
AcDbPolyline
 90
        4
 70
         1
 43
0.0
 10
15600.0
 20
25350.0
 10
15600.0
 20
26050.0
 10
15900.0
 20
26050.0
 10
15900.0
 20
25350.0
  0
LWPOLYLINE
  5
30B
100
AcDbEntity
  8
PART_PADS_SMD_BTM
100
AcDbPolyline
 90
        4
 70
         1
 43
0.0
 10
19600.0
 20
25350.0
 10
19600.0
 20
26050.0
 10
19900.0
 20
26050.0
 10
19900.0
 20
25350.0
  0
LWPOLYLINE
  5
30C
100
AcDbEntity
  8
PART_PADS_SMD_BTM
100
AcDbPolyline
 90
        4
 70
         1
 43
0.0
 10
21100.0
 20
25350.0
 10
21100.0
 20
26050.0
 10
21400.0
 20
26050.0
 10
21400.0
 20
25350.0
  0
LWPOLYLINE
  5
30D
100
AcDbEntity
  8
PART_PADS_SMD_BTM
100
AcDbPolyline
 90
        4
 70
         1
 43
0.0
 10
18100.0
 20
25350.0
 10
18100.0
 20
26050.0
 10
18400.0
 20
26050.0
 10
18400.0
 20
25350.0
  0
LWPOLYLINE
  5
30E
100
AcDbEntity
  8
PART_PADS_SMD_BTM
100
AcDbPolyline
 90
        4
 70
         1
 43
0.0
 10
22600.0
 20
25350.0
 10
22600.0
 20
26050.0
 10
22900.0
 20
26050.0
 10
22900.0
 20
25350.0
  0
LWPOLYLINE
  5
30F
100
AcDbEntity
  8
PART_PADS_SMD_BTM
100
AcDbPolyline
 90
        4
 70
         1
 43
0.0
 10
20600.0
 20
25350.0
 10
20600.0
 20
26050.0
 10
20900.0
 20
26050.0
 10
20900.0
 20
25350.0
  0
LWPOLYLINE
  5
310
100
AcDbEntity
  8
PART_PADS_SMD_BTM
100
AcDbPolyline
 90
        4
 70
         1
 43
0.0
 10
20100.0
 20
25350.0
 10
20100.0
 20
26050.0
 10
20400.0
 20
26050.0
 10
20400.0
 20
25350.0
  0
LWPOLYLINE
  5
311
100
AcDbEntity
  8
PART_PADS_SMD_BTM
100
AcDbPolyline
 90
        4
 70
         1
 43
0.0
 10
21600.0
 20
25350.0
 10
21600.0
 20
26050.0
 10
21900.0
 20
26050.0
 10
21900.0
 20
25350.0
  0
LWPOLYLINE
  5
312
100
AcDbEntity
  8
PART_PADS_SMD_BTM
100
AcDbPolyline
 90
        4
 70
         1
 43
0.0
 10
22100.0
 20
25350.0
 10
22100.0
 20
26050.0
 10
22400.0
 20
26050.0
 10
22400.0
 20
25350.0
  0
LWPOLYLINE
  5
313
100
AcDbEntity
  8
PART_PADS_SMD_BTM
100
AcDbPolyline
 90
        4
 70
         1
 43
0.0
 10
23600.0
 20
25350.0
 10
23600.0
 20
26050.0
 10
23900.0
 20
26050.0
 10
23900.0
 20
25350.0
  0
LWPOLYLINE
  5
314
100
AcDbEntity
  8
PART_PADS_SMD_BTM
100
AcDbPolyline
 90
        4
 70
         1
 43
0.0
 10
23100.0
 20
25350.0
 10
23100.0
 20
26050.0
 10
23400.0
 20
26050.0
 10
23400.0
 20
25350.0
  0
LWPOLYLINE
  5
315
100
AcDbEntity
  8
PART_PADS_SMD_BTM
100
AcDbPolyline
 90
        4
 70
         1
 43
0.0
 10
17100.0
 20
25350.0
 10
17100.0
 20
26050.0
 10
17400.0
 20
26050.0
 10
17400.0
 20
25350.0
  0
LWPOLYLINE
  5
316
100
AcDbEntity
  8
PART_PADS_SMD_BTM
100
AcDbPolyline
 90
        4
 70
         1
 43
0.0
 10
17600.0
 20
25350.0
 10
17600.0
 20
26050.0
 10
17900.0
 20
26050.0
 10
17900.0
 20
25350.0
  0
LWPOLYLINE
  5
317
100
AcDbEntity
  8
PART_PADS_SMD_BTM
100
AcDbPolyline
 90
        4
 70
         1
 43
0.0
 10
18600.0
 20
25350.0
 10
18600.0
 20
26050.0
 10
18900.0
 20
26050.0
 10
18900.0
 20
25350.0
  0
LWPOLYLINE
  5
318
100
AcDbEntity
  8
PART_PADS_SMD_BTM
100
AcDbPolyline
 90
        4
 70
         1
 43
0.0
 10
19100.0
 20
25350.0
 10
19100.0
 20
26050.0
 10
19400.0
 20
26050.0
 10
19400.0
 20
25350.0
  0
LWPOLYLINE
  5
319
100
AcDbEntity
  8
PART_PADS_SMD_BTM
100
AcDbPolyline
 90
        4
 70
         1
 43
0.0
 10
5850.0
 20
7350.0
 10
5850.0
 20
7750.0
 10
6350.0
 20
7750.0
 10
6350.0
 20
7350.0
  0
LWPOLYLINE
  5
31A
100
AcDbEntity
  8
PART_PADS_SMD_BTM
100
AcDbPolyline
 90
        4
 70
         1
 43
0.0
 10
5850.0
 20
8150.0
 10
5850.0
 20
8550.0
 10
6350.0
 20
8550.0
 10
6350.0
 20
8150.0
  0
LWPOLYLINE
  5
31B
100
AcDbEntity
  8
PART_PADS_SMD_BTM
100
AcDbPolyline
 90
        4
 70
         1
 43
0.0
 10
30093.75
 20
20200.0
 10
30093.75
 20
21100.0
 10
30893.75
 20
21100.0
 10
30893.75
 20
20200.0
  0
LWPOLYLINE
  5
31C
100
AcDbEntity
  8
PART_PADS_SMD_BTM
100
AcDbPolyline
 90
        4
 70
         1
 43
0.0
 10
28506.25
 20
20200.0
 10
28506.25
 20
21100.0
 10
29306.25
 20
21100.0
 10
29306.25
 20
20200.0
  0
LWPOLYLINE
  5
31D
100
AcDbEntity
  8
PART_PADS_SMD_BTM
100
AcDbPolyline
 90
        4
 70
         1
 43
0.0
 10
7550.0
 20
22650.0
 10
7550.0
 20
23150.0
 10
7950.0
 20
23150.0
 10
7950.0
 20
22650.0
  0
LWPOLYLINE
  5
31E
100
AcDbEntity
  8
PART_PADS_SMD_BTM
100
AcDbPolyline
 90
        4
 70
         1
 43
0.0
 10
6750.0
 20
22650.0
 10
6750.0
 20
23150.0
 10
7150.0
 20
23150.0
 10
7150.0
 20
22650.0
  0
LWPOLYLINE
  5
31F
100
AcDbEntity
  8
PART_PADS_SMD_BTM
100
AcDbPolyline
 90
        4
 70
         1
 43
0.0
 10
27150.0
 20
10450.0
 10
27150.0
 20
10950.0
 10
27550.0
 20
10950.0
 10
27550.0
 20
10450.0
  0
LWPOLYLINE
  5
320
100
AcDbEntity
  8
PART_PADS_SMD_BTM
100
AcDbPolyline
 90
        4
 70
         1
 43
0.0
 10
26350.0
 20
10450.0
 10
26350.0
 20
10950.0
 10
26750.0
 20
10950.0
 10
26750.0
 20
10450.0
  0
LWPOLYLINE
  5
321
100
AcDbEntity
  8
PART_PADS_SMD_BTM
100
AcDbPolyline
 90
        4
 70
         1
 43
0.0
 10
2750.0
 20
9250.0
 10
2750.0
 20
9650.0
 10
3250.0
 20
9650.0
 10
3250.0
 20
9250.0
  0
LWPOLYLINE
  5
322
100
AcDbEntity
  8
PART_PADS_SMD_BTM
100
AcDbPolyline
 90
        4
 70
         1
 43
0.0
 10
2750.0
 20
10050.0
 10
2750.0
 20
10450.0
 10
3250.0
 20
10450.0
 10
3250.0
 20
10050.0
  0
LWPOLYLINE
  5
323
100
AcDbEntity
  8
PART_PADS_SMD_BTM
100
AcDbPolyline
 90
        4
 70
         1
 43
0.0
 10
14000.0
 20
17150.0
 10
14000.0
 20
17550.0
 10
14500.0
 20
17550.0
 10
14500.0
 20
17150.0
  0
LWPOLYLINE
  5
324
100
AcDbEntity
  8
PART_PADS_SMD_BTM
100
AcDbPolyline
 90
        4
 70
         1
 43
0.0
 10
14000.0
 20
17950.0
 10
14000.0
 20
18350.0
 10
14500.0
 20
18350.0
 10
14500.0
 20
17950.0
  0
LWPOLYLINE
  5
325
100
AcDbEntity
  8
PART_PADS_SMD_BTM
100
AcDbPolyline
 90
        4
 70
         1
 43
0.0
 10
14000.0
 20
15650.0
 10
14000.0
 20
16050.0
 10
14500.0
 20
16050.0
 10
14500.0
 20
15650.0
  0
LWPOLYLINE
  5
326
100
AcDbEntity
  8
PART_PADS_SMD_BTM
100
AcDbPolyline
 90
        4
 70
         1
 43
0.0
 10
14000.0
 20
16450.0
 10
14000.0
 20
16850.0
 10
14500.0
 20
16850.0
 10
14500.0
 20
16450.0
  0
LWPOLYLINE
  5
327
100
AcDbEntity
  8
PART_PADS_SMD_BTM
100
AcDbPolyline
 90
        4
 70
         1
 43
0.0
 10
10000.0
 20
11500.0
 10
10000.0
 20
11900.0
 10
10500.0
 20
11900.0
 10
10500.0
 20
11500.0
  0
LWPOLYLINE
  5
328
100
AcDbEntity
  8
PART_PADS_SMD_BTM
100
AcDbPolyline
 90
        4
 70
         1
 43
0.0
 10
10000.0
 20
10700.0
 10
10000.0
 20
11100.0
 10
10500.0
 20
11100.0
 10
10500.0
 20
10700.0
  0
LWPOLYLINE
  5
329
100
AcDbEntity
  8
PART_PADS_SMD_BTM
100
AcDbPolyline
 90
        4
 70
         1
 43
0.0
 10
10250.0
 20
17850.0
 10
10250.0
 20
18350.0
 10
10650.0
 20
18350.0
 10
10650.0
 20
17850.0
  0
LWPOLYLINE
  5
32A
100
AcDbEntity
  8
PART_PADS_SMD_BTM
100
AcDbPolyline
 90
        4
 70
         1
 43
0.0
 10
9450.0
 20
17850.0
 10
9450.0
 20
18350.0
 10
9850.0
 20
18350.0
 10
9850.0
 20
17850.0
  0
LWPOLYLINE
  5
32B
100
AcDbEntity
  8
PART_PADS_SMD_BTM
100
AcDbPolyline
 90
        4
 70
         1
 43
0.0
 10
10250.0
 20
15600.0
 10
10250.0
 20
16100.0
 10
10650.0
 20
16100.0
 10
10650.0
 20
15600.0
  0
LWPOLYLINE
  5
32C
100
AcDbEntity
  8
PART_PADS_SMD_BTM
100
AcDbPolyline
 90
        4
 70
         1
 43
0.0
 10
9450.0
 20
15600.0
 10
9450.0
 20
16100.0
 10
9850.0
 20
16100.0
 10
9850.0
 20
15600.0
  0
LWPOLYLINE
  5
32D
100
AcDbEntity
  8
PART_PADS_SMD_BTM
100
AcDbPolyline
 90
        4
 70
         1
 43
0.0
 10
4900.0
 20
12000.0
 10
4900.0
 20
12400.0
 10
5400.0
 20
12400.0
 10
5400.0
 20
12000.0
  0
LWPOLYLINE
  5
32E
100
AcDbEntity
  8
PART_PADS_SMD_BTM
100
AcDbPolyline
 90
        4
 70
         1
 43
0.0
 10
4900.0
 20
12800.0
 10
4900.0
 20
13200.0
 10
5400.0
 20
13200.0
 10
5400.0
 20
12800.0
  0
LWPOLYLINE
  5
32F
100
AcDbEntity
  8
PART_PADS_SMD_BTM
100
AcDbPolyline
 90
        4
 70
         1
 43
0.0
 10
17700.0
 20
14200.0
 10
17700.0
 20
14600.0
 10
18200.0
 20
14600.0
 10
18200.0
 20
14200.0
  0
LWPOLYLINE
  5
330
100
AcDbEntity
  8
PART_PADS_SMD_BTM
100
AcDbPolyline
 90
        4
 70
         1
 43
0.0
 10
17700.0
 20
13400.0
 10
17700.0
 20
13800.0
 10
18200.0
 20
13800.0
 10
18200.0
 20
13400.0
  0
LWPOLYLINE
  5
331
100
AcDbEntity
  8
PART_PADS_SMD_BTM
100
AcDbPolyline
 90
        4
 70
         1
 43
0.0
 10
12800.0
 20
22650.0
 10
12800.0
 20
23150.0
 10
13200.0
 20
23150.0
 10
13200.0
 20
22650.0
  0
LWPOLYLINE
  5
332
100
AcDbEntity
  8
PART_PADS_SMD_BTM
100
AcDbPolyline
 90
        4
 70
         1
 43
0.0
 10
12000.0
 20
22650.0
 10
12000.0
 20
23150.0
 10
12400.0
 20
23150.0
 10
12400.0
 20
22650.0
  0
LWPOLYLINE
  5
333
100
AcDbEntity
  8
PART_PADS_SMD_BTM
100
AcDbPolyline
 90
        4
 70
         1
 43
0.0
 10
19750.0
 20
14250.0
 10
19750.0
 20
14650.0
 10
20250.0
 20
14650.0
 10
20250.0
 20
14250.0
  0
LWPOLYLINE
  5
334
100
AcDbEntity
  8
PART_PADS_SMD_BTM
100
AcDbPolyline
 90
        4
 70
         1
 43
0.0
 10
19750.0
 20
13450.0
 10
19750.0
 20
13850.0
 10
20250.0
 20
13850.0
 10
20250.0
 20
13450.0
  0
LWPOLYLINE
  5
335
100
AcDbEntity
  8
PART_PADS_SMD_BTM
100
AcDbPolyline
 90
        4
 70
         1
 43
0.0
 10
12100.0
 20
4550.0
 10
12100.0
 20
4950.0
 10
12600.0
 20
4950.0
 10
12600.0
 20
4550.0
  0
LWPOLYLINE
  5
336
100
AcDbEntity
  8
PART_PADS_SMD_BTM
100
AcDbPolyline
 90
        4
 70
         1
 43
0.0
 10
12100.0
 20
3750.0
 10
12100.0
 20
4150.0
 10
12600.0
 20
4150.0
 10
12600.0
 20
3750.0
  0
LWPOLYLINE
  5
337
100
AcDbEntity
  8
PART_PADS_SMD_BTM
100
AcDbPolyline
 90
        4
 70
         1
 43
0.0
 10
12800.0
 20
23400.0
 10
12800.0
 20
23900.0
 10
13200.0
 20
23900.0
 10
13200.0
 20
23400.0
  0
LWPOLYLINE
  5
338
100
AcDbEntity
  8
PART_PADS_SMD_BTM
100
AcDbPolyline
 90
        4
 70
         1
 43
0.0
 10
12000.0
 20
23400.0
 10
12000.0
 20
23900.0
 10
12400.0
 20
23900.0
 10
12400.0
 20
23400.0
  0
LWPOLYLINE
  5
339
100
AcDbEntity
  8
PART_PADS_SMD_BTM
100
AcDbPolyline
 90
        4
 70
         1
 43
0.0
 10
14650.0
 20
23200.0
 10
14650.0
 20
23700.0
 10
15050.0
 20
23700.0
 10
15050.0
 20
23200.0
  0
LWPOLYLINE
  5
33A
100
AcDbEntity
  8
PART_PADS_SMD_BTM
100
AcDbPolyline
 90
        4
 70
         1
 43
0.0
 10
15450.0
 20
23200.0
 10
15450.0
 20
23700.0
 10
15850.0
 20
23700.0
 10
15850.0
 20
23200.0
  0
LWPOLYLINE
  5
33B
100
AcDbEntity
  8
PART_PADS_SMD_BTM
100
AcDbPolyline
 90
        4
 70
         1
 43
0.0
 10
29550.0
 20
6850.0
 10
29550.0
 20
7250.0
 10
30050.0
 20
7250.0
 10
30050.0
 20
6850.0
  0
LWPOLYLINE
  5
33C
100
AcDbEntity
  8
PART_PADS_SMD_BTM
100
AcDbPolyline
 90
        4
 70
         1
 43
0.0
 10
29550.0
 20
7650.0
 10
29550.0
 20
8050.0
 10
30050.0
 20
8050.0
 10
30050.0
 20
7650.0
  0
LWPOLYLINE
  5
33D
100
AcDbEntity
  8
PART_PADS_SMD_BTM
100
AcDbPolyline
 90
        4
 70
         1
 43
0.0
 10
13750.0
 20
23950.0
 10
13750.0
 20
24350.0
 10
14250.0
 20
24350.0
 10
14250.0
 20
23950.0
  0
LWPOLYLINE
  5
33E
100
AcDbEntity
  8
PART_PADS_SMD_BTM
100
AcDbPolyline
 90
        4
 70
         1
 43
0.0
 10
13750.0
 20
24750.0
 10
13750.0
 20
25150.0
 10
14250.0
 20
25150.0
 10
14250.0
 20
24750.0
  0
LWPOLYLINE
  5
33F
100
AcDbEntity
  8
PART_PADS_SMD_BTM
100
AcDbPolyline
 90
        4
 70
         1
 43
0.0
 10
30750.0
 20
16250.0
 10
30750.0
 20
16650.0
 10
31250.0
 20
16650.0
 10
31250.0
 20
16250.0
  0
LWPOLYLINE
  5
340
100
AcDbEntity
  8
PART_PADS_SMD_BTM
100
AcDbPolyline
 90
        4
 70
         1
 43
0.0
 10
30750.0
 20
17050.0
 10
30750.0
 20
17450.0
 10
31250.0
 20
17450.0
 10
31250.0
 20
17050.0
  0
LWPOLYLINE
  5
341
100
AcDbEntity
  8
PART_PADS_SMD_BTM
100
AcDbPolyline
 90
        4
 70
         1
 43
0.0
 10
10250.0
 20
17100.0
 10
10250.0
 20
17600.0
 10
10650.0
 20
17600.0
 10
10650.0
 20
17100.0
  0
LWPOLYLINE
  5
342
100
AcDbEntity
  8
PART_PADS_SMD_BTM
100
AcDbPolyline
 90
        4
 70
         1
 43
0.0
 10
9450.0
 20
17100.0
 10
9450.0
 20
17600.0
 10
9850.0
 20
17600.0
 10
9850.0
 20
17100.0
  0
LWPOLYLINE
  5
343
100
AcDbEntity
  8
PART_PADS_SMD_BTM
100
AcDbPolyline
 90
        4
 70
         1
 43
0.0
 10
10250.0
 20
16350.0
 10
10250.0
 20
16850.0
 10
10650.0
 20
16850.0
 10
10650.0
 20
16350.0
  0
LWPOLYLINE
  5
344
100
AcDbEntity
  8
PART_PADS_SMD_BTM
100
AcDbPolyline
 90
        4
 70
         1
 43
0.0
 10
9450.0
 20
16350.0
 10
9450.0
 20
16850.0
 10
9850.0
 20
16850.0
 10
9850.0
 20
16350.0
  0
LWPOLYLINE
  5
345
100
AcDbEntity
  8
PART_PADS_SMD_BTM
100
AcDbPolyline
 90
        4
 70
         1
 43
0.0
 10
12500.0
 20
19250.0
 10
12500.0
 20
19750.0
 10
12900.0
 20
19750.0
 10
12900.0
 20
19250.0
  0
LWPOLYLINE
  5
346
100
AcDbEntity
  8
PART_PADS_SMD_BTM
100
AcDbPolyline
 90
        4
 70
         1
 43
0.0
 10
11700.0
 20
19250.0
 10
11700.0
 20
19750.0
 10
12100.0
 20
19750.0
 10
12100.0
 20
19250.0
  0
LWPOLYLINE
  5
347
100
AcDbEntity
  8
PART_PADS_SMD_BTM
100
AcDbPolyline
 90
        4
 70
         1
 43
0.0
 10
2100.0
 20
17500.0
 10
2100.0
 20
17900.0
 10
2600.0
 20
17900.0
 10
2600.0
 20
17500.0
  0
LWPOLYLINE
  5
348
100
AcDbEntity
  8
PART_PADS_SMD_BTM
100
AcDbPolyline
 90
        4
 70
         1
 43
0.0
 10
2100.0
 20
16700.0
 10
2100.0
 20
17100.0
 10
2600.0
 20
17100.0
 10
2600.0
 20
16700.0
  0
LWPOLYLINE
  5
349
100
AcDbEntity
  8
PART_PADS_SMD_TOP
100
AcDbPolyline
 90
        4
 70
         1
 43
0.0
 10
16406.25
 20
12150.0
 10
16406.25
 20
13050.0
 10
17206.25
 20
13050.0
 10
17206.25
 20
12150.0
  0
LWPOLYLINE
  5
34A
100
AcDbEntity
  8
PART_PADS_SMD_TOP
100
AcDbPolyline
 90
        4
 70
         1
 43
0.0
 10
17993.75
 20
12150.0
 10
17993.75
 20
13050.0
 10
18793.75
 20
13050.0
 10
18793.75
 20
12150.0
  0
LWPOLYLINE
  5
34B
100
AcDbEntity
  8
PART_PADS_SMD_TOP
100
AcDbPolyline
 90
        4
 70
         1
 43
0.0
 10
12400.0
 20
14250.0
 10
12400.0
 20
14650.0
 10
12900.0
 20
14650.0
 10
12900.0
 20
14250.0
  0
LWPOLYLINE
  5
34C
100
AcDbEntity
  8
PART_PADS_SMD_TOP
100
AcDbPolyline
 90
        4
 70
         1
 43
0.0
 10
12400.0
 20
13450.0
 10
12400.0
 20
13850.0
 10
12900.0
 20
13850.0
 10
12900.0
 20
13450.0
  0
LWPOLYLINE
  5
34D
100
AcDbEntity
  8
PART_PADS_SMD_TOP
100
AcDbPolyline
 90
        4
 70
         1
 43
0.0
 10
22350.0
 20
22143.75
 10
22350.0
 20
22943.75
 10
23250.0
 20
22943.75
 10
23250.0
 20
22143.75
  0
LWPOLYLINE
  5
34E
100
AcDbEntity
  8
PART_PADS_SMD_TOP
100
AcDbPolyline
 90
        4
 70
         1
 43
0.0
 10
22350.0
 20
20556.25
 10
22350.0
 20
21356.25
 10
23250.0
 20
21356.25
 10
23250.0
 20
20556.25
  0
LWPOLYLINE
  5
34F
100
AcDbEntity
  8
PART_PADS_SMD_TOP
100
AcDbPolyline
 90
        4
 70
         1
 43
0.0
 10
11200.0
 20
17206.25
 10
11200.0
 20
18006.25
 10
12100.0
 20
18006.25
 10
12100.0
 20
17206.25
  0
LWPOLYLINE
  5
350
100
AcDbEntity
  8
PART_PADS_SMD_TOP
100
AcDbPolyline
 90
        4
 70
         1
 43
0.0
 10
11200.0
 20
18793.75
 10
11200.0
 20
19593.75
 10
12100.0
 20
19593.75
 10
12100.0
 20
18793.75
  0
LWPOLYLINE
  5
351
100
AcDbEntity
  8
PART_PADS_SMD_TOP
100
AcDbPolyline
 90
        4
 70
         1
 43
0.0
 10
20650.0
 20
13300.0
 10
20650.0
 20
13800.0
 10
21050.0
 20
13800.0
 10
21050.0
 20
13300.0
  0
LWPOLYLINE
  5
352
100
AcDbEntity
  8
PART_PADS_SMD_TOP
100
AcDbPolyline
 90
        4
 70
         1
 43
0.0
 10
19850.0
 20
13300.0
 10
19850.0
 20
13800.0
 10
20250.0
 20
13800.0
 10
20250.0
 20
13300.0
  0
LWPOLYLINE
  5
353
100
AcDbEntity
  8
PART_PADS_SMD_TOP
100
AcDbPolyline
 90
        4
 70
         1
 43
0.0
 10
20650.0
 20
12550.0
 10
20650.0
 20
13050.0
 10
21050.0
 20
13050.0
 10
21050.0
 20
12550.0
  0
LWPOLYLINE
  5
354
100
AcDbEntity
  8
PART_PADS_SMD_TOP
100
AcDbPolyline
 90
        4
 70
         1
 43
0.0
 10
19850.0
 20
12550.0
 10
19850.0
 20
13050.0
 10
20250.0
 20
13050.0
 10
20250.0
 20
12550.0
  0
CIRCLE
  5
355
100
AcDbEntity
  8
PART_PADS_SMD_TOP
100
AcDbCircle
 10
18400.0
 20
29100.0
 30
0.0
 40
0.5
  0
LWPOLYLINE
  5
356
100
AcDbEntity
  8
PART_PADS_SMD_TOP
100
AcDbPolyline
 90
        4
 70
         1
 43
0.0
 10
17600.0
 20
13300.0
 10
17600.0
 20
13800.0
 10
18000.0
 20
13800.0
 10
18000.0
 20
13300.0
  0
LWPOLYLINE
  5
357
100
AcDbEntity
  8
PART_PADS_SMD_TOP
100
AcDbPolyline
 90
        4
 70
         1
 43
0.0
 10
18400.0
 20
13300.0
 10
18400.0
 20
13800.0
 10
18800.0
 20
13800.0
 10
18800.0
 20
13300.0
  0
LWPOLYLINE
  5
358
100
AcDbEntity
  8
PART_PADS_SMD_TOP
100
AcDbPolyline
 90
        4
 70
         1
 43
0.0
 10
22075.0
 20
12950.0
 10
22075.0
 20
13800.0
 10
23325.0
 20
13800.0
 10
23325.0
 20
12950.0
  0
LWPOLYLINE
  5
359
100
AcDbEntity
  8
PART_PADS_SMD_TOP
100
AcDbPolyline
 90
        4
 70
         1
 43
0.0
 10
22075.0
 20
11400.0
 10
22075.0
 20
12250.0
 10
23325.0
 20
12250.0
 10
23325.0
 20
11400.0
  0
LWPOLYLINE
  5
35A
100
AcDbEntity
  8
PART_PADS_SMD_TOP
100
AcDbPolyline
 90
        4
 70
         1
 43
0.0
 10
11006.25
 20
12150.0
 10
11006.25
 20
13050.0
 10
11806.25
 20
13050.0
 10
11806.25
 20
12150.0
  0
LWPOLYLINE
  5
35B
100
AcDbEntity
  8
PART_PADS_SMD_TOP
100
AcDbPolyline
 90
        4
 70
         1
 43
0.0
 10
12593.75
 20
12150.0
 10
12593.75
 20
13050.0
 10
13393.75
 20
13050.0
 10
13393.75
 20
12150.0
  0
LWPOLYLINE
  5
35C
100
AcDbEntity
  8
PART_PADS_SMD_TOP
100
AcDbPolyline
 90
        4
 70
         1
 43
0.0
 10
14000.0
 20
13300.0
 10
14000.0
 20
13800.0
 10
14400.0
 20
13800.0
 10
14400.0
 20
13300.0
  0
LWPOLYLINE
  5
35D
100
AcDbEntity
  8
PART_PADS_SMD_TOP
100
AcDbPolyline
 90
        4
 70
         1
 43
0.0
 10
13200.0
 20
13300.0
 10
13200.0
 20
13800.0
 10
13600.0
 20
13800.0
 10
13600.0
 20
13300.0
  0
LWPOLYLINE
  5
35E
100
AcDbEntity
  8
PART_PADS_SMD_TOP
100
AcDbPolyline
 90
        4
 70
         1
 43
0.0
 10
21200.0
 20
20556.25
 10
21200.0
 20
21356.25
 10
22100.0
 20
21356.25
 10
22100.0
 20
20556.25
  0
LWPOLYLINE
  5
35F
100
AcDbEntity
  8
PART_PADS_SMD_TOP
100
AcDbPolyline
 90
        4
 70
         1
 43
0.0
 10
21200.0
 20
22143.75
 10
21200.0
 20
22943.75
 10
22100.0
 20
22943.75
 10
22100.0
 20
22143.75
  0
LWPOLYLINE
  5
360
100
AcDbEntity
  8
PART_PADS_SMD_TOP
100
AcDbPolyline
 90
        4
 70
         1
 43
0.0
 10
14943.75
 20
22050.0
 10
14943.75
 20
22950.0
 10
15743.75
 20
22950.0
 10
15743.75
 20
22050.0
  0
LWPOLYLINE
  5
361
100
AcDbEntity
  8
PART_PADS_SMD_TOP
100
AcDbPolyline
 90
        4
 70
         1
 43
0.0
 10
13356.25
 20
22050.0
 10
13356.25
 20
22950.0
 10
14156.25
 20
22950.0
 10
14156.25
 20
22050.0
  0
LWPOLYLINE
  5
362
100
AcDbEntity
  8
PART_PADS_SMD_TOP
100
AcDbPolyline
 90
        4
 70
         1
 43
0.0
 10
13756.25
 20
12150.0
 10
13756.25
 20
13050.0
 10
14556.25
 20
13050.0
 10
14556.25
 20
12150.0
  0
LWPOLYLINE
  5
363
100
AcDbEntity
  8
PART_PADS_SMD_TOP
100
AcDbPolyline
 90
        4
 70
         1
 43
0.0
 10
15343.75
 20
12150.0
 10
15343.75
 20
13050.0
 10
16143.75
 20
13050.0
 10
16143.75
 20
12150.0
  0
CIRCLE
  5
364
100
AcDbEntity
  8
PART_PADS_SMD_TOP
100
AcDbCircle
 10
7673.648
 20
3544.974
 30
0.0
 40
500.0
  0
LWPOLYLINE
  5
365
100
AcDbEntity
  8
PART_PADS_SMD_TOP
100
AcDbPolyline
 90
        4
 70
         1
 43
0.0
 10
26250.0
 20
29600.0
 10
26250.0
 20
30600.0
 10
27250.0
 20
30600.0
 10
27250.0
 20
29600.0
  0
LWPOLYLINE
  5
366
100
AcDbEntity
  8
PART_PADS_SMD_TOP
100
AcDbPolyline
 90
        4
 70
         1
 43
0.0
 10
20943.75
 20
11400.0
 10
20943.75
 20
12300.0
 10
21743.75
 20
12300.0
 10
21743.75
 20
11400.0
  0
LWPOLYLINE
  5
367
100
AcDbEntity
  8
PART_PADS_SMD_TOP
100
AcDbPolyline
 90
        4
 70
         1
 43
0.0
 10
19356.25
 20
11400.0
 10
19356.25
 20
12300.0
 10
20156.25
 20
12300.0
 10
20156.25
 20
11400.0
  0
CIRCLE
  5
368
100
AcDbEntity
  8
PART_PADS_SMD_TOP
100
AcDbCircle
 10
15121.0
 20
19248.0
 30
0.0
 40
135.0
  0
CIRCLE
  5
369
100
AcDbEntity
  8
PART_PADS_SMD_TOP
100
AcDbCircle
 10
15821.0
 20
19248.0
 30
0.0
 40
135.0
  0
CIRCLE
  5
36A
100
AcDbEntity
  8
PART_PADS_SMD_TOP
100
AcDbCircle
 10
16521.0
 20
19248.0
 30
0.0
 40
135.0
  0
CIRCLE
  5
36B
100
AcDbEntity
  8
PART_PADS_SMD_TOP
100
AcDbCircle
 10
17221.0
 20
19248.0
 30
0.0
 40
135.0
  0
CIRCLE
  5
36C
100
AcDbEntity
  8
PART_PADS_SMD_TOP
100
AcDbCircle
 10
17921.0
 20
19248.0
 30
0.0
 40
135.0
  0
CIRCLE
  5
36D
100
AcDbEntity
  8
PART_PADS_SMD_TOP
100
AcDbCircle
 10
18621.0
 20
19248.0
 30
0.0
 40
135.0
  0
CIRCLE
  5
36E
100
AcDbEntity
  8
PART_PADS_SMD_TOP
100
AcDbCircle
 10
19321.0
 20
19248.0
 30
0.0
 40
135.0
  0
CIRCLE
  5
36F
100
AcDbEntity
  8
PART_PADS_SMD_TOP
100
AcDbCircle
 10
20021.0
 20
19248.0
 30
0.0
 40
135.0
  0
CIRCLE
  5
370
100
AcDbEntity
  8
PART_PADS_SMD_TOP
100
AcDbCircle
 10
20721.0
 20
19248.0
 30
0.0
 40
135.0
  0
CIRCLE
  5
371
100
AcDbEntity
  8
PART_PADS_SMD_TOP
100
AcDbCircle
 10
21421.0
 20
19248.0
 30
0.0
 40
135.0
  0
CIRCLE
  5
372
100
AcDbEntity
  8
PART_PADS_SMD_TOP
100
AcDbCircle
 10
22121.0
 20
19248.0
 30
0.0
 40
135.0
  0
CIRCLE
  5
373
100
AcDbEntity
  8
PART_PADS_SMD_TOP
100
AcDbCircle
 10
14421.0
 20
18548.0
 30
0.0
 40
135.0
  0
CIRCLE
  5
374
100
AcDbEntity
  8
PART_PADS_SMD_TOP
100
AcDbCircle
 10
15121.0
 20
18548.0
 30
0.0
 40
135.0
  0
CIRCLE
  5
375
100
AcDbEntity
  8
PART_PADS_SMD_TOP
100
AcDbCircle
 10
15821.0
 20
18548.0
 30
0.0
 40
135.0
  0
CIRCLE
  5
376
100
AcDbEntity
  8
PART_PADS_SMD_TOP
100
AcDbCircle
 10
16521.0
 20
18548.0
 30
0.0
 40
135.0
  0
CIRCLE
  5
377
100
AcDbEntity
  8
PART_PADS_SMD_TOP
100
AcDbCircle
 10
17221.0
 20
18548.0
 30
0.0
 40
135.0
  0
CIRCLE
  5
378
100
AcDbEntity
  8
PART_PADS_SMD_TOP
100
AcDbCircle
 10
17921.0
 20
18548.0
 30
0.0
 40
135.0
  0
CIRCLE
  5
379
100
AcDbEntity
  8
PART_PADS_SMD_TOP
100
AcDbCircle
 10
18621.0
 20
18548.0
 30
0.0
 40
135.0
  0
CIRCLE
  5
37A
100
AcDbEntity
  8
PART_PADS_SMD_TOP
100
AcDbCircle
 10
19321.0
 20
18548.0
 30
0.0
 40
135.0
  0
CIRCLE
  5
37B
100
AcDbEntity
  8
PART_PADS_SMD_TOP
100
AcDbCircle
 10
20021.0
 20
18548.0
 30
0.0
 40
135.0
  0
CIRCLE
  5
37C
100
AcDbEntity
  8
PART_PADS_SMD_TOP
100
AcDbCircle
 10
20721.0
 20
18548.0
 30
0.0
 40
135.0
  0
CIRCLE
  5
37D
100
AcDbEntity
  8
PART_PADS_SMD_TOP
100
AcDbCircle
 10
21421.0
 20
18548.0
 30
0.0
 40
135.0
  0
CIRCLE
  5
37E
100
AcDbEntity
  8
PART_PADS_SMD_TOP
100
AcDbCircle
 10
22121.0
 20
18548.0
 30
0.0
 40
135.0
  0
CIRCLE
  5
37F
100
AcDbEntity
  8
PART_PADS_SMD_TOP
100
AcDbCircle
 10
14421.0
 20
17848.0
 30
0.0
 40
135.0
  0
CIRCLE
  5
380
100
AcDbEntity
  8
PART_PADS_SMD_TOP
100
AcDbCircle
 10
15121.0
 20
17848.0
 30
0.0
 40
135.0
  0
CIRCLE
  5
381
100
AcDbEntity
  8
PART_PADS_SMD_TOP
100
AcDbCircle
 10
15821.0
 20
17848.0
 30
0.0
 40
135.0
  0
CIRCLE
  5
382
100
AcDbEntity
  8
PART_PADS_SMD_TOP
100
AcDbCircle
 10
16521.0
 20
17848.0
 30
0.0
 40
135.0
  0
CIRCLE
  5
383
100
AcDbEntity
  8
PART_PADS_SMD_TOP
100
AcDbCircle
 10
17221.0
 20
17848.0
 30
0.0
 40
135.0
  0
CIRCLE
  5
384
100
AcDbEntity
  8
PART_PADS_SMD_TOP
100
AcDbCircle
 10
17921.0
 20
17848.0
 30
0.0
 40
135.0
  0
CIRCLE
  5
385
100
AcDbEntity
  8
PART_PADS_SMD_TOP
100
AcDbCircle
 10
18621.0
 20
17848.0
 30
0.0
 40
135.0
  0
CIRCLE
  5
386
100
AcDbEntity
  8
PART_PADS_SMD_TOP
100
AcDbCircle
 10
19321.0
 20
17848.0
 30
0.0
 40
135.0
  0
CIRCLE
  5
387
100
AcDbEntity
  8
PART_PADS_SMD_TOP
100
AcDbCircle
 10
20021.0
 20
17848.0
 30
0.0
 40
135.0
  0
CIRCLE
  5
388
100
AcDbEntity
  8
PART_PADS_SMD_TOP
100
AcDbCircle
 10
20721.0
 20
17848.0
 30
0.0
 40
135.0
  0
CIRCLE
  5
389
100
AcDbEntity
  8
PART_PADS_SMD_TOP
100
AcDbCircle
 10
21421.0
 20
17848.0
 30
0.0
 40
135.0
  0
CIRCLE
  5
38A
100
AcDbEntity
  8
PART_PADS_SMD_TOP
100
AcDbCircle
 10
22121.0
 20
17848.0
 30
0.0
 40
135.0
  0
CIRCLE
  5
38B
100
AcDbEntity
  8
PART_PADS_SMD_TOP
100
AcDbCircle
 10
14421.0
 20
17148.0
 30
0.0
 40
135.0
  0
CIRCLE
  5
38C
100
AcDbEntity
  8
PART_PADS_SMD_TOP
100
AcDbCircle
 10
15121.0
 20
17148.0
 30
0.0
 40
135.0
  0
CIRCLE
  5
38D
100
AcDbEntity
  8
PART_PADS_SMD_TOP
100
AcDbCircle
 10
15821.0
 20
17148.0
 30
0.0
 40
135.0
  0
CIRCLE
  5
38E
100
AcDbEntity
  8
PART_PADS_SMD_TOP
100
AcDbCircle
 10
16521.0
 20
17148.0
 30
0.0
 40
135.0
  0
CIRCLE
  5
38F
100
AcDbEntity
  8
PART_PADS_SMD_TOP
100
AcDbCircle
 10
17221.0
 20
17148.0
 30
0.0
 40
135.0
  0
CIRCLE
  5
390
100
AcDbEntity
  8
PART_PADS_SMD_TOP
100
AcDbCircle
 10
17921.0
 20
17148.0
 30
0.0
 40
135.0
  0
CIRCLE
  5
391
100
AcDbEntity
  8
PART_PADS_SMD_TOP
100
AcDbCircle
 10
18621.0
 20
17148.0
 30
0.0
 40
135.0
  0
CIRCLE
  5
392
100
AcDbEntity
  8
PART_PADS_SMD_TOP
100
AcDbCircle
 10
19321.0
 20
17148.0
 30
0.0
 40
135.0
  0
CIRCLE
  5
393
100
AcDbEntity
  8
PART_PADS_SMD_TOP
100
AcDbCircle
 10
20021.0
 20
17148.0
 30
0.0
 40
135.0
  0
CIRCLE
  5
394
100
AcDbEntity
  8
PART_PADS_SMD_TOP
100
AcDbCircle
 10
20721.0
 20
17148.0
 30
0.0
 40
135.0
  0
CIRCLE
  5
395
100
AcDbEntity
  8
PART_PADS_SMD_TOP
100
AcDbCircle
 10
21421.0
 20
17148.0
 30
0.0
 40
135.0
  0
CIRCLE
  5
396
100
AcDbEntity
  8
PART_PADS_SMD_TOP
100
AcDbCircle
 10
22121.0
 20
17148.0
 30
0.0
 40
135.0
  0
CIRCLE
  5
397
100
AcDbEntity
  8
PART_PADS_SMD_TOP
100
AcDbCircle
 10
14421.0
 20
16448.0
 30
0.0
 40
135.0
  0
CIRCLE
  5
398
100
AcDbEntity
  8
PART_PADS_SMD_TOP
100
AcDbCircle
 10
15121.0
 20
16448.0
 30
0.0
 40
135.0
  0
CIRCLE
  5
399
100
AcDbEntity
  8
PART_PADS_SMD_TOP
100
AcDbCircle
 10
15821.0
 20
16448.0
 30
0.0
 40
135.0
  0
CIRCLE
  5
39A
100
AcDbEntity
  8
PART_PADS_SMD_TOP
100
AcDbCircle
 10
16521.0
 20
16448.0
 30
0.0
 40
135.0
  0
CIRCLE
  5
39B
100
AcDbEntity
  8
PART_PADS_SMD_TOP
100
AcDbCircle
 10
17221.0
 20
16448.0
 30
0.0
 40
135.0
  0
CIRCLE
  5
39C
100
AcDbEntity
  8
PART_PADS_SMD_TOP
100
AcDbCircle
 10
17921.0
 20
16448.0
 30
0.0
 40
135.0
  0
CIRCLE
  5
39D
100
AcDbEntity
  8
PART_PADS_SMD_TOP
100
AcDbCircle
 10
18621.0
 20
16448.0
 30
0.0
 40
135.0
  0
CIRCLE
  5
39E
100
AcDbEntity
  8
PART_PADS_SMD_TOP
100
AcDbCircle
 10
19321.0
 20
16448.0
 30
0.0
 40
135.0
  0
CIRCLE
  5
39F
100
AcDbEntity
  8
PART_PADS_SMD_TOP
100
AcDbCircle
 10
20021.0
 20
16448.0
 30
0.0
 40
135.0
  0
CIRCLE
  5
3A0
100
AcDbEntity
  8
PART_PADS_SMD_TOP
100
AcDbCircle
 10
20721.0
 20
16448.0
 30
0.0
 40
135.0
  0
CIRCLE
  5
3A1
100
AcDbEntity
  8
PART_PADS_SMD_TOP
100
AcDbCircle
 10
21421.0
 20
16448.0
 30
0.0
 40
135.0
  0
CIRCLE
  5
3A2
100
AcDbEntity
  8
PART_PADS_SMD_TOP
100
AcDbCircle
 10
22121.0
 20
16448.0
 30
0.0
 40
135.0
  0
CIRCLE
  5
3A3
100
AcDbEntity
  8
PART_PADS_SMD_TOP
100
AcDbCircle
 10
14421.0
 20
15748.0
 30
0.0
 40
135.0
  0
CIRCLE
  5
3A4
100
AcDbEntity
  8
PART_PADS_SMD_TOP
100
AcDbCircle
 10
15121.0
 20
15748.0
 30
0.0
 40
135.0
  0
CIRCLE
  5
3A5
100
AcDbEntity
  8
PART_PADS_SMD_TOP
100
AcDbCircle
 10
15821.0
 20
15748.0
 30
0.0
 40
135.0
  0
CIRCLE
  5
3A6
100
AcDbEntity
  8
PART_PADS_SMD_TOP
100
AcDbCircle
 10
16521.0
 20
15748.0
 30
0.0
 40
135.0
  0
CIRCLE
  5
3A7
100
AcDbEntity
  8
PART_PADS_SMD_TOP
100
AcDbCircle
 10
17221.0
 20
15748.0
 30
0.0
 40
135.0
  0
CIRCLE
  5
3A8
100
AcDbEntity
  8
PART_PADS_SMD_TOP
100
AcDbCircle
 10
17921.0
 20
15748.0
 30
0.0
 40
135.0
  0
CIRCLE
  5
3A9
100
AcDbEntity
  8
PART_PADS_SMD_TOP
100
AcDbCircle
 10
18621.0
 20
15748.0
 30
0.0
 40
135.0
  0
CIRCLE
  5
3AA
100
AcDbEntity
  8
PART_PADS_SMD_TOP
100
AcDbCircle
 10
19321.0
 20
15748.0
 30
0.0
 40
135.0
  0
CIRCLE
  5
3AB
100
AcDbEntity
  8
PART_PADS_SMD_TOP
100
AcDbCircle
 10
20021.0
 20
15748.0
 30
0.0
 40
135.0
  0
CIRCLE
  5
3AC
100
AcDbEntity
  8
PART_PADS_SMD_TOP
100
AcDbCircle
 10
20721.0
 20
15748.0
 30
0.0
 40
135.0
  0
CIRCLE
  5
3AD
100
AcDbEntity
  8
PART_PADS_SMD_TOP
100
AcDbCircle
 10
21421.0
 20
15748.0
 30
0.0
 40
135.0
  0
CIRCLE
  5
3AE
100
AcDbEntity
  8
PART_PADS_SMD_TOP
100
AcDbCircle
 10
22121.0
 20
15748.0
 30
0.0
 40
135.0
  0
CIRCLE
  5
3AF
100
AcDbEntity
  8
PART_PADS_SMD_TOP
100
AcDbCircle
 10
14421.0
 20
15048.0
 30
0.0
 40
135.0
  0
CIRCLE
  5
3B0
100
AcDbEntity
  8
PART_PADS_SMD_TOP
100
AcDbCircle
 10
15121.0
 20
15048.0
 30
0.0
 40
135.0
  0
CIRCLE
  5
3B1
100
AcDbEntity
  8
PART_PADS_SMD_TOP
100
AcDbCircle
 10
15821.0
 20
15048.0
 30
0.0
 40
135.0
  0
CIRCLE
  5
3B2
100
AcDbEntity
  8
PART_PADS_SMD_TOP
100
AcDbCircle
 10
16521.0
 20
15048.0
 30
0.0
 40
135.0
  0
CIRCLE
  5
3B3
100
AcDbEntity
  8
PART_PADS_SMD_TOP
100
AcDbCircle
 10
17221.0
 20
15048.0
 30
0.0
 40
135.0
  0
CIRCLE
  5
3B4
100
AcDbEntity
  8
PART_PADS_SMD_TOP
100
AcDbCircle
 10
17921.0
 20
15048.0
 30
0.0
 40
135.0
  0
CIRCLE
  5
3B5
100
AcDbEntity
  8
PART_PADS_SMD_TOP
100
AcDbCircle
 10
18621.0
 20
15048.0
 30
0.0
 40
135.0
  0
CIRCLE
  5
3B6
100
AcDbEntity
  8
PART_PADS_SMD_TOP
100
AcDbCircle
 10
19321.0
 20
15048.0
 30
0.0
 40
135.0
  0
CIRCLE
  5
3B7
100
AcDbEntity
  8
PART_PADS_SMD_TOP
100
AcDbCircle
 10
20021.0
 20
15048.0
 30
0.0
 40
135.0
  0
CIRCLE
  5
3B8
100
AcDbEntity
  8
PART_PADS_SMD_TOP
100
AcDbCircle
 10
20721.0
 20
15048.0
 30
0.0
 40
135.0
  0
CIRCLE
  5
3B9
100
AcDbEntity
  8
PART_PADS_SMD_TOP
100
AcDbCircle
 10
21421.0
 20
15048.0
 30
0.0
 40
135.0
  0
CIRCLE
  5
3BA
100
AcDbEntity
  8
PART_PADS_SMD_TOP
100
AcDbCircle
 10
22121.0
 20
15048.0
 30
0.0
 40
135.0
  0
LWPOLYLINE
  5
3BB
100
AcDbEntity
  8
PART_PADS_SMD_TOP
100
AcDbPolyline
 90
        4
 70
         1
 43
0.0
 10
16950.0
 20
13300.0
 10
16950.0
 20
13800.0
 10
17350.0
 20
13800.0
 10
17350.0
 20
13300.0
  0
LWPOLYLINE
  5
3BC
100
AcDbEntity
  8
PART_PADS_SMD_TOP
100
AcDbPolyline
 90
        4
 70
         1
 43
0.0
 10
16150.0
 20
13300.0
 10
16150.0
 20
13800.0
 10
16550.0
 20
13800.0
 10
16550.0
 20
13300.0
  0
LWPOLYLINE
  5
3BD
100
AcDbEntity
  8
PART_PADS_SMD_TOP
100
AcDbPolyline
 90
        4
 70
         1
 43
0.0
 10
14750.0
 20
20550.0
 10
14750.0
 20
21050.0
 10
15150.0
 20
21050.0
 10
15150.0
 20
20550.0
  0
LWPOLYLINE
  5
3BE
100
AcDbEntity
  8
PART_PADS_SMD_TOP
100
AcDbPolyline
 90
        4
 70
         1
 43
0.0
 10
13950.0
 20
20550.0
 10
13950.0
 20
21050.0
 10
14350.0
 20
21050.0
 10
14350.0
 20
20550.0
  0
LWPOLYLINE
  5
3BF
100
AcDbEntity
  8
PART_PADS_SMD_TOP
100
AcDbPolyline
 90
        4
 70
         1
 43
0.0
 10
20450.0
 20
21350.0
 10
20450.0
 20
21750.0
 10
20950.0
 20
21750.0
 10
20950.0
 20
21350.0
  0
LWPOLYLINE
  5
3C0
100
AcDbEntity
  8
PART_PADS_SMD_TOP
100
AcDbPolyline
 90
        4
 70
         1
 43
0.0
 10
20450.0
 20
20550.0
 10
20450.0
 20
20950.0
 10
20950.0
 20
20950.0
 10
20950.0
 20
20550.0
  0
LWPOLYLINE
  5
3C1
100
AcDbEntity
  8
PART_PADS_SMD_TOP
100
AcDbPolyline
 90
        4
 70
         1
 43
0.0
 10
16300.0
 20
21350.0
 10
16300.0
 20
21750.0
 10
16800.0
 20
21750.0
 10
16800.0
 20
21350.0
  0
LWPOLYLINE
  5
3C2
100
AcDbEntity
  8
PART_PADS_SMD_TOP
100
AcDbPolyline
 90
        4
 70
         1
 43
0.0
 10
16300.0
 20
20550.0
 10
16300.0
 20
20950.0
 10
16800.0
 20
20950.0
 10
16800.0
 20
20550.0
  0
LWPOLYLINE
  5
3C3
100
AcDbEntity
  8
PART_PADS_SMD_TOP
100
AcDbPolyline
 90
        4
 70
         1
 43
0.0
 10
12500.0
 20
16450.0
 10
12500.0
 20
16950.0
 10
12900.0
 20
16950.0
 10
12900.0
 20
16450.0
  0
LWPOLYLINE
  5
3C4
100
AcDbEntity
  8
PART_PADS_SMD_TOP
100
AcDbPolyline
 90
        4
 70
         1
 43
0.0
 10
11700.0
 20
16450.0
 10
11700.0
 20
16950.0
 10
12100.0
 20
16950.0
 10
12100.0
 20
16450.0
  0
LWPOLYLINE
  5
3C5
100
AcDbEntity
  8
PART_PADS_SMD_TOP
100
AcDbPolyline
 90
        4
 70
         1
 43
0.0
 10
19100.0
 20
12600.0
 10
19100.0
 20
13000.0
 10
19600.0
 20
13000.0
 10
19600.0
 20
12600.0
  0
LWPOLYLINE
  5
3C6
100
AcDbEntity
  8
PART_PADS_SMD_TOP
100
AcDbPolyline
 90
        4
 70
         1
 43
0.0
 10
19100.0
 20
13400.0
 10
19100.0
 20
13800.0
 10
19600.0
 20
13800.0
 10
19600.0
 20
13400.0
  0
LWPOLYLINE
  5
3C7
100
AcDbEntity
  8
PART_PADS_SMD_TOP
100
AcDbPolyline
 90
        4
 70
         1
 43
0.0
 10
11200.0
 20
15343.75
 10
11200.0
 20
16143.75
 10
12100.0
 20
16143.75
 10
12100.0
 20
15343.75
  0
LWPOLYLINE
  5
3C8
100
AcDbEntity
  8
PART_PADS_SMD_TOP
100
AcDbPolyline
 90
        4
 70
         1
 43
0.0
 10
11200.0
 20
13756.25
 10
11200.0
 20
14556.25
 10
12100.0
 20
14556.25
 10
12100.0
 20
13756.25
  0
LWPOLYLINE
  5
3C9
100
AcDbEntity
  8
PART_PADS_SMD_TOP
100
AcDbPolyline
 90
        4
 70
         1
 43
0.0
 10
18643.75
 20
21850.0
 10
18643.75
 20
22750.0
 10
19443.75
 20
22750.0
 10
19443.75
 20
21850.0
  0
LWPOLYLINE
  5
3CA
100
AcDbEntity
  8
PART_PADS_SMD_TOP
100
AcDbPolyline
 90
        4
 70
         1
 43
0.0
 10
17056.25
 20
21850.0
 10
17056.25
 20
22750.0
 10
17856.25
 20
22750.0
 10
17856.25
 20
21850.0
  0
LWPOLYLINE
  5
3CB
100
AcDbEntity
  8
PART_PADS_SMD_TOP
100
AcDbPolyline
 90
        4
 70
         1
 43
0.0
 10
20550.0
 20
22150.0
 10
20550.0
 20
22650.0
 10
20950.0
 20
22650.0
 10
20950.0
 20
22150.0
  0
LWPOLYLINE
  5
3CC
100
AcDbEntity
  8
PART_PADS_SMD_TOP
100
AcDbPolyline
 90
        4
 70
         1
 43
0.0
 10
19750.0
 20
22150.0
 10
19750.0
 20
22650.0
 10
20150.0
 20
22650.0
 10
20150.0
 20
22150.0
  0
LWPOLYLINE
  5
3CD
100
AcDbEntity
  8
PART_PADS_SMD_TOP
100
AcDbPolyline
 90
        4
 70
         1
 43
0.0
 10
14700.0
 20
13300.0
 10
14700.0
 20
13800.0
 10
15100.0
 20
13800.0
 10
15100.0
 20
13300.0
  0
LWPOLYLINE
  5
3CE
100
AcDbEntity
  8
PART_PADS_SMD_TOP
100
AcDbPolyline
 90
        4
 70
         1
 43
0.0
 10
15500.0
 20
13300.0
 10
15500.0
 20
13800.0
 10
15900.0
 20
13800.0
 10
15900.0
 20
13300.0
  0
LWPOLYLINE
  5
3CF
100
AcDbEntity
  8
PART_PADS_SMD_TOP
100
AcDbPolyline
 90
        4
 70
         1
 43
0.0
 10
12400.0
 20
15750.0
 10
12400.0
 20
16150.0
 10
12900.0
 20
16150.0
 10
12900.0
 20
15750.0
  0
LWPOLYLINE
  5
3D0
100
AcDbEntity
  8
PART_PADS_SMD_TOP
100
AcDbPolyline
 90
        4
 70
         1
 43
0.0
 10
12400.0
 20
14950.0
 10
12400.0
 20
15350.0
 10
12900.0
 20
15350.0
 10
12900.0
 20
14950.0
  0
LWPOLYLINE
  5
3D1
100
AcDbEntity
  8
PART_PADS_SMD_TOP
100
AcDbPolyline
 90
        4
 70
         1
 43
0.0
 10
14750.0
 20
21300.0
 10
14750.0
 20
21800.0
 10
15150.0
 20
21800.0
 10
15150.0
 20
21300.0
  0
LWPOLYLINE
  5
3D2
100
AcDbEntity
  8
PART_PADS_SMD_TOP
100
AcDbPolyline
 90
        4
 70
         1
 43
0.0
 10
13950.0
 20
21300.0
 10
13950.0
 20
21800.0
 10
14350.0
 20
21800.0
 10
14350.0
 20
21300.0
  0
LWPOLYLINE
  5
3D3
100
AcDbEntity
  8
PART_PADS_SMD_TOP
100
AcDbPolyline
 90
        4
 70
         1
 43
0.0
 10
23500.0
 20
21350.0
 10
23500.0
 20
21750.0
 10
24000.0
 20
21750.0
 10
24000.0
 20
21350.0
  0
LWPOLYLINE
  5
3D4
100
AcDbEntity
  8
PART_PADS_SMD_TOP
100
AcDbPolyline
 90
        4
 70
         1
 43
0.0
 10
23500.0
 20
20550.0
 10
23500.0
 20
20950.0
 10
24000.0
 20
20950.0
 10
24000.0
 20
20550.0
  0
LWPOLYLINE
  5
3D5
100
AcDbEntity
  8
PART_PADS_SMD_TOP
100
AcDbPolyline
 90
        4
 70
         1
 43
0.0
 10
19700.0
 20
20650.0
 10
19700.0
 20
21050.0
 10
20200.0
 20
21050.0
 10
20200.0
 20
20650.0
  0
LWPOLYLINE
  5
3D6
100
AcDbEntity
  8
PART_PADS_SMD_TOP
100
AcDbPolyline
 90
        4
 70
         1
 43
0.0
 10
19700.0
 20
21450.0
 10
19700.0
 20
21850.0
 10
20200.0
 20
21850.0
 10
20200.0
 20
21450.0
  0
LWPOLYLINE
  5
3D7
100
AcDbEntity
  8
PART_PADS_SMD_TOP
100
AcDbPolyline
 90
        4
 70
         1
 43
0.0
 10
12400.0
 20
17200.0
 10
12400.0
 20
17600.0
 10
12900.0
 20
17600.0
 10
12900.0
 20
17200.0
  0
LWPOLYLINE
  5
3D8
100
AcDbEntity
  8
PART_PADS_SMD_TOP
100
AcDbPolyline
 90
        4
 70
         1
 43
0.0
 10
12400.0
 20
18000.0
 10
12400.0
 20
18400.0
 10
12900.0
 20
18400.0
 10
12900.0
 20
18000.0
  0
TEXT
  5
3D9
100
AcDbEntity
  8
PIN_NUMBERS_BTM
100
AcDbText
 10
10480.068
 20
23216.496
 30
0.0
 40
508.000000
 41
1.000000
  1
1
  7
COURIER_NEW
 72
 1
 11
10698.0
 21
23439.0
 31
0.0
100
AcDbText
 73
 2
  0
TEXT
  5
3DA
100
AcDbEntity
  8
PIN_NUMBERS_BTM
100
AcDbText
 10
10480.068
 20
22416.496
 30
0.0
 40
508.000000
 41
1.000000
  1
2
  7
COURIER_NEW
 72
 1
 11
10698.0
 21
22639.0
 31
0.0
100
AcDbText
 73
 2
  0
TEXT
  5
3DB
100
AcDbEntity
  8
PIN_NUMBERS_BTM
100
AcDbText
 10
3432.068
 20
21077.496
 30
0.0
 40
508.000000
 41
1.000000
  1
1
  7
COURIER_NEW
 72
 1
 11
3650.0
 21
21300.0
 31
0.0
100
AcDbText
 73
 2
  0
TEXT
  5
3DC
100
AcDbEntity
  8
PIN_NUMBERS_BTM
100
AcDbText
 10
3432.068
 20
21877.496
 30
0.0
 40
508.000000
 41
1.000000
  1
2
  7
COURIER_NEW
 72
 1
 11
3650.0
 21
22100.0
 31
0.0
100
AcDbText
 73
 2
  0
TEXT
  5
3DD
100
AcDbEntity
  8
PIN_NUMBERS_BTM
100
AcDbText
 10
3432.068
 20
22577.496
 30
0.0
 40
508.000000
 41
1.000000
  1
1
  7
COURIER_NEW
 72
 1
 11
3650.0
 21
22800.0
 31
0.0
100
AcDbText
 73
 2
  0
TEXT
  5
3DE
100
AcDbEntity
  8
PIN_NUMBERS_BTM
100
AcDbText
 10
3432.068
 20
23377.496
 30
0.0
 40
508.000000
 41
1.000000
  1
2
  7
COURIER_NEW
 72
 1
 11
3650.0
 21
23600.0
 31
0.0
100
AcDbText
 73
 2
  0
TEXT
  5
3DF
100
AcDbEntity
  8
PIN_NUMBERS_BTM
100
AcDbText
 10
11432.068
 20
6677.496
 30
0.0
 40
508.000000
 41
1.000000
  1
1
  7
COURIER_NEW
 72
 1
 11
11650.0
 21
6900.0
 31
0.0
100
AcDbText
 73
 2
  0
TEXT
  5
3E0
100
AcDbEntity
  8
PIN_NUMBERS_BTM
100
AcDbText
 10
12232.068
 20
6677.496
 30
0.0
 40
508.000000
 41
1.000000
  1
2
  7
COURIER_NEW
 72
 1
 11
12450.0
 21
6900.0
 31
0.0
100
AcDbText
 73
 2
  0
TEXT
  5
3E1
100
AcDbEntity
  8
PIN_NUMBERS_BTM
100
AcDbText
 10
23332.068
 20
13877.496
 30
0.0
 40
508.000000
 41
1.000000
  1
2
  7
COURIER_NEW
 72
 1
 11
23550.0
 21
14100.0
 31
0.0
100
AcDbText
 73
 2
  0
TEXT
  5
3E2
100
AcDbEntity
  8
PIN_NUMBERS_BTM
100
AcDbText
 10
24132.068
 20
13877.496
 30
0.0
 40
508.000000
 41
1.000000
  1
1
  7
COURIER_NEW
 72
 1
 11
24350.0
 21
14100.0
 31
0.0
100
AcDbText
 73
 2
  0
TEXT
  5
3E3
100
AcDbEntity
  8
PIN_NUMBERS_BTM
100
AcDbText
 10
6732.068
 20
23427.496
 30
0.0
 40
508.000000
 41
1.000000
  1
1
  7
COURIER_NEW
 72
 1
 11
6950.0
 21
23650.0
 31
0.0
100
AcDbText
 73
 2
  0
TEXT
  5
3E4
100
AcDbEntity
  8
PIN_NUMBERS_BTM
100
AcDbText
 10
7532.068
 20
23427.496
 30
0.0
 40
508.000000
 41
1.000000
  1
2
  7
COURIER_NEW
 72
 1
 11
7750.0
 21
23650.0
 31
0.0
100
AcDbText
 73
 2
  0
TEXT
  5
3E5
100
AcDbEntity
  8
PIN_NUMBERS_BTM
100
AcDbText
 10
14482.068
 20
6427.496
 30
0.0
 40
508.000000
 41
1.000000
  1
2
  7
COURIER_NEW
 72
 1
 11
14700.0
 21
6650.0
 31
0.0
100
AcDbText
 73
 2
  0
TEXT
  5
3E6
100
AcDbEntity
  8
PIN_NUMBERS_BTM
100
AcDbText
 10
14482.068
 20
7227.496
 30
0.0
 40
508.000000
 41
1.000000
  1
1
  7
COURIER_NEW
 72
 1
 11
14700.0
 21
7450.0
 31
0.0
100
AcDbText
 73
 2
  0
TEXT
  5
3E7
100
AcDbEntity
  8
PIN_NUMBERS_BTM
100
AcDbText
 10
27020.068
 20
21444.496
 30
0.0
 40
508.000000
 41
1.000000
  1
1
  7
COURIER_NEW
 72
 1
 11
27238.0
 21
21667.0
 31
0.0
100
AcDbText
 73
 2
  0
TEXT
  5
3E8
100
AcDbEntity
  8
PIN_NUMBERS_BTM
100
AcDbText
 10
27820.068
 20
21444.496
 30
0.0
 40
508.000000
 41
1.000000
  1
2
  7
COURIER_NEW
 72
 1
 11
28038.0
 21
21667.0
 31
0.0
100
AcDbText
 73
 2
  0
TEXT
  5
3E9
100
AcDbEntity
  8
PIN_NUMBERS_BTM
100
AcDbText
 10
6732.068
 20
21877.496
 30
0.0
 40
508.000000
 41
1.000000
  1
2
  7
COURIER_NEW
 72
 1
 11
6950.0
 21
22100.0
 31
0.0
100
AcDbText
 73
 2
  0
TEXT
  5
3EA
100
AcDbEntity
  8
PIN_NUMBERS_BTM
100
AcDbText
 10
7532.068
 20
21877.496
 30
0.0
 40
508.000000
 41
1.000000
  1
1
  7
COURIER_NEW
 72
 1
 11
7750.0
 21
22100.0
 31
0.0
100
AcDbText
 73
 2
  0
TEXT
  5
3EB
100
AcDbEntity
  8
PIN_NUMBERS_BTM
100
AcDbText
 10
2732.068
 20
26427.496
 30
0.0
 40
508.000000
 41
1.000000
  1
1
  7
COURIER_NEW
 72
 1
 11
2950.0
 21
26650.0
 31
0.0
100
AcDbText
 73
 2
  0
TEXT
  5
3EC
100
AcDbEntity
  8
PIN_NUMBERS_BTM
100
AcDbText
 10
2732.068
 20
25627.496
 30
0.0
 40
508.000000
 41
1.000000
  1
2
  7
COURIER_NEW
 72
 1
 11
2950.0
 21
25850.0
 31
0.0
100
AcDbText
 73
 2
  0
TEXT
  5
3ED
100
AcDbEntity
  8
PIN_NUMBERS_BTM
100
AcDbText
 10
3482.068
 20
26427.496
 30
0.0
 40
508.000000
 41
1.000000
  1
1
  7
COURIER_NEW
 72
 1
 11
3700.0
 21
26650.0
 31
0.0
100
AcDbText
 73
 2
  0
TEXT
  5
3EE
100
AcDbEntity
  8
PIN_NUMBERS_BTM
100
AcDbText
 10
3482.068
 20
25627.496
 30
0.0
 40
508.000000
 41
1.000000
  1
2
  7
COURIER_NEW
 72
 1
 11
3700.0
 21
25850.0
 31
0.0
100
AcDbText
 73
 2
  0
TEXT
  5
3EF
100
AcDbEntity
  8
PIN_NUMBERS_BTM
100
AcDbText
 10
8082.068
 20
7277.496
 30
0.0
 40
508.000000
 41
1.000000
  1
1
  7
COURIER_NEW
 72
 1
 11
8300.0
 21
7500.0
 31
0.0
100
AcDbText
 73
 2
  0
TEXT
  5
3F0
100
AcDbEntity
  8
PIN_NUMBERS_BTM
100
AcDbText
 10
8082.068
 20
8077.496
 30
0.0
 40
508.000000
 41
1.000000
  1
2
  7
COURIER_NEW
 72
 1
 11
8300.0
 21
8300.0
 31
0.0
100
AcDbText
 73
 2
  0
TEXT
  5
3F1
100
AcDbEntity
  8
PIN_NUMBERS_BTM
100
AcDbText
 10
27882.068
 20
27077.496
 30
0.0
 40
508.000000
 41
1.000000
  1
1
  7
COURIER_NEW
 72
 1
 11
28100.0
 21
27300.0
 31
0.0
100
AcDbText
 73
 2
  0
TEXT
  5
3F2
100
AcDbEntity
  8
PIN_NUMBERS_BTM
100
AcDbText
 10
27082.068
 20
27077.496
 30
0.0
 40
508.000000
 41
1.000000
  1
2
  7
COURIER_NEW
 72
 1
 11
27300.0
 21
27300.0
 31
0.0
100
AcDbText
 73
 2
  0
TEXT
  5
3F3
100
AcDbEntity
  8
PIN_NUMBERS_BTM
100
AcDbText
 10
23382.068
 20
15927.496
 30
0.0
 40
508.000000
 41
1.000000
  1
1
  7
COURIER_NEW
 72
 1
 11
23600.0
 21
16150.0
 31
0.0
100
AcDbText
 73
 2
  0
TEXT
  5
3F4
100
AcDbEntity
  8
PIN_NUMBERS_BTM
100
AcDbText
 10
24182.068
 20
15927.496
 30
0.0
 40
508.000000
 41
1.000000
  1
2
  7
COURIER_NEW
 72
 1
 11
24400.0
 21
16150.0
 31
0.0
100
AcDbText
 73
 2
  0
TEXT
  5
3F5
100
AcDbEntity
  8
PIN_NUMBERS_BTM
100
AcDbText
 10
28632.068
 20
22227.496
 30
0.0
 40
508.000000
 41
1.000000
  1
1
  7
COURIER_NEW
 72
 1
 11
28850.0
 21
22450.0
 31
0.0
100
AcDbText
 73
 2
  0
TEXT
  5
3F6
100
AcDbEntity
  8
PIN_NUMBERS_BTM
100
AcDbText
 10
28632.068
 20
21427.496
 30
0.0
 40
508.000000
 41
1.000000
  1
2
  7
COURIER_NEW
 72
 1
 11
28850.0
 21
21650.0
 31
0.0
100
AcDbText
 73
 2
  0
TEXT
  5
3F7
100
AcDbEntity
  8
PIN_NUMBERS_BTM
100
AcDbText
 10
27882.068
 20
26177.496
 30
0.0
 40
508.000000
 41
1.000000
  1
1
  7
COURIER_NEW
 72
 1
 11
28100.0
 21
26400.0
 31
0.0
100
AcDbText
 73
 2
  0
TEXT
  5
3F8
100
AcDbEntity
  8
PIN_NUMBERS_BTM
100
AcDbText
 10
27082.068
 20
26177.496
 30
0.0
 40
508.000000
 41
1.000000
  1
2
  7
COURIER_NEW
 72
 1
 11
27300.0
 21
26400.0
 31
0.0
100
AcDbText
 73
 2
  0
TEXT
  5
3F9
100
AcDbEntity
  8
PIN_NUMBERS_BTM
100
AcDbText
 10
5132.068
 20
7327.496
 30
0.0
 40
508.000000
 41
1.000000
  1
1
  7
COURIER_NEW
 72
 1
 11
5350.0
 21
7550.0
 31
0.0
100
AcDbText
 73
 2
  0
TEXT
  5
3FA
100
AcDbEntity
  8
PIN_NUMBERS_BTM
100
AcDbText
 10
5132.068
 20
8127.496
 30
0.0
 40
508.000000
 41
1.000000
  1
2
  7
COURIER_NEW
 72
 1
 11
5350.0
 21
8350.0
 31
0.0
100
AcDbText
 73
 2
  0
TEXT
  5
3FB
100
AcDbEntity
  8
PIN_NUMBERS_BTM
100
AcDbText
 10
27032.068
 20
22177.496
 30
0.0
 40
508.000000
 41
1.000000
  1
1
  7
COURIER_NEW
 72
 1
 11
27250.0
 21
22400.0
 31
0.0
100
AcDbText
 73
 2
  0
TEXT
  5
3FC
100
AcDbEntity
  8
PIN_NUMBERS_BTM
100
AcDbText
 10
27832.068
 20
22177.496
 30
0.0
 40
508.000000
 41
1.000000
  1
2
  7
COURIER_NEW
 72
 1
 11
28050.0
 21
22400.0
 31
0.0
100
AcDbText
 73
 2
  0
TEXT
  5
3FD
100
AcDbEntity
  8
PIN_NUMBERS_BTM
100
AcDbText
 10
12232.068
 20
5677.496
 30
0.0
 40
508.000000
 41
1.000000
  1
2
  7
COURIER_NEW
 72
 1
 11
12450.0
 21
5900.0
 31
0.0
100
AcDbText
 73
 2
  0
TEXT
  5
3FE
100
AcDbEntity
  8
PIN_NUMBERS_BTM
100
AcDbText
 10
11432.068
 20
5677.496
 30
0.0
 40
508.000000
 41
1.000000
  1
1
  7
COURIER_NEW
 72
 1
 11
11650.0
 21
5900.0
 31
0.0
100
AcDbText
 73
 2
  0
TEXT
  5
3FF
100
AcDbEntity
  8
PIN_NUMBERS_BTM
100
AcDbText
 10
27032.068
 20
22927.496
 30
0.0
 40
508.000000
 41
1.000000
  1
2
  7
COURIER_NEW
 72
 1
 11
27250.0
 21
23150.0
 31
0.0
100
AcDbText
 73
 2
  0
TEXT
  5
400
100
AcDbEntity
  8
PIN_NUMBERS_BTM
100
AcDbText
 10
27032.068
 20
23727.496
 30
0.0
 40
508.000000
 41
1.000000
  1
1
  7
COURIER_NEW
 72
 1
 11
27250.0
 21
23950.0
 31
0.0
100
AcDbText
 73
 2
  0
TEXT
  5
401
100
AcDbEntity
  8
PIN_NUMBERS_BTM
100
AcDbText
 10
11038.318
 20
9277.496
 30
0.0
 40
508.000000
 41
1.000000
  1
2
  7
COURIER_NEW
 72
 1
 11
11256.25
 21
9500.0
 31
0.0
100
AcDbText
 73
 2
  0
TEXT
  5
402
100
AcDbEntity
  8
PIN_NUMBERS_BTM
100
AcDbText
 10
12625.818
 20
9277.496
 30
0.0
 40
508.000000
 41
1.000000
  1
1
  7
COURIER_NEW
 72
 1
 11
12843.75
 21
9500.0
 31
0.0
100
AcDbText
 73
 2
  0
TEXT
  5
403
100
AcDbEntity
  8
PIN_NUMBERS_BTM
100
AcDbText
 10
14082.068
 20
10071.246
 30
0.0
 40
508.000000
 41
1.000000
  1
1
  7
COURIER_NEW
 72
 1
 11
14300.0
 21
10293.75
 31
0.0
100
AcDbText
 73
 2
  0
TEXT
  5
404
100
AcDbEntity
  8
PIN_NUMBERS_BTM
100
AcDbText
 10
14082.068
 20
8483.746
 30
0.0
 40
508.000000
 41
1.000000
  1
2
  7
COURIER_NEW
 72
 1
 11
14300.0
 21
8706.25
 31
0.0
100
AcDbText
 73
 2
  0
TEXT
  5
405
100
AcDbEntity
  8
PIN_NUMBERS_BTM
100
AcDbText
 10
30282.068
 20
11427.496
 30
0.0
 40
508.000000
 41
1.000000
  1
1
  7
COURIER_NEW
 72
 1
 11
30500.0
 21
11650.0
 31
0.0
100
AcDbText
 73
 2
  0
TEXT
  5
406
100
AcDbEntity
  8
PIN_NUMBERS_BTM
100
AcDbText
 10
30282.068
 20
12227.496
 30
0.0
 40
508.000000
 41
1.000000
  1
2
  7
COURIER_NEW
 72
 1
 11
30500.0
 21
12450.0
 31
0.0
100
AcDbText
 73
 2
  0
TEXT
  5
407
100
AcDbEntity
  8
PIN_NUMBERS_BTM
100
AcDbText
 10
3532.068
 20
9227.496
 30
0.0
 40
508.000000
 41
1.000000
  1
1
  7
COURIER_NEW
 72
 1
 11
3750.0
 21
9450.0
 31
0.0
100
AcDbText
 73
 2
  0
TEXT
  5
408
100
AcDbEntity
  8
PIN_NUMBERS_BTM
100
AcDbText
 10
3532.068
 20
10027.496
 30
0.0
 40
508.000000
 41
1.000000
  1
2
  7
COURIER_NEW
 72
 1
 11
3750.0
 21
10250.0
 31
0.0
100
AcDbText
 73
 2
  0
TEXT
  5
409
100
AcDbEntity
  8
PIN_NUMBERS_BTM
100
AcDbText
 10
26132.068
 20
25227.496
 30
0.0
 40
508.000000
 41
1.000000
  1
2
  7
COURIER_NEW
 72
 1
 11
26350.0
 21
25450.0
 31
0.0
100
AcDbText
 73
 2
  0
TEXT
  5
40A
100
AcDbEntity
  8
PIN_NUMBERS_BTM
100
AcDbText
 10
26132.068
 20
24427.496
 30
0.0
 40
508.000000
 41
1.000000
  1
1
  7
COURIER_NEW
 72
 1
 11
26350.0
 21
24650.0
 31
0.0
100
AcDbText
 73
 2
  0
TEXT
  5
40B
100
AcDbEntity
  8
PIN_NUMBERS_BTM
100
AcDbText
 10
3832.068
 20
7577.496
 30
0.0
 40
508.000000
 41
1.000000
  1
1
  7
COURIER_NEW
 72
 1
 11
4050.0
 21
7800.0
 31
0.0
100
AcDbText
 73
 2
  0
TEXT
  5
40C
100
AcDbEntity
  8
PIN_NUMBERS_BTM
100
AcDbText
 10
3832.068
 20
6777.496
 30
0.0
 40
508.000000
 41
1.000000
  1
2
  7
COURIER_NEW
 72
 1
 11
4050.0
 21
7000.0
 31
0.0
100
AcDbText
 73
 2
  0
TEXT
  5
40D
100
AcDbEntity
  8
PIN_NUMBERS_BTM
100
AcDbText
 10
3482.068
 20
24127.496
 30
0.0
 40
508.000000
 41
1.000000
  1
1
  7
COURIER_NEW
 72
 1
 11
3700.0
 21
24350.0
 31
0.0
100
AcDbText
 73
 2
  0
TEXT
  5
40E
100
AcDbEntity
  8
PIN_NUMBERS_BTM
100
AcDbText
 10
3482.068
 20
24927.496
 30
0.0
 40
508.000000
 41
1.000000
  1
2
  7
COURIER_NEW
 72
 1
 11
3700.0
 21
25150.0
 31
0.0
100
AcDbText
 73
 2
  0
TEXT
  5
40F
100
AcDbEntity
  8
PIN_NUMBERS_BTM
100
AcDbText
 10
6782.068
 20
24977.496
 30
0.0
 40
508.000000
 41
1.000000
  1
2
  7
COURIER_NEW
 72
 1
 11
7000.0
 21
25200.0
 31
0.0
100
AcDbText
 73
 2
  0
TEXT
  5
410
100
AcDbEntity
  8
PIN_NUMBERS_BTM
100
AcDbText
 10
6782.068
 20
24177.496
 30
0.0
 40
508.000000
 41
1.000000
  1
1
  7
COURIER_NEW
 72
 1
 11
7000.0
 21
24400.0
 31
0.0
100
AcDbText
 73
 2
  0
TEXT
  5
411
100
AcDbEntity
  8
PIN_NUMBERS_BTM
100
AcDbText
 10
2732.068
 20
24127.496
 30
0.0
 40
508.000000
 41
1.000000
  1
1
  7
COURIER_NEW
 72
 1
 11
2950.0
 21
24350.0
 31
0.0
100
AcDbText
 73
 2
  0
TEXT
  5
412
100
AcDbEntity
  8
PIN_NUMBERS_BTM
100
AcDbText
 10
2732.068
 20
24927.496
 30
0.0
 40
508.000000
 41
1.000000
  1
2
  7
COURIER_NEW
 72
 1
 11
2950.0
 21
25150.0
 31
0.0
100
AcDbText
 73
 2
  0
TEXT
  5
413
100
AcDbEntity
  8
PIN_NUMBERS_BTM
100
AcDbText
 10
7532.068
 20
24977.496
 30
0.0
 40
508.000000
 41
1.000000
  1
2
  7
COURIER_NEW
 72
 1
 11
7750.0
 21
25200.0
 31
0.0
100
AcDbText
 73
 2
  0
TEXT
  5
414
100
AcDbEntity
  8
PIN_NUMBERS_BTM
100
AcDbText
 10
7532.068
 20
24177.496
 30
0.0
 40
508.000000
 41
1.000000
  1
1
  7
COURIER_NEW
 72
 1
 11
7750.0
 21
24400.0
 31
0.0
100
AcDbText
 73
 2
  0
TEXT
  5
415
100
AcDbEntity
  8
PIN_NUMBERS_BTM
100
AcDbText
 10
28107.068
 20
10552.496
 30
0.0
 40
508.000000
 41
1.000000
  1
3
  7
COURIER_NEW
 72
 1
 11
28325.0
 21
10775.0
 31
0.0
100
AcDbText
 73
 2
  0
TEXT
  5
416
100
AcDbEntity
  8
PIN_NUMBERS_BTM
100
AcDbText
 10
29957.068
 20
10552.496
 30
0.0
 40
508.000000
 41
1.000000
  1
4
  7
COURIER_NEW
 72
 1
 11
30175.0
 21
10775.0
 31
0.0
100
AcDbText
 73
 2
  0
TEXT
  5
417
100
AcDbEntity
  8
PIN_NUMBERS_BTM
100
AcDbText
 10
29957.068
 20
9102.496
 30
0.0
 40
508.000000
 41
1.000000
  1
1
  7
COURIER_NEW
 72
 1
 11
30175.0
 21
9325.0
 31
0.0
100
AcDbText
 73
 2
  0
TEXT
  5
418
100
AcDbEntity
  8
PIN_NUMBERS_BTM
100
AcDbText
 10
28107.068
 20
9102.496
 30
0.0
 40
508.000000
 41
1.000000
  1
2
  7
COURIER_NEW
 72
 1
 11
28325.0
 21
9325.0
 31
0.0
100
AcDbText
 73
 2
  0
TEXT
  5
419
100
AcDbEntity
  8
PIN_NUMBERS_BTM
100
AcDbText
 10
5888.318
 20
20127.496
 30
0.0
 40
508.000000
 41
1.000000
  1
2
  7
COURIER_NEW
 72
 1
 11
6106.25
 21
20350.0
 31
0.0
100
AcDbText
 73
 2
  0
TEXT
  5
41A
100
AcDbEntity
  8
PIN_NUMBERS_BTM
100
AcDbText
 10
7475.818
 20
20127.496
 30
0.0
 40
508.000000
 41
1.000000
  1
1
  7
COURIER_NEW
 72
 1
 11
7693.75
 21
20350.0
 31
0.0
100
AcDbText
 73
 2
  0
TEXT
  5
41B
100
AcDbEntity
  8
PIN_NUMBERS_BTM
100
AcDbText
 10
15082.068
 20
9477.496
 30
0.0
 40
508.000000
 41
1.000000
  1
1
  7
COURIER_NEW
 72
 1
 11
15300.0
 21
9700.0
 31
0.0
100
AcDbText
 73
 2
  0
TEXT
  5
41C
100
AcDbEntity
  8
PIN_NUMBERS_BTM
100
AcDbText
 10
15082.068
 20
8677.496
 30
0.0
 40
508.000000
 41
1.000000
  1
2
  7
COURIER_NEW
 72
 1
 11
15300.0
 21
8900.0
 31
0.0
100
AcDbText
 73
 2
  0
TEXT
  5
41D
100
AcDbEntity
  8
PIN_NUMBERS_BTM
100
AcDbText
 10
12782.068
 20
12977.496
 30
0.0
 40
508.000000
 41
1.000000
  1
1
  7
COURIER_NEW
 72
 1
 11
13000.0
 21
13200.0
 31
0.0
100
AcDbText
 73
 2
  0
TEXT
  5
41E
100
AcDbEntity
  8
PIN_NUMBERS_BTM
100
AcDbText
 10
6232.068
 20
27921.246
 30
0.0
 40
508.000000
 41
1.000000
  1
2
  7
COURIER_NEW
 72
 1
 11
6450.0
 21
28143.75
 31
0.0
100
AcDbText
 73
 2
  0
TEXT
  5
41F
100
AcDbEntity
  8
PIN_NUMBERS_BTM
100
AcDbText
 10
6232.068
 20
26333.746
 30
0.0
 40
508.000000
 41
1.000000
  1
1
  7
COURIER_NEW
 72
 1
 11
6450.0
 21
26556.25
 31
0.0
100
AcDbText
 73
 2
  0
TEXT
  5
420
100
AcDbEntity
  8
PIN_NUMBERS_BTM
100
AcDbText
 10
10482.068
 20
23927.496
 30
0.0
 40
508.000000
 41
1.000000
  1
2
  7
COURIER_NEW
 72
 1
 11
10700.0
 21
24150.0
 31
0.0
100
AcDbText
 73
 2
  0
TEXT
  5
421
100
AcDbEntity
  8
PIN_NUMBERS_BTM
100
AcDbText
 10
10482.068
 20
24727.496
 30
0.0
 40
508.000000
 41
1.000000
  1
1
  7
COURIER_NEW
 72
 1
 11
10700.0
 21
24950.0
 31
0.0
100
AcDbText
 73
 2
  0
TEXT
  5
422
100
AcDbEntity
  8
PIN_NUMBERS_BTM
100
AcDbText
 10
15682.068
 20
12577.496
 30
0.0
 40
508.000000
 41
1.000000
  1
1
  7
COURIER_NEW
 72
 1
 11
15900.0
 21
12800.0
 31
0.0
100
AcDbText
 73
 2
  0
TEXT
  5
423
100
AcDbEntity
  8
PIN_NUMBERS_BTM
100
AcDbText
 10
16482.068
 20
12577.496
 30
0.0
 40
508.000000
 41
1.000000
  1
2
  7
COURIER_NEW
 72
 1
 11
16700.0
 21
12800.0
 31
0.0
100
AcDbText
 73
 2
  0
TEXT
  5
424
100
AcDbEntity
  8
PIN_NUMBERS_BTM
100
AcDbText
 10
11232.068
 20
23927.496
 30
0.0
 40
508.000000
 41
1.000000
  1
2
  7
COURIER_NEW
 72
 1
 11
11450.0
 21
24150.0
 31
0.0
100
AcDbText
 73
 2
  0
TEXT
  5
425
100
AcDbEntity
  8
PIN_NUMBERS_BTM
100
AcDbText
 10
11232.068
 20
24727.496
 30
0.0
 40
508.000000
 41
1.000000
  1
1
  7
COURIER_NEW
 72
 1
 11
11450.0
 21
24950.0
 31
0.0
100
AcDbText
 73
 2
  0
TEXT
  5
426
100
AcDbEntity
  8
PIN_NUMBERS_BTM
100
AcDbText
 10
24182.068
 20
16677.496
 30
0.0
 40
508.000000
 41
1.000000
  1
2
  7
COURIER_NEW
 72
 1
 11
24400.0
 21
16900.0
 31
0.0
100
AcDbText
 73
 2
  0
TEXT
  5
427
100
AcDbEntity
  8
PIN_NUMBERS_BTM
100
AcDbText
 10
23382.068
 20
16677.496
 30
0.0
 40
508.000000
 41
1.000000
  1
1
  7
COURIER_NEW
 72
 1
 11
23600.0
 21
16900.0
 31
0.0
100
AcDbText
 73
 2
  0
TEXT
  5
428
100
AcDbEntity
  8
PIN_NUMBERS_BTM
100
AcDbText
 10
1732.068
 20
22883.746
 30
0.0
 40
508.000000
 41
1.000000
  1
1
  7
COURIER_NEW
 72
 1
 11
1950.0
 21
23106.25
 31
0.0
100
AcDbText
 73
 2
  0
TEXT
  5
429
100
AcDbEntity
  8
PIN_NUMBERS_BTM
100
AcDbText
 10
1732.068
 20
24471.246
 30
0.0
 40
508.000000
 41
1.000000
  1
2
  7
COURIER_NEW
 72
 1
 11
1950.0
 21
24693.75
 31
0.0
100
AcDbText
 73
 2
  0
TEXT
  5
42A
100
AcDbEntity
  8
PIN_NUMBERS_BTM
100
AcDbText
 10
9732.068
 20
23927.496
 30
0.0
 40
508.000000
 41
1.000000
  1
2
  7
COURIER_NEW
 72
 1
 11
9950.0
 21
24150.0
 31
0.0
100
AcDbText
 73
 2
  0
TEXT
  5
42B
100
AcDbEntity
  8
PIN_NUMBERS_BTM
100
AcDbText
 10
9732.068
 20
24727.496
 30
0.0
 40
508.000000
 41
1.000000
  1
1
  7
COURIER_NEW
 72
 1
 11
9950.0
 21
24950.0
 31
0.0
100
AcDbText
 73
 2
  0
TEXT
  5
42C
100
AcDbEntity
  8
PIN_NUMBERS_BTM
100
AcDbText
 10
20482.068
 20
8077.496
 30
0.0
 40
508.000000
 41
1.000000
  1
1
  7
COURIER_NEW
 72
 1
 11
20700.0
 21
8300.0
 31
0.0
100
AcDbText
 73
 2
  0
TEXT
  5
42D
100
AcDbEntity
  8
PIN_NUMBERS_BTM
100
AcDbText
 10
20482.068
 20
8877.496
 30
0.0
 40
508.000000
 41
1.000000
  1
2
  7
COURIER_NEW
 72
 1
 11
20700.0
 21
9100.0
 31
0.0
100
AcDbText
 73
 2
  0
TEXT
  5
42E
100
AcDbEntity
  8
PIN_NUMBERS_BTM
100
AcDbText
 10
12232.068
 20
7427.496
 30
0.0
 40
508.000000
 41
1.000000
  1
1
  7
COURIER_NEW
 72
 1
 11
12450.0
 21
7650.0
 31
0.0
100
AcDbText
 73
 2
  0
TEXT
  5
42F
100
AcDbEntity
  8
PIN_NUMBERS_BTM
100
AcDbText
 10
12232.068
 20
8227.496
 30
0.0
 40
508.000000
 41
1.000000
  1
2
  7
COURIER_NEW
 72
 1
 11
12450.0
 21
8450.0
 31
0.0
100
AcDbText
 73
 2
  0
TEXT
  5
430
100
AcDbEntity
  8
PIN_NUMBERS_BTM
100
AcDbText
 10
29638.318
 20
26627.496
 30
0.0
 40
508.000000
 41
1.000000
  1
1
  7
COURIER_NEW
 72
 1
 11
29856.25
 21
26850.0
 31
0.0
100
AcDbText
 73
 2
  0
TEXT
  5
431
100
AcDbEntity
  8
PIN_NUMBERS_BTM
100
AcDbText
 10
31225.818
 20
26627.496
 30
0.0
 40
508.000000
 41
1.000000
  1
2
  7
COURIER_NEW
 72
 1
 11
31443.75
 21
26850.0
 31
0.0
100
AcDbText
 73
 2
  0
TEXT
  5
432
100
AcDbEntity
  8
PIN_NUMBERS_BTM
100
AcDbText
 10
31382.068
 20
8952.496
 30
0.0
 40
508.000000
 41
1.000000
  1
1
  7
COURIER_NEW
 72
 1
 11
31600.0
 21
9175.0
 31
0.0
100
AcDbText
 73
 2
  0
TEXT
  5
433
100
AcDbEntity
  8
PIN_NUMBERS_BTM
100
AcDbText
 10
31382.068
 20
7402.496
 30
0.0
 40
508.000000
 41
1.000000
  1
2
  7
COURIER_NEW
 72
 1
 11
31600.0
 21
7625.0
 31
0.0
100
AcDbText
 73
 2
  0
TEXT
  5
434
100
AcDbEntity
  8
PIN_NUMBERS_BTM
100
AcDbText
 10
5482.068
 20
9327.496
 30
0.0
 40
508.000000
 41
1.000000
  1
1
  7
COURIER_NEW
 72
 1
 11
5700.0
 21
9550.0
 31
0.0
100
AcDbText
 73
 2
  0
TEXT
  5
435
100
AcDbEntity
  8
PIN_NUMBERS_BTM
100
AcDbText
 10
5482.068
 20
10727.496
 30
0.0
 40
508.000000
 41
1.000000
  1
2
  7
COURIER_NEW
 72
 1
 11
5700.0
 21
10950.0
 31
0.0
100
AcDbText
 73
 2
  0
TEXT
  5
436
100
AcDbEntity
  8
PIN_NUMBERS_BTM
100
AcDbText
 10
5782.068
 20
12777.496
 30
0.0
 40
508.000000
 41
1.000000
  1
2
  7
COURIER_NEW
 72
 1
 11
6000.0
 21
13000.0
 31
0.0
100
AcDbText
 73
 2
  0
TEXT
  5
437
100
AcDbEntity
  8
PIN_NUMBERS_BTM
100
AcDbText
 10
5782.068
 20
11977.496
 30
0.0
 40
508.000000
 41
1.000000
  1
1
  7
COURIER_NEW
 72
 1
 11
6000.0
 21
12200.0
 31
0.0
100
AcDbText
 73
 2
  0
TEXT
  5
438
100
AcDbEntity
  8
PIN_NUMBERS_BTM
100
AcDbText
 10
11482.068
 20
7427.496
 30
0.0
 40
508.000000
 41
1.000000
  1
1
  7
COURIER_NEW
 72
 1
 11
11700.0
 21
7650.0
 31
0.0
100
AcDbText
 73
 2
  0
TEXT
  5
439
100
AcDbEntity
  8
PIN_NUMBERS_BTM
100
AcDbText
 10
11482.068
 20
8227.496
 30
0.0
 40
508.000000
 41
1.000000
  1
2
  7
COURIER_NEW
 72
 1
 11
11700.0
 21
8450.0
 31
0.0
100
AcDbText
 73
 2
  0
TEXT
  5
43A
100
AcDbEntity
  8
PIN_NUMBERS_BTM
100
AcDbText
 10
30232.068
 20
21427.496
 30
0.0
 40
508.000000
 41
1.000000
  1
2
  7
COURIER_NEW
 72
 1
 11
30450.0
 21
21650.0
 31
0.0
100
AcDbText
 73
 2
  0
TEXT
  5
43B
100
AcDbEntity
  8
PIN_NUMBERS_BTM
100
AcDbText
 10
29432.068
 20
21427.496
 30
0.0
 40
508.000000
 41
1.000000
  1
1
  7
COURIER_NEW
 72
 1
 11
29650.0
 21
21650.0
 31
0.0
100
AcDbText
 73
 2
  0
TEXT
  5
43C
100
AcDbEntity
  8
PIN_NUMBERS_BTM
100
AcDbText
 10
8632.068
 20
25171.246
 30
0.0
 40
508.000000
 41
1.000000
  1
2
  7
COURIER_NEW
 72
 1
 11
8850.0
 21
25393.75
 31
0.0
100
AcDbText
 73
 2
  0
TEXT
  5
43D
100
AcDbEntity
  8
PIN_NUMBERS_BTM
100
AcDbText
 10
8632.068
 20
23583.746
 30
0.0
 40
508.000000
 41
1.000000
  1
1
  7
COURIER_NEW
 72
 1
 11
8850.0
 21
23806.25
 31
0.0
100
AcDbText
 73
 2
  0
TEXT
  5
43E
100
AcDbEntity
  8
PIN_NUMBERS_BTM
100
AcDbText
 10
22938.318
 20
14927.496
 30
0.0
 40
508.000000
 41
1.000000
  1
1
  7
COURIER_NEW
 72
 1
 11
23156.25
 21
15150.0
 31
0.0
100
AcDbText
 73
 2
  0
TEXT
  5
43F
100
AcDbEntity
  8
PIN_NUMBERS_BTM
100
AcDbText
 10
24525.818
 20
14927.496
 30
0.0
 40
508.000000
 41
1.000000
  1
2
  7
COURIER_NEW
 72
 1
 11
24743.75
 21
15150.0
 31
0.0
100
AcDbText
 73
 2
  0
TEXT
  5
440
100
AcDbEntity
  8
PIN_NUMBERS_BTM
100
AcDbText
 10
28557.068
 20
11927.496
 30
0.0
 40
508.000000
 41
1.000000
  1
1
  7
COURIER_NEW
 72
 1
 11
28775.0
 21
12150.0
 31
0.0
100
AcDbText
 73
 2
  0
TEXT
  5
441
100
AcDbEntity
  8
PIN_NUMBERS_BTM
100
AcDbText
 10
27007.068
 20
11927.496
 30
0.0
 40
508.000000
 41
1.000000
  1
2
  7
COURIER_NEW
 72
 1
 11
27225.0
 21
12150.0
 31
0.0
100
AcDbText
 73
 2
  0
TEXT
  5
442
100
AcDbEntity
  8
PIN_NUMBERS_BTM
100
AcDbText
 10
4732.068
 20
27527.496
 30
0.0
 40
508.000000
 41
1.000000
  1
2
  7
COURIER_NEW
 72
 1
 11
4950.0
 21
27750.0
 31
0.0
100
AcDbText
 73
 2
  0
TEXT
  5
443
100
AcDbEntity
  8
PIN_NUMBERS_BTM
100
AcDbText
 10
4732.068
 20
26127.496
 30
0.0
 40
508.000000
 41
1.000000
  1
1
  7
COURIER_NEW
 72
 1
 11
4950.0
 21
26350.0
 31
0.0
100
AcDbText
 73
 2
  0
TEXT
  5
444
100
AcDbEntity
  8
PIN_NUMBERS_BTM
100
AcDbText
 10
7832.068
 20
4377.496
 30
0.0
 40
508.000000
 41
1.000000
  1
1
  7
COURIER_NEW
 72
 1
 11
8050.0
 21
4600.0
 31
0.0
100
AcDbText
 73
 2
  0
TEXT
  5
445
100
AcDbEntity
  8
PIN_NUMBERS_BTM
100
AcDbText
 10
9832.068
 20
4377.496
 30
0.0
 40
508.000000
 41
1.000000
  1
3
  7
COURIER_NEW
 72
 1
 11
10050.0
 21
4600.0
 31
0.0
100
AcDbText
 73
 2
  0
TEXT
  5
446
100
AcDbEntity
  8
PIN_NUMBERS_BTM
100
AcDbText
 10
11132.068
 20
1877.496
 30
0.0
 40
508.000000
 41
1.000000
  1
4
  7
COURIER_NEW
 72
 1
 11
11350.0
 21
2100.0
 31
0.0
100
AcDbText
 73
 2
  0
TEXT
  5
447
100
AcDbEntity
  8
PIN_NUMBERS_BTM
100
AcDbText
 10
6532.068
 20
1877.496
 30
0.0
 40
508.000000
 41
1.000000
  1
5
  7
COURIER_NEW
 72
 1
 11
6750.0
 21
2100.0
 31
0.0
100
AcDbText
 73
 2
  0
TEXT
  5
448
100
AcDbEntity
  8
PIN_NUMBERS_BTM
100
AcDbText
 10
8832.068
 20
4377.496
 30
0.0
 40
508.000000
 41
1.000000
  1
2
  7
COURIER_NEW
 72
 1
 11
9050.0
 21
4600.0
 31
0.0
100
AcDbText
 73
 2
  0
TEXT
  5
449
100
AcDbEntity
  8
PIN_NUMBERS_BTM
100
AcDbText
 10
27458.419
 20
31722.47
 30
0.0
 40
508.000000
 41
1.000000
  1
1
  7
COURIER_NEW
 72
 1
 11
27676.351
 21
31944.974
 31
0.0
100
AcDbText
 73
 2
  0
TEXT
  5
44A
100
AcDbEntity
  8
PIN_NUMBERS_BTM
100
AcDbText
 10
31732.068
 20
24577.496
 30
0.0
 40
508.000000
 41
1.000000
  1
2
  7
COURIER_NEW
 72
 1
 11
31950.0
 21
24800.0
 31
0.0
100
AcDbText
 73
 2
  0
TEXT
  5
44B
100
AcDbEntity
  8
PIN_NUMBERS_BTM
100
AcDbText
 10
31732.068
 20
23177.496
 30
0.0
 40
508.000000
 41
1.000000
  1
1
  7
COURIER_NEW
 72
 1
 11
31950.0
 21
23400.0
 31
0.0
100
AcDbText
 73
 2
  0
TEXT
  5
44C
100
AcDbEntity
  8
PIN_NUMBERS_BTM
100
AcDbText
 10
2782.068
 20
30777.496
 30
0.0
 40
508.000000
 41
1.000000
  1
1
  7
COURIER_NEW
 72
 1
 11
3000.0
 21
31000.0
 31
0.0
100
AcDbText
 73
 2
  0
TEXT
  5
44D
100
AcDbEntity
  8
PIN_NUMBERS_BTM
100
AcDbText
 10
8582.068
 20
9427.496
 30
0.0
 40
508.000000
 41
1.000000
  1
2
  7
COURIER_NEW
 72
 1
 11
8800.0
 21
9650.0
 31
0.0
100
AcDbText
 73
 2
  0
TEXT
  5
44E
100
AcDbEntity
  8
PIN_NUMBERS_BTM
100
AcDbText
 10
9982.068
 20
9427.496
 30
0.0
 40
508.000000
 41
1.000000
  1
1
  7
COURIER_NEW
 72
 1
 11
10200.0
 21
9650.0
 31
0.0
100
AcDbText
 73
 2
  0
TEXT
  5
44F
100
AcDbEntity
  8
PIN_NUMBERS_BTM
100
AcDbText
 10
30782.068
 20
30777.496
 30
0.0
 40
508.000000
 41
1.000000
  1
1
  7
COURIER_NEW
 72
 1
 11
31000.0
 21
31000.0
 31
0.0
100
AcDbText
 73
 2
  0
TEXT
  5
450
100
AcDbEntity
  8
PIN_NUMBERS_BTM
100
AcDbText
 10
1782.068
 20
6427.496
 30
0.0
 40
508.000000
 41
1.000000
  1
1
  7
COURIER_NEW
 72
 1
 11
2000.0
 21
6650.0
 31
0.0
100
AcDbText
 73
 2
  0
TEXT
  5
451
100
AcDbEntity
  8
PIN_NUMBERS_BTM
100
AcDbText
 10
20007.068
 20
24177.496
 30
0.0
 40
508.000000
 41
1.000000
  1
3
  7
COURIER_NEW
 72
 1
 11
20225.0
 21
24400.0
 31
0.0
100
AcDbText
 73
 2
  0
TEXT
  5
452
100
AcDbEntity
  8
PIN_NUMBERS_BTM
100
AcDbText
 10
20557.068
 20
24177.496
 30
0.0
 40
508.000000
 41
1.000000
  1
2
  7
COURIER_NEW
 72
 1
 11
20775.0
 21
24400.0
 31
0.0
100
AcDbText
 73
 2
  0
TEXT
  5
453
100
AcDbEntity
  8
PIN_NUMBERS_BTM
100
AcDbText
 10
20557.068
 20
24677.496
 30
0.0
 40
508.000000
 41
1.000000
  1
1
  7
COURIER_NEW
 72
 1
 11
20775.0
 21
24900.0
 31
0.0
100
AcDbText
 73
 2
  0
TEXT
  5
454
100
AcDbEntity
  8
PIN_NUMBERS_BTM
100
AcDbText
 10
20007.068
 20
24677.496
 30
0.0
 40
508.000000
 41
1.000000
  1
4
  7
COURIER_NEW
 72
 1
 11
20225.0
 21
24900.0
 31
0.0
100
AcDbText
 73
 2
  0
TEXT
  5
455
100
AcDbEntity
  8
PIN_NUMBERS_BTM
100
AcDbText
 10
21507.068
 20
24177.496
 30
0.0
 40
508.000000
 41
1.000000
  1
3
  7
COURIER_NEW
 72
 1
 11
21725.0
 21
24400.0
 31
0.0
100
AcDbText
 73
 2
  0
TEXT
  5
456
100
AcDbEntity
  8
PIN_NUMBERS_BTM
100
AcDbText
 10
22057.068
 20
24177.496
 30
0.0
 40
508.000000
 41
1.000000
  1
2
  7
COURIER_NEW
 72
 1
 11
22275.0
 21
24400.0
 31
0.0
100
AcDbText
 73
 2
  0
TEXT
  5
457
100
AcDbEntity
  8
PIN_NUMBERS_BTM
100
AcDbText
 10
21507.068
 20
24677.496
 30
0.0
 40
508.000000
 41
1.000000
  1
4
  7
COURIER_NEW
 72
 1
 11
21725.0
 21
24900.0
 31
0.0
100
AcDbText
 73
 2
  0
TEXT
  5
458
100
AcDbEntity
  8
PIN_NUMBERS_BTM
100
AcDbText
 10
22057.068
 20
24677.496
 30
0.0
 40
508.000000
 41
1.000000
  1
1
  7
COURIER_NEW
 72
 1
 11
22275.0
 21
24900.0
 31
0.0
100
AcDbText
 73
 2
  0
TEXT
  5
459
100
AcDbEntity
  8
PIN_NUMBERS_BTM
100
AcDbText
 10
23007.068
 20
24177.496
 30
0.0
 40
508.000000
 41
1.000000
  1
3
  7
COURIER_NEW
 72
 1
 11
23225.0
 21
24400.0
 31
0.0
100
AcDbText
 73
 2
  0
TEXT
  5
45A
100
AcDbEntity
  8
PIN_NUMBERS_BTM
100
AcDbText
 10
23557.068
 20
24177.496
 30
0.0
 40
508.000000
 41
1.000000
  1
2
  7
COURIER_NEW
 72
 1
 11
23775.0
 21
24400.0
 31
0.0
100
AcDbText
 73
 2
  0
TEXT
  5
45B
100
AcDbEntity
  8
PIN_NUMBERS_BTM
100
AcDbText
 10
23557.068
 20
24677.496
 30
0.0
 40
508.000000
 41
1.000000
  1
1
  7
COURIER_NEW
 72
 1
 11
23775.0
 21
24900.0
 31
0.0
100
AcDbText
 73
 2
  0
TEXT
  5
45C
100
AcDbEntity
  8
PIN_NUMBERS_BTM
100
AcDbText
 10
23007.068
 20
24677.496
 30
0.0
 40
508.000000
 41
1.000000
  1
4
  7
COURIER_NEW
 72
 1
 11
23225.0
 21
24900.0
 31
0.0
100
AcDbText
 73
 2
  0
TEXT
  5
45D
100
AcDbEntity
  8
PIN_NUMBERS_BTM
100
AcDbText
 10
30232.068
 20
22177.496
 30
0.0
 40
508.000000
 41
1.000000
  1
2
  7
COURIER_NEW
 72
 1
 11
30450.0
 21
22400.0
 31
0.0
100
AcDbText
 73
 2
  0
TEXT
  5
45E
100
AcDbEntity
  8
PIN_NUMBERS_BTM
100
AcDbText
 10
29432.068
 20
22177.496
 30
0.0
 40
508.000000
 41
1.000000
  1
1
  7
COURIER_NEW
 72
 1
 11
29650.0
 21
22400.0
 31
0.0
100
AcDbText
 73
 2
  0
TEXT
  5
45F
100
AcDbEntity
  8
PIN_NUMBERS_BTM
100
AcDbText
 10
14282.068
 20
3127.496
 30
0.0
 40
508.000000
 41
1.000000
  1
9
  7
COURIER_NEW
 72
 1
 11
14500.0
 21
3350.0
 31
0.0
100
AcDbText
 73
 2
  0
TEXT
  5
460
100
AcDbEntity
  8
PIN_NUMBERS_BTM
100
AcDbText
 10
13007.068
 20
3877.496
 30
0.0
 40
508.000000
 41
1.000000
  1
8
  7
COURIER_NEW
 72
 1
 11
13225.0
 21
4100.0
 31
0.0
100
AcDbText
 73
 2
  0
TEXT
  5
461
100
AcDbEntity
  8
PIN_NUMBERS_BTM
100
AcDbText
 10
13007.068
 20
2877.496
 30
0.0
 40
508.000000
 41
1.000000
  1
6
  7
COURIER_NEW
 72
 1
 11
13225.0
 21
3100.0
 31
0.0
100
AcDbText
 73
 2
  0
TEXT
  5
462
100
AcDbEntity
  8
PIN_NUMBERS_BTM
100
AcDbText
 10
13007.068
 20
2377.496
 30
0.0
 40
508.000000
 41
1.000000
  1
5
  7
COURIER_NEW
 72
 1
 11
13225.0
 21
2600.0
 31
0.0
100
AcDbText
 73
 2
  0
TEXT
  5
463
100
AcDbEntity
  8
PIN_NUMBERS_BTM
100
AcDbText
 10
15557.068
 20
2877.496
 30
0.0
 40
508.000000
 41
1.000000
  1
3
  7
COURIER_NEW
 72
 1
 11
15775.0
 21
3100.0
 31
0.0
100
AcDbText
 73
 2
  0
TEXT
  5
464
100
AcDbEntity
  8
PIN_NUMBERS_BTM
100
AcDbText
 10
15557.068
 20
3377.496
 30
0.0
 40
508.000000
 41
1.000000
  1
2
  7
COURIER_NEW
 72
 1
 11
15775.0
 21
3600.0
 31
0.0
100
AcDbText
 73
 2
  0
TEXT
  5
465
100
AcDbEntity
  8
PIN_NUMBERS_BTM
100
AcDbText
 10
15557.068
 20
3877.496
 30
0.0
 40
508.000000
 41
1.000000
  1
1
  7
COURIER_NEW
 72
 1
 11
15775.0
 21
4100.0
 31
0.0
100
AcDbText
 73
 2
  0
TEXT
  5
466
100
AcDbEntity
  8
PIN_NUMBERS_BTM
100
AcDbText
 10
13007.068
 20
3377.496
 30
0.0
 40
508.000000
 41
1.000000
  1
7
  7
COURIER_NEW
 72
 1
 11
13225.0
 21
3600.0
 31
0.0
100
AcDbText
 73
 2
  0
TEXT
  5
467
100
AcDbEntity
  8
PIN_NUMBERS_BTM
100
AcDbText
 10
15557.068
 20
2377.496
 30
0.0
 40
508.000000
 41
1.000000
  1
4
  7
COURIER_NEW
 72
 1
 11
15775.0
 21
2600.0
 31
0.0
100
AcDbText
 73
 2
  0
TEXT
  5
468
100
AcDbEntity
  8
PIN_NUMBERS_BTM
100
AcDbText
 10
27882.068
 20
27877.496
 30
0.0
 40
508.000000
 41
1.000000
  1
2
  7
COURIER_NEW
 72
 1
 11
28100.0
 21
28100.0
 31
0.0
100
AcDbText
 73
 2
  0
TEXT
  5
469
100
AcDbEntity
  8
PIN_NUMBERS_BTM
100
AcDbText
 10
27082.068
 20
27877.496
 30
0.0
 40
508.000000
 41
1.000000
  1
1
  7
COURIER_NEW
 72
 1
 11
27300.0
 21
28100.0
 31
0.0
100
AcDbText
 73
 2
  0
TEXT
  5
46A
100
AcDbEntity
  8
PIN_NUMBERS_BTM
100
AcDbText
 10
17007.068
 20
24177.496
 30
0.0
 40
508.000000
 41
1.000000
  1
3
  7
COURIER_NEW
 72
 1
 11
17225.0
 21
24400.0
 31
0.0
100
AcDbText
 73
 2
  0
TEXT
  5
46B
100
AcDbEntity
  8
PIN_NUMBERS_BTM
100
AcDbText
 10
17557.068
 20
24177.496
 30
0.0
 40
508.000000
 41
1.000000
  1
2
  7
COURIER_NEW
 72
 1
 11
17775.0
 21
24400.0
 31
0.0
100
AcDbText
 73
 2
  0
TEXT
  5
46C
100
AcDbEntity
  8
PIN_NUMBERS_BTM
100
AcDbText
 10
17007.068
 20
24677.496
 30
0.0
 40
508.000000
 41
1.000000
  1
4
  7
COURIER_NEW
 72
 1
 11
17225.0
 21
24900.0
 31
0.0
100
AcDbText
 73
 2
  0
TEXT
  5
46D
100
AcDbEntity
  8
PIN_NUMBERS_BTM
100
AcDbText
 10
17557.068
 20
24677.496
 30
0.0
 40
508.000000
 41
1.000000
  1
1
  7
COURIER_NEW
 72
 1
 11
17775.0
 21
24900.0
 31
0.0
100
AcDbText
 73
 2
  0
TEXT
  5
46E
100
AcDbEntity
  8
PIN_NUMBERS_BTM
100
AcDbText
 10
2782.068
 20
2777.496
 30
0.0
 40
508.000000
 41
1.000000
  1
1
  7
COURIER_NEW
 72
 1
 11
3000.0
 21
3000.0
 31
0.0
100
AcDbText
 73
 2
  0
TEXT
  5
46F
100
AcDbEntity
  8
PIN_NUMBERS_BTM
100
AcDbText
 10
32132.068
 20
16527.496
 30
0.0
 40
508.000000
 41
1.000000
  1
1
  7
COURIER_NEW
 72
 1
 11
32350.0
 21
16750.0
 31
0.0
100
AcDbText
 73
 2
  0
TEXT
  5
470
100
AcDbEntity
  8
PIN_NUMBERS_BTM
100
AcDbText
 10
1732.068
 20
25533.746
 30
0.0
 40
508.000000
 41
1.000000
  1
2
  7
COURIER_NEW
 72
 1
 11
1950.0
 21
25756.25
 31
0.0
100
AcDbText
 73
 2
  0
TEXT
  5
471
100
AcDbEntity
  8
PIN_NUMBERS_BTM
100
AcDbText
 10
1732.068
 20
27121.246
 30
0.0
 40
508.000000
 41
1.000000
  1
1
  7
COURIER_NEW
 72
 1
 11
1950.0
 21
27343.75
 31
0.0
100
AcDbText
 73
 2
  0
TEXT
  5
472
100
AcDbEntity
  8
PIN_NUMBERS_BTM
100
AcDbText
 10
18507.068
 20
24177.496
 30
0.0
 40
508.000000
 41
1.000000
  1
3
  7
COURIER_NEW
 72
 1
 11
18725.0
 21
24400.0
 31
0.0
100
AcDbText
 73
 2
  0
TEXT
  5
473
100
AcDbEntity
  8
PIN_NUMBERS_BTM
100
AcDbText
 10
19057.068
 20
24177.496
 30
0.0
 40
508.000000
 41
1.000000
  1
2
  7
COURIER_NEW
 72
 1
 11
19275.0
 21
24400.0
 31
0.0
100
AcDbText
 73
 2
  0
TEXT
  5
474
100
AcDbEntity
  8
PIN_NUMBERS_BTM
100
AcDbText
 10
18507.068
 20
24677.496
 30
0.0
 40
508.000000
 41
1.000000
  1
4
  7
COURIER_NEW
 72
 1
 11
18725.0
 21
24900.0
 31
0.0
100
AcDbText
 73
 2
  0
TEXT
  5
475
100
AcDbEntity
  8
PIN_NUMBERS_BTM
100
AcDbText
 10
19057.068
 20
24677.496
 30
0.0
 40
508.000000
 41
1.000000
  1
1
  7
COURIER_NEW
 72
 1
 11
19275.0
 21
24900.0
 31
0.0
100
AcDbText
 73
 2
  0
TEXT
  5
476
100
AcDbEntity
  8
PIN_NUMBERS_BTM
100
AcDbText
 10
10638.318
 20
20777.496
 30
0.0
 40
508.000000
 41
1.000000
  1
2
  7
COURIER_NEW
 72
 1
 11
10856.25
 21
21000.0
 31
0.0
100
AcDbText
 73
 2
  0
TEXT
  5
477
100
AcDbEntity
  8
PIN_NUMBERS_BTM
100
AcDbText
 10
12225.818
 20
20777.496
 30
0.0
 40
508.000000
 41
1.000000
  1
1
  7
COURIER_NEW
 72
 1
 11
12443.75
 21
21000.0
 31
0.0
100
AcDbText
 73
 2
  0
TEXT
  5
478
100
AcDbEntity
  8
PIN_NUMBERS_BTM
100
AcDbText
 10
30782.068
 20
2777.496
 30
0.0
 40
508.000000
 41
1.000000
  1
1
  7
COURIER_NEW
 72
 1
 11
31000.0
 21
3000.0
 31
0.0
100
AcDbText
 73
 2
  0
TEXT
  5
479
100
AcDbEntity
  8
PIN_NUMBERS_BTM
100
AcDbText
 10
16932.068
 20
3277.496
 30
0.0
 40
508.000000
 41
1.000000
  1
2
  7
COURIER_NEW
 72
 1
 11
17150.0
 21
3500.0
 31
0.0
100
AcDbText
 73
 2
  0
TEXT
  5
47A
100
AcDbEntity
  8
PIN_NUMBERS_BTM
100
AcDbText
 10
16932.068
 20
2477.496
 30
0.0
 40
508.000000
 41
1.000000
  1
3
  7
COURIER_NEW
 72
 1
 11
17150.0
 21
2700.0
 31
0.0
100
AcDbText
 73
 2
  0
TEXT
  5
47B
100
AcDbEntity
  8
PIN_NUMBERS_BTM
100
AcDbText
 10
16932.068
 20
4077.496
 30
0.0
 40
508.000000
 41
1.000000
  1
1
  7
COURIER_NEW
 72
 1
 11
17150.0
 21
4300.0
 31
0.0
100
AcDbText
 73
 2
  0
TEXT
  5
47C
100
AcDbEntity
  8
PIN_NUMBERS_BTM
100
AcDbText
 10
16232.068
 20
1227.496
 30
0.0
 40
508.000000
 41
1.000000
  1
2
  7
COURIER_NEW
 72
 1
 11
16450.0
 21
1450.0
 31
0.0
100
AcDbText
 73
 2
  0
TEXT
  5
47D
100
AcDbEntity
  8
PIN_NUMBERS_BTM
100
AcDbText
 10
17032.068
 20
1227.496
 30
0.0
 40
508.000000
 41
1.000000
  1
3
  7
COURIER_NEW
 72
 1
 11
17250.0
 21
1450.0
 31
0.0
100
AcDbText
 73
 2
  0
TEXT
  5
47E
100
AcDbEntity
  8
PIN_NUMBERS_BTM
100
AcDbText
 10
15432.068
 20
1227.496
 30
0.0
 40
508.000000
 41
1.000000
  1
1
  7
COURIER_NEW
 72
 1
 11
15650.0
 21
1450.0
 31
0.0
100
AcDbText
 73
 2
  0
TEXT
  5
47F
100
AcDbEntity
  8
PIN_NUMBERS_BTM
100
AcDbText
 10
14542.068
 20
22327.496
 30
0.0
 40
508.000000
 41
1.000000
  1
1
  7
COURIER_NEW
 72
 1
 11
14760.0
 21
22550.0
 31
0.0
100
AcDbText
 73
 2
  0
TEXT
  5
480
100
AcDbEntity
  8
PIN_NUMBERS_BTM
100
AcDbText
 10
15142.068
 20
22514.996
 30
0.0
 40
508.000000
 41
1.000000
  1
2
  7
COURIER_NEW
 72
 1
 11
15360.0
 21
22737.5
 31
0.0
100
AcDbText
 73
 2
  0
TEXT
  5
481
100
AcDbEntity
  8
PIN_NUMBERS_BTM
100
AcDbText
 10
15142.068
 20
22139.996
 30
0.0
 40
508.000000
 41
1.000000
  1
3
  7
COURIER_NEW
 72
 1
 11
15360.0
 21
22362.5
 31
0.0
100
AcDbText
 73
 2
  0
TEXT
  5
482
100
AcDbEntity
  8
PIN_NUMBERS_BTM
100
AcDbText
 10
13422.068
 20
22327.496
 30
0.0
 40
508.000000
 41
1.000000
  1
1
  7
COURIER_NEW
 72
 1
 11
13640.0
 21
22550.0
 31
0.0
100
AcDbText
 73
 2
  0
TEXT
  5
483
100
AcDbEntity
  8
PIN_NUMBERS_BTM
100
AcDbText
 10
14022.068
 20
22514.996
 30
0.0
 40
508.000000
 41
1.000000
  1
2
  7
COURIER_NEW
 72
 1
 11
14240.0
 21
22737.5
 31
0.0
100
AcDbText
 73
 2
  0
TEXT
  5
484
100
AcDbEntity
  8
PIN_NUMBERS_BTM
100
AcDbText
 10
14022.068
 20
22139.996
 30
0.0
 40
508.000000
 41
1.000000
  1
3
  7
COURIER_NEW
 72
 1
 11
14240.0
 21
22362.5
 31
0.0
100
AcDbText
 73
 2
  0
TEXT
  5
485
100
AcDbEntity
  8
PIN_NUMBERS_BTM
100
AcDbText
 10
6107.068
 20
24127.496
 30
0.0
 40
508.000000
 41
1.000000
  1
1
  7
COURIER_NEW
 72
 1
 11
6325.0
 21
24350.0
 31
0.0
100
AcDbText
 73
 2
  0
TEXT
  5
486
100
AcDbEntity
  8
PIN_NUMBERS_BTM
100
AcDbText
 10
6107.068
 20
23477.496
 30
0.0
 40
508.000000
 41
1.000000
  1
2
  7
COURIER_NEW
 72
 1
 11
6325.0
 21
23700.0
 31
0.0
100
AcDbText
 73
 2
  0
TEXT
  5
487
100
AcDbEntity
  8
PIN_NUMBERS_BTM
100
AcDbText
 10
6107.068
 20
22827.496
 30
0.0
 40
508.000000
 41
1.000000
  1
3
  7
COURIER_NEW
 72
 1
 11
6325.0
 21
23050.0
 31
0.0
100
AcDbText
 73
 2
  0
TEXT
  5
488
100
AcDbEntity
  8
PIN_NUMBERS_BTM
100
AcDbText
 10
4157.068
 20
22827.496
 30
0.0
 40
508.000000
 41
1.000000
  1
4
  7
COURIER_NEW
 72
 1
 11
4375.0
 21
23050.0
 31
0.0
100
AcDbText
 73
 2
  0
TEXT
  5
489
100
AcDbEntity
  8
PIN_NUMBERS_BTM
100
AcDbText
 10
4157.068
 20
23477.496
 30
0.0
 40
508.000000
 41
1.000000
  1
5
  7
COURIER_NEW
 72
 1
 11
4375.0
 21
23700.0
 31
0.0
100
AcDbText
 73
 2
  0
TEXT
  5
48A
100
AcDbEntity
  8
PIN_NUMBERS_BTM
100
AcDbText
 10
4157.068
 20
24127.496
 30
0.0
 40
508.000000
 41
1.000000
  1
6
  7
COURIER_NEW
 72
 1
 11
4375.0
 21
24350.0
 31
0.0
100
AcDbText
 73
 2
  0
TEXT
  5
48B
100
AcDbEntity
  8
PIN_NUMBERS_BTM
100
AcDbText
 10
5132.068
 20
23477.496
 30
0.0
 40
508.000000
 41
1.000000
  1
7
  7
COURIER_NEW
 72
 1
 11
5350.0
 21
23700.0
 31
0.0
100
AcDbText
 73
 2
  0
TEXT
  5
48C
100
AcDbEntity
  8
PIN_NUMBERS_BTM
100
AcDbText
 10
6932.068
 20
10977.496
 30
0.0
 40
508.000000
 41
1.000000
  1
5
  7
COURIER_NEW
 72
 1
 11
7150.0
 21
11200.0
 31
0.0
100
AcDbText
 73
 2
  0
TEXT
  5
48D
100
AcDbEntity
  8
PIN_NUMBERS_BTM
100
AcDbText
 10
8832.068
 20
10977.496
 30
0.0
 40
508.000000
 41
1.000000
  1
4
  7
COURIER_NEW
 72
 1
 11
9050.0
 21
11200.0
 31
0.0
100
AcDbText
 73
 2
  0
TEXT
  5
48E
100
AcDbEntity
  8
PIN_NUMBERS_BTM
100
AcDbText
 10
7882.068
 20
13777.496
 30
0.0
 40
508.000000
 41
1.000000
  1
2
  7
COURIER_NEW
 72
 1
 11
8100.0
 21
14000.0
 31
0.0
100
AcDbText
 73
 2
  0
TEXT
  5
48F
100
AcDbEntity
  8
PIN_NUMBERS_BTM
100
AcDbText
 10
6932.068
 20
13777.496
 30
0.0
 40
508.000000
 41
1.000000
  1
1
  7
COURIER_NEW
 72
 1
 11
7150.0
 21
14000.0
 31
0.0
100
AcDbText
 73
 2
  0
TEXT
  5
490
100
AcDbEntity
  8
PIN_NUMBERS_BTM
100
AcDbText
 10
8832.068
 20
13777.496
 30
0.0
 40
508.000000
 41
1.000000
  1
3
  7
COURIER_NEW
 72
 1
 11
9050.0
 21
14000.0
 31
0.0
100
AcDbText
 73
 2
  0
TEXT
  5
491
100
AcDbEntity
  8
PIN_NUMBERS_BTM
100
AcDbText
 10
14782.068
 20
5127.496
 30
0.0
 40
508.000000
 41
1.000000
  1
1
  7
COURIER_NEW
 72
 1
 11
15000.0
 21
5350.0
 31
0.0
100
AcDbText
 73
 2
  0
TEXT
  5
492
100
AcDbEntity
  8
PIN_NUMBERS_BTM
100
AcDbText
 10
15482.068
 20
5127.496
 30
0.0
 40
508.000000
 41
1.000000
  1
2
  7
COURIER_NEW
 72
 1
 11
15700.0
 21
5350.0
 31
0.0
100
AcDbText
 73
 2
  0
TEXT
  5
493
100
AcDbEntity
  8
PIN_NUMBERS_BTM
100
AcDbText
 10
15482.068
 20
5827.496
 30
0.0
 40
508.000000
 41
1.000000
  1
4
  7
COURIER_NEW
 72
 1
 11
15700.0
 21
6050.0
 31
0.0
100
AcDbText
 73
 2
  0
TEXT
  5
494
100
AcDbEntity
  8
PIN_NUMBERS_BTM
100
AcDbText
 10
16182.068
 20
5127.496
 30
0.0
 40
508.000000
 41
1.000000
  1
3
  7
COURIER_NEW
 72
 1
 11
16400.0
 21
5350.0
 31
0.0
100
AcDbText
 73
 2
  0
TEXT
  5
495
100
AcDbEntity
  8
PIN_NUMBERS_BTM
100
AcDbText
 10
5782.068
 20
16777.496
 30
0.0
 40
508.000000
 41
1.000000
  1
1
  7
COURIER_NEW
 72
 1
 11
6000.0
 21
17000.0
 31
0.0
100
AcDbText
 73
 2
  0
TEXT
  5
496
100
AcDbEntity
  8
PIN_NUMBERS_BTM
100
AcDbText
 10
10757.068
 20
7227.496
 30
0.0
 40
508.000000
 41
1.000000
  1
1
  7
COURIER_NEW
 72
 1
 11
10975.0
 21
7450.0
 31
0.0
100
AcDbText
 73
 2
  0
TEXT
  5
497
100
AcDbEntity
  8
PIN_NUMBERS_BTM
100
AcDbText
 10
10757.068
 20
6577.496
 30
0.0
 40
508.000000
 41
1.000000
  1
2
  7
COURIER_NEW
 72
 1
 11
10975.0
 21
6800.0
 31
0.0
100
AcDbText
 73
 2
  0
TEXT
  5
498
100
AcDbEntity
  8
PIN_NUMBERS_BTM
100
AcDbText
 10
10757.068
 20
5927.496
 30
0.0
 40
508.000000
 41
1.000000
  1
3
  7
COURIER_NEW
 72
 1
 11
10975.0
 21
6150.0
 31
0.0
100
AcDbText
 73
 2
  0
TEXT
  5
499
100
AcDbEntity
  8
PIN_NUMBERS_BTM
100
AcDbText
 10
8807.068
 20
5927.496
 30
0.0
 40
508.000000
 41
1.000000
  1
4
  7
COURIER_NEW
 72
 1
 11
9025.0
 21
6150.0
 31
0.0
100
AcDbText
 73
 2
  0
TEXT
  5
49A
100
AcDbEntity
  8
PIN_NUMBERS_BTM
100
AcDbText
 10
8807.068
 20
6577.496
 30
0.0
 40
508.000000
 41
1.000000
  1
5
  7
COURIER_NEW
 72
 1
 11
9025.0
 21
6800.0
 31
0.0
100
AcDbText
 73
 2
  0
TEXT
  5
49B
100
AcDbEntity
  8
PIN_NUMBERS_BTM
100
AcDbText
 10
8807.068
 20
7227.496
 30
0.0
 40
508.000000
 41
1.000000
  1
6
  7
COURIER_NEW
 72
 1
 11
9025.0
 21
7450.0
 31
0.0
100
AcDbText
 73
 2
  0
TEXT
  5
49C
100
AcDbEntity
  8
PIN_NUMBERS_BTM
100
AcDbText
 10
9782.068
 20
6577.496
 30
0.0
 40
508.000000
 41
1.000000
  1
7
  7
COURIER_NEW
 72
 1
 11
10000.0
 21
6800.0
 31
0.0
100
AcDbText
 73
 2
  0
TEXT
  5
49D
100
AcDbEntity
  8
PIN_NUMBERS_BTM
100
AcDbText
 10
24782.068
 20
20677.496
 30
0.0
 40
508.000000
 41
1.000000
  1
1
  7
COURIER_NEW
 72
 1
 11
25000.0
 21
20900.0
 31
0.0
100
AcDbText
 73
 2
  0
TEXT
  5
49E
100
AcDbEntity
  8
PIN_NUMBERS_BTM
100
AcDbText
 10
24782.068
 20
19877.496
 30
0.0
 40
508.000000
 41
1.000000
  1
2
  7
COURIER_NEW
 72
 1
 11
25000.0
 21
20100.0
 31
0.0
100
AcDbText
 73
 2
  0
TEXT
  5
49F
100
AcDbEntity
  8
PIN_NUMBERS_BTM
100
AcDbText
 10
24282.068
 20
8527.496
 30
0.0
 40
508.000000
 41
1.000000
  1
1
  7
COURIER_NEW
 72
 1
 11
24500.0
 21
8750.0
 31
0.0
100
AcDbText
 73
 2
  0
TEXT
  5
4A0
100
AcDbEntity
  8
PIN_NUMBERS_BTM
100
AcDbText
 10
23282.068
 20
8527.496
 30
0.0
 40
508.000000
 41
1.000000
  1
2
  7
COURIER_NEW
 72
 1
 11
23500.0
 21
8750.0
 31
0.0
100
AcDbText
 73
 2
  0
TEXT
  5
4A1
100
AcDbEntity
  8
PIN_NUMBERS_BTM
100
AcDbText
 10
22282.068
 20
8527.496
 30
0.0
 40
508.000000
 41
1.000000
  1
3
  7
COURIER_NEW
 72
 1
 11
22500.0
 21
8750.0
 31
0.0
100
AcDbText
 73
 2
  0
TEXT
  5
4A2
100
AcDbEntity
  8
PIN_NUMBERS_BTM
100
AcDbText
 10
21282.068
 20
8527.496
 30
0.0
 40
508.000000
 41
1.000000
  1
4
  7
COURIER_NEW
 72
 1
 11
21500.0
 21
8750.0
 31
0.0
100
AcDbText
 73
 2
  0
TEXT
  5
4A3
100
AcDbEntity
  8
PIN_NUMBERS_BTM
100
AcDbText
 10
18132.068
 20
6177.496
 30
0.0
 40
508.000000
 41
1.000000
  1
5
  7
COURIER_NEW
 72
 1
 11
18350.0
 21
6400.0
 31
0.0
100
AcDbText
 73
 2
  0
TEXT
  5
4A4
100
AcDbEntity
  8
PIN_NUMBERS_BTM
100
AcDbText
 10
27432.068
 20
6177.496
 30
0.0
 40
508.000000
 41
1.000000
  1
5
  7
COURIER_NEW
 72
 1
 11
27650.0
 21
6400.0
 31
0.0
100
AcDbText
 73
 2
  0
TEXT
  5
4A5
100
AcDbEntity
  8
PIN_NUMBERS_BTM
100
AcDbText
 10
31082.068
 20
12227.496
 30
0.0
 40
508.000000
 41
1.000000
  1
1
  7
COURIER_NEW
 72
 1
 11
31300.0
 21
12450.0
 31
0.0
100
AcDbText
 73
 2
  0
TEXT
  5
4A6
100
AcDbEntity
  8
PIN_NUMBERS_BTM
100
AcDbText
 10
31082.068
 20
11427.496
 30
0.0
 40
508.000000
 41
1.000000
  1
2
  7
COURIER_NEW
 72
 1
 11
31300.0
 21
11650.0
 31
0.0
100
AcDbText
 73
 2
  0
TEXT
  5
4A7
100
AcDbEntity
  8
PIN_NUMBERS_BTM
100
AcDbText
 10
29382.068
 20
22902.496
 30
0.0
 40
508.000000
 41
1.000000
  1
1
  7
COURIER_NEW
 72
 1
 11
29600.0
 21
23125.0
 31
0.0
100
AcDbText
 73
 2
  0
TEXT
  5
4A8
100
AcDbEntity
  8
PIN_NUMBERS_BTM
100
AcDbText
 10
28732.068
 20
22902.496
 30
0.0
 40
508.000000
 41
1.000000
  1
2
  7
COURIER_NEW
 72
 1
 11
28950.0
 21
23125.0
 31
0.0
100
AcDbText
 73
 2
  0
TEXT
  5
4A9
100
AcDbEntity
  8
PIN_NUMBERS_BTM
100
AcDbText
 10
28082.068
 20
22902.496
 30
0.0
 40
508.000000
 41
1.000000
  1
3
  7
COURIER_NEW
 72
 1
 11
28300.0
 21
23125.0
 31
0.0
100
AcDbText
 73
 2
  0
TEXT
  5
4AA
100
AcDbEntity
  8
PIN_NUMBERS_BTM
100
AcDbText
 10
28082.068
 20
24852.496
 30
0.0
 40
508.000000
 41
1.000000
  1
4
  7
COURIER_NEW
 72
 1
 11
28300.0
 21
25075.0
 31
0.0
100
AcDbText
 73
 2
  0
TEXT
  5
4AB
100
AcDbEntity
  8
PIN_NUMBERS_BTM
100
AcDbText
 10
28732.068
 20
24852.496
 30
0.0
 40
508.000000
 41
1.000000
  1
5
  7
COURIER_NEW
 72
 1
 11
28950.0
 21
25075.0
 31
0.0
100
AcDbText
 73
 2
  0
TEXT
  5
4AC
100
AcDbEntity
  8
PIN_NUMBERS_BTM
100
AcDbText
 10
29382.068
 20
24852.496
 30
0.0
 40
508.000000
 41
1.000000
  1
6
  7
COURIER_NEW
 72
 1
 11
29600.0
 21
25075.0
 31
0.0
100
AcDbText
 73
 2
  0
TEXT
  5
4AD
100
AcDbEntity
  8
PIN_NUMBERS_BTM
100
AcDbText
 10
28732.068
 20
23877.496
 30
0.0
 40
508.000000
 41
1.000000
  1
7
  7
COURIER_NEW
 72
 1
 11
28950.0
 21
24100.0
 31
0.0
100
AcDbText
 73
 2
  0
TEXT
  5
4AE
100
AcDbEntity
  8
PIN_NUMBERS_BTM
100
AcDbText
 10
23882.068
 20
20677.496
 30
0.0
 40
508.000000
 41
1.000000
  1
1
  7
COURIER_NEW
 72
 1
 11
24100.0
 21
20900.0
 31
0.0
100
AcDbText
 73
 2
  0
TEXT
  5
4AF
100
AcDbEntity
  8
PIN_NUMBERS_BTM
100
AcDbText
 10
23882.068
 20
19877.496
 30
0.0
 40
508.000000
 41
1.000000
  1
2
  7
COURIER_NEW
 72
 1
 11
24100.0
 21
20100.0
 31
0.0
100
AcDbText
 73
 2
  0
TEXT
  5
4B0
100
AcDbEntity
  8
PIN_NUMBERS_BTM
100
AcDbText
 10
4282.068
 20
9227.496
 30
0.0
 40
508.000000
 41
1.000000
  1
1
  7
COURIER_NEW
 72
 1
 11
4500.0
 21
9450.0
 31
0.0
100
AcDbText
 73
 2
  0
TEXT
  5
4B1
100
AcDbEntity
  8
PIN_NUMBERS_BTM
100
AcDbText
 10
4282.068
 20
10027.496
 30
0.0
 40
508.000000
 41
1.000000
  1
2
  7
COURIER_NEW
 72
 1
 11
4500.0
 21
10250.0
 31
0.0
100
AcDbText
 73
 2
  0
TEXT
  5
4B2
100
AcDbEntity
  8
PIN_NUMBERS_BTM
100
AcDbText
 10
29532.068
 20
11427.496
 30
0.0
 40
508.000000
 41
1.000000
  1
1
  7
COURIER_NEW
 72
 1
 11
29750.0
 21
11650.0
 31
0.0
100
AcDbText
 73
 2
  0
TEXT
  5
4B3
100
AcDbEntity
  8
PIN_NUMBERS_BTM
100
AcDbText
 10
29532.068
 20
12227.496
 30
0.0
 40
508.000000
 41
1.000000
  1
2
  7
COURIER_NEW
 72
 1
 11
29750.0
 21
12450.0
 31
0.0
100
AcDbText
 73
 2
  0
TEXT
  5
4B4
100
AcDbEntity
  8
PIN_NUMBERS_BTM
100
AcDbText
 10
19632.068
 20
10727.496
 30
0.0
 40
508.000000
 41
1.000000
  1
7
  7
COURIER_NEW
 72
 1
 11
19850.0
 21
10950.0
 31
0.0
100
AcDbText
 73
 2
  0
TEXT
  5
4B5
100
AcDbEntity
  8
PIN_NUMBERS_BTM
100
AcDbText
 10
19632.068
 20
10077.496
 30
0.0
 40
508.000000
 41
1.000000
  1
8
  7
COURIER_NEW
 72
 1
 11
19850.0
 21
10300.0
 31
0.0
100
AcDbText
 73
 2
  0
TEXT
  5
4B6
100
AcDbEntity
  8
PIN_NUMBERS_BTM
100
AcDbText
 10
19632.068
 20
9427.496
 30
0.0
 40
508.000000
 41
1.000000
  1
9
  7
COURIER_NEW
 72
 1
 11
19850.0
 21
9650.0
 31
0.0
100
AcDbText
 73
 2
  0
TEXT
  5
4B7
100
AcDbEntity
  8
PIN_NUMBERS_BTM
100
AcDbText
 10
19414.136
 20
8777.496
 30
0.0
 40
508.000000
 41
1.000000
  1
10
  7
COURIER_NEW
 72
 1
 11
19850.0
 21
9000.0
 31
0.0
100
AcDbText
 73
 2
  0
TEXT
  5
4B8
100
AcDbEntity
  8
PIN_NUMBERS_BTM
100
AcDbText
 10
15832.068
 20
9427.496
 30
0.0
 40
508.000000
 41
1.000000
  1
2
  7
COURIER_NEW
 72
 1
 11
16050.0
 21
9650.0
 31
0.0
100
AcDbText
 73
 2
  0
TEXT
  5
4B9
100
AcDbEntity
  8
PIN_NUMBERS_BTM
100
AcDbText
 10
15832.068
 20
10077.496
 30
0.0
 40
508.000000
 41
1.000000
  1
3
  7
COURIER_NEW
 72
 1
 11
16050.0
 21
10300.0
 31
0.0
100
AcDbText
 73
 2
  0
TEXT
  5
4BA
100
AcDbEntity
  8
PIN_NUMBERS_BTM
100
AcDbText
 10
15832.068
 20
10727.496
 30
0.0
 40
508.000000
 41
1.000000
  1
4
  7
COURIER_NEW
 72
 1
 11
16050.0
 21
10950.0
 31
0.0
100
AcDbText
 73
 2
  0
TEXT
  5
4BB
100
AcDbEntity
  8
PIN_NUMBERS_BTM
100
AcDbText
 10
15832.068
 20
11377.496
 30
0.0
 40
508.000000
 41
1.000000
  1
5
  7
COURIER_NEW
 72
 1
 11
16050.0
 21
11600.0
 31
0.0
100
AcDbText
 73
 2
  0
TEXT
  5
4BC
100
AcDbEntity
  8
PIN_NUMBERS_BTM
100
AcDbText
 10
15832.068
 20
8777.496
 30
0.0
 40
508.000000
 41
1.000000
  1
1
  7
COURIER_NEW
 72
 1
 11
16050.0
 21
9000.0
 31
0.0
100
AcDbText
 73
 2
  0
TEXT
  5
4BD
100
AcDbEntity
  8
PIN_NUMBERS_BTM
100
AcDbText
 10
19632.068
 20
11377.496
 30
0.0
 40
508.000000
 41
1.000000
  1
6
  7
COURIER_NEW
 72
 1
 11
19850.0
 21
11600.0
 31
0.0
100
AcDbText
 73
 2
  0
TEXT
  5
4BE
100
AcDbEntity
  8
PIN_NUMBERS_BTM
100
AcDbText
 10
17514.136
 20
10077.496
 30
0.0
 40
508.000000
 41
1.000000
  1
11
  7
COURIER_NEW
 72
 1
 11
17950.0
 21
10300.0
 31
0.0
100
AcDbText
 73
 2
  0
TEXT
  5
4BF
100
AcDbEntity
  8
PIN_NUMBERS_BTM
100
AcDbText
 10
14382.068
 20
20477.496
 30
0.0
 40
508.000000
 41
1.000000
  1
4
  7
COURIER_NEW
 72
 1
 11
14600.0
 21
20700.0
 31
0.0
100
AcDbText
 73
 2
  0
TEXT
  5
4C0
100
AcDbEntity
  8
PIN_NUMBERS_BTM
100
AcDbText
 10
15082.068
 20
20477.496
 30
0.0
 40
508.000000
 41
1.000000
  1
2
  7
COURIER_NEW
 72
 1
 11
15300.0
 21
20700.0
 31
0.0
100
AcDbText
 73
 2
  0
TEXT
  5
4C1
100
AcDbEntity
  8
PIN_NUMBERS_BTM
100
AcDbText
 10
15082.068
 20
21177.496
 30
0.0
 40
508.000000
 41
1.000000
  1
3
  7
COURIER_NEW
 72
 1
 11
15300.0
 21
21400.0
 31
0.0
100
AcDbText
 73
 2
  0
TEXT
  5
4C2
100
AcDbEntity
  8
PIN_NUMBERS_BTM
100
AcDbText
 10
15082.068
 20
19777.496
 30
0.0
 40
508.000000
 41
1.000000
  1
1
  7
COURIER_NEW
 72
 1
 11
15300.0
 21
20000.0
 31
0.0
100
AcDbText
 73
 2
  0
TEXT
  5
4C3
100
AcDbEntity
  8
PIN_NUMBERS_BTM
100
AcDbText
 10
5506.318
 20
6410.496
 30
0.0
 40
508.000000
 41
1.000000
  1
1
  7
COURIER_NEW
 72
 1
 11
5724.25
 21
6633.0
 31
0.0
100
AcDbText
 73
 2
  0
TEXT
  5
4C4
100
AcDbEntity
  8
PIN_NUMBERS_BTM
100
AcDbText
 10
7093.818
 20
6410.496
 30
0.0
 40
508.000000
 41
1.000000
  1
2
  7
COURIER_NEW
 72
 1
 11
7311.75
 21
6633.0
 31
0.0
100
AcDbText
 73
 2
  0
TEXT
  5
4C5
100
AcDbEntity
  8
PIN_NUMBERS_BTM
100
AcDbText
 10
18972.068
 20
13777.496
 30
0.0
 40
508.000000
 41
1.000000
  1
1
  7
COURIER_NEW
 72
 1
 11
19190.0
 21
14000.0
 31
0.0
100
AcDbText
 73
 2
  0
TEXT
  5
4C6
100
AcDbEntity
  8
PIN_NUMBERS_BTM
100
AcDbText
 10
18372.068
 20
13964.996
 30
0.0
 40
508.000000
 41
1.000000
  1
3
  7
COURIER_NEW
 72
 1
 11
18590.0
 21
14187.5
 31
0.0
100
AcDbText
 73
 2
  0
TEXT
  5
4C7
100
AcDbEntity
  8
PIN_NUMBERS_BTM
100
AcDbText
 10
18372.068
 20
13589.996
 30
0.0
 40
508.000000
 41
1.000000
  1
2
  7
COURIER_NEW
 72
 1
 11
18590.0
 21
13812.5
 31
0.0
100
AcDbText
 73
 2
  0
TEXT
  5
4C8
100
AcDbEntity
  8
PIN_NUMBERS_BTM
100
AcDbText
 10
8682.068
 20
21571.246
 30
0.0
 40
508.000000
 41
1.000000
  1
1
  7
COURIER_NEW
 72
 1
 11
8900.0
 21
21793.75
 31
0.0
100
AcDbText
 73
 2
  0
TEXT
  5
4C9
100
AcDbEntity
  8
PIN_NUMBERS_BTM
100
AcDbText
 10
8682.068
 20
19983.746
 30
0.0
 40
508.000000
 41
1.000000
  1
2
  7
COURIER_NEW
 72
 1
 11
8900.0
 21
20206.25
 31
0.0
100
AcDbText
 73
 2
  0
TEXT
  5
4CA
100
AcDbEntity
  8
PIN_NUMBERS_BTM
100
AcDbText
 10
11082.068
 20
17307.496
 30
0.0
 40
508.000000
 41
1.000000
  1
6
  7
COURIER_NEW
 72
 1
 11
11300.0
 21
17530.0
 31
0.0
100
AcDbText
 73
 2
  0
TEXT
  5
4CB
100
AcDbEntity
  8
PIN_NUMBERS_BTM
100
AcDbText
 10
11082.068
 20
16007.496
 30
0.0
 40
508.000000
 41
1.000000
  1
4
  7
COURIER_NEW
 72
 1
 11
11300.0
 21
16230.0
 31
0.0
100
AcDbText
 73
 2
  0
TEXT
  5
4CC
100
AcDbEntity
  8
PIN_NUMBERS_BTM
100
AcDbText
 10
13082.068
 20
17307.496
 30
0.0
 40
508.000000
 41
1.000000
  1
1
  7
COURIER_NEW
 72
 1
 11
13300.0
 21
17530.0
 31
0.0
100
AcDbText
 73
 2
  0
TEXT
  5
4CD
100
AcDbEntity
  8
PIN_NUMBERS_BTM
100
AcDbText
 10
13082.068
 20
16007.496
 30
0.0
 40
508.000000
 41
1.000000
  1
3
  7
COURIER_NEW
 72
 1
 11
13300.0
 21
16230.0
 31
0.0
100
AcDbText
 73
 2
  0
TEXT
  5
4CE
100
AcDbEntity
  8
PIN_NUMBERS_BTM
100
AcDbText
 10
11082.068
 20
16657.496
 30
0.0
 40
508.000000
 41
1.000000
  1
5
  7
COURIER_NEW
 72
 1
 11
11300.0
 21
16880.0
 31
0.0
100
AcDbText
 73
 2
  0
TEXT
  5
4CF
100
AcDbEntity
  8
PIN_NUMBERS_BTM
100
AcDbText
 10
13082.068
 20
16657.496
 30
0.0
 40
508.000000
 41
1.000000
  1
2
  7
COURIER_NEW
 72
 1
 11
13300.0
 21
16880.0
 31
0.0
100
AcDbText
 73
 2
  0
TEXT
  5
4D0
100
AcDbEntity
  8
PIN_NUMBERS_BTM
100
AcDbText
 10
27782.068
 20
16777.496
 30
0.0
 40
508.000000
 41
1.000000
  1
1
  7
COURIER_NEW
 72
 1
 11
28000.0
 21
17000.0
 31
0.0
100
AcDbText
 73
 2
  0
TEXT
  5
4D1
100
AcDbEntity
  8
PIN_NUMBERS_BTM
100
AcDbText
 10
25938.318
 20
20427.496
 30
0.0
 40
508.000000
 41
1.000000
  1
2
  7
COURIER_NEW
 72
 1
 11
26156.25
 21
20650.0
 31
0.0
100
AcDbText
 73
 2
  0
TEXT
  5
4D2
100
AcDbEntity
  8
PIN_NUMBERS_BTM
100
AcDbText
 10
27525.818
 20
20427.496
 30
0.0
 40
508.000000
 41
1.000000
  1
1
  7
COURIER_NEW
 72
 1
 11
27743.75
 21
20650.0
 31
0.0
100
AcDbText
 73
 2
  0
TEXT
  5
4D3
100
AcDbEntity
  8
PIN_NUMBERS_BTM
100
AcDbText
 10
13232.068
 20
5383.746
 30
0.0
 40
508.000000
 41
1.000000
  1
2
  7
COURIER_NEW
 72
 1
 11
13450.0
 21
5606.25
 31
0.0
100
AcDbText
 73
 2
  0
TEXT
  5
4D4
100
AcDbEntity
  8
PIN_NUMBERS_BTM
100
AcDbText
 10
13232.068
 20
6971.246
 30
0.0
 40
508.000000
 41
1.000000
  1
1
  7
COURIER_NEW
 72
 1
 11
13450.0
 21
7193.75
 31
0.0
100
AcDbText
 73
 2
  0
TEXT
  5
4D5
100
AcDbEntity
  8
PIN_NUMBERS_BTM
100
AcDbText
 10
30932.068
 20
9877.496
 30
0.0
 40
508.000000
 41
1.000000
  1
1
  7
COURIER_NEW
 72
 1
 11
31150.0
 21
10100.0
 31
0.0
100
AcDbText
 73
 2
  0
TEXT
  5
4D6
100
AcDbEntity
  8
PIN_NUMBERS_BTM
100
AcDbText
 10
30932.068
 20
10677.496
 30
0.0
 40
508.000000
 41
1.000000
  1
2
  7
COURIER_NEW
 72
 1
 11
31150.0
 21
10900.0
 31
0.0
100
AcDbText
 73
 2
  0
TEXT
  5
4D7
100
AcDbEntity
  8
PIN_NUMBERS_BTM
100
AcDbText
 10
11682.068
 20
18477.496
 30
0.0
 40
508.000000
 41
1.000000
  1
1
  7
COURIER_NEW
 72
 1
 11
11900.0
 21
18700.0
 31
0.0
100
AcDbText
 73
 2
  0
TEXT
  5
4D8
100
AcDbEntity
  8
PIN_NUMBERS_BTM
100
AcDbText
 10
12482.068
 20
18477.496
 30
0.0
 40
508.000000
 41
1.000000
  1
2
  7
COURIER_NEW
 72
 1
 11
12700.0
 21
18700.0
 31
0.0
100
AcDbText
 73
 2
  0
TEXT
  5
4D9
100
AcDbEntity
  8
PIN_NUMBERS_BTM
100
AcDbText
 10
29432.068
 20
25627.496
 30
0.0
 40
508.000000
 41
1.000000
  1
1
  7
COURIER_NEW
 72
 1
 11
29650.0
 21
25850.0
 31
0.0
100
AcDbText
 73
 2
  0
TEXT
  5
4DA
100
AcDbEntity
  8
PIN_NUMBERS_BTM
100
AcDbText
 10
30232.068
 20
25627.496
 30
0.0
 40
508.000000
 41
1.000000
  1
2
  7
COURIER_NEW
 72
 1
 11
30450.0
 21
25850.0
 31
0.0
100
AcDbText
 73
 2
  0
TEXT
  5
4DB
100
AcDbEntity
  8
PIN_NUMBERS_BTM
100
AcDbText
 10
1182.068
 20
11127.496
 30
0.0
 40
508.000000
 41
1.000000
  1
1
  7
COURIER_NEW
 72
 1
 11
1400.0
 21
11350.0
 31
0.0
100
AcDbText
 73
 2
  0
TEXT
  5
4DC
100
AcDbEntity
  8
PIN_NUMBERS_BTM
100
AcDbText
 10
1182.068
 20
10327.496
 30
0.0
 40
508.000000
 41
1.000000
  1
2
  7
COURIER_NEW
 72
 1
 11
1400.0
 21
10550.0
 31
0.0
100
AcDbText
 73
 2
  0
TEXT
  5
4DD
100
AcDbEntity
  8
PIN_NUMBERS_BTM
100
AcDbText
 10
21022.068
 20
13827.496
 30
0.0
 40
508.000000
 41
1.000000
  1
1
  7
COURIER_NEW
 72
 1
 11
21240.0
 21
14050.0
 31
0.0
100
AcDbText
 73
 2
  0
TEXT
  5
4DE
100
AcDbEntity
  8
PIN_NUMBERS_BTM
100
AcDbText
 10
20422.068
 20
14014.996
 30
0.0
 40
508.000000
 41
1.000000
  1
3
  7
COURIER_NEW
 72
 1
 11
20640.0
 21
14237.5
 31
0.0
100
AcDbText
 73
 2
  0
TEXT
  5
4DF
100
AcDbEntity
  8
PIN_NUMBERS_BTM
100
AcDbText
 10
20422.068
 20
13639.996
 30
0.0
 40
508.000000
 41
1.000000
  1
2
  7
COURIER_NEW
 72
 1
 11
20640.0
 21
13862.5
 31
0.0
100
AcDbText
 73
 2
  0
TEXT
  5
4E0
100
AcDbEntity
  8
PIN_NUMBERS_BTM
100
AcDbText
 10
27882.068
 20
28627.496
 30
0.0
 40
508.000000
 41
1.000000
  1
2
  7
COURIER_NEW
 72
 1
 11
28100.0
 21
28850.0
 31
0.0
100
AcDbText
 73
 2
  0
TEXT
  5
4E1
100
AcDbEntity
  8
PIN_NUMBERS_BTM
100
AcDbText
 10
27082.068
 20
28627.496
 30
0.0
 40
508.000000
 41
1.000000
  1
1
  7
COURIER_NEW
 72
 1
 11
27300.0
 21
28850.0
 31
0.0
100
AcDbText
 73
 2
  0
TEXT
  5
4E2
100
AcDbEntity
  8
PIN_NUMBERS_BTM
100
AcDbText
 10
7082.068
 20
7533.746
 30
0.0
 40
508.000000
 41
1.000000
  1
1
  7
COURIER_NEW
 72
 1
 11
7300.0
 21
7756.25
 31
0.0
100
AcDbText
 73
 2
  0
TEXT
  5
4E3
100
AcDbEntity
  8
PIN_NUMBERS_BTM
100
AcDbText
 10
7082.068
 20
9121.246
 30
0.0
 40
508.000000
 41
1.000000
  1
2
  7
COURIER_NEW
 72
 1
 11
7300.0
 21
9343.75
 31
0.0
100
AcDbText
 73
 2
  0
TEXT
  5
4E4
100
AcDbEntity
  8
PIN_NUMBERS_BTM
100
AcDbText
 10
1882.068
 20
10977.496
 30
0.0
 40
508.000000
 41
1.000000
  1
5
  7
COURIER_NEW
 72
 1
 11
2100.0
 21
11200.0
 31
0.0
100
AcDbText
 73
 2
  0
TEXT
  5
4E5
100
AcDbEntity
  8
PIN_NUMBERS_BTM
100
AcDbText
 10
3782.068
 20
10977.496
 30
0.0
 40
508.000000
 41
1.000000
  1
4
  7
COURIER_NEW
 72
 1
 11
4000.0
 21
11200.0
 31
0.0
100
AcDbText
 73
 2
  0
TEXT
  5
4E6
100
AcDbEntity
  8
PIN_NUMBERS_BTM
100
AcDbText
 10
2832.068
 20
13777.496
 30
0.0
 40
508.000000
 41
1.000000
  1
2
  7
COURIER_NEW
 72
 1
 11
3050.0
 21
14000.0
 31
0.0
100
AcDbText
 73
 2
  0
TEXT
  5
4E7
100
AcDbEntity
  8
PIN_NUMBERS_BTM
100
AcDbText
 10
1882.068
 20
13777.496
 30
0.0
 40
508.000000
 41
1.000000
  1
1
  7
COURIER_NEW
 72
 1
 11
2100.0
 21
14000.0
 31
0.0
100
AcDbText
 73
 2
  0
TEXT
  5
4E8
100
AcDbEntity
  8
PIN_NUMBERS_BTM
100
AcDbText
 10
3782.068
 20
13777.496
 30
0.0
 40
508.000000
 41
1.000000
  1
3
  7
COURIER_NEW
 72
 1
 11
4000.0
 21
14000.0
 31
0.0
100
AcDbText
 73
 2
  0
TEXT
  5
4E9
100
AcDbEntity
  8
PIN_NUMBERS_BTM
100
AcDbText
 10
9532.068
 20
25477.496
 30
0.0
 40
508.000000
 41
1.000000
  1
1
  7
COURIER_NEW
 72
 1
 11
9750.0
 21
25700.0
 31
0.0
100
AcDbText
 73
 2
  0
TEXT
  5
4EA
100
AcDbEntity
  8
PIN_NUMBERS_BTM
100
AcDbText
 10
10032.068
 20
25477.496
 30
0.0
 40
508.000000
 41
1.000000
  1
2
  7
COURIER_NEW
 72
 1
 11
10250.0
 21
25700.0
 31
0.0
100
AcDbText
 73
 2
  0
TEXT
  5
4EB
100
AcDbEntity
  8
PIN_NUMBERS_BTM
100
AcDbText
 10
10532.068
 20
25477.496
 30
0.0
 40
508.000000
 41
1.000000
  1
3
  7
COURIER_NEW
 72
 1
 11
10750.0
 21
25700.0
 31
0.0
100
AcDbText
 73
 2
  0
TEXT
  5
4EC
100
AcDbEntity
  8
PIN_NUMBERS_BTM
100
AcDbText
 10
11532.068
 20
25477.496
 30
0.0
 40
508.000000
 41
1.000000
  1
5
  7
COURIER_NEW
 72
 1
 11
11750.0
 21
25700.0
 31
0.0
100
AcDbText
 73
 2
  0
TEXT
  5
4ED
100
AcDbEntity
  8
PIN_NUMBERS_BTM
100
AcDbText
 10
12032.068
 20
25477.496
 30
0.0
 40
508.000000
 41
1.000000
  1
6
  7
COURIER_NEW
 72
 1
 11
12250.0
 21
25700.0
 31
0.0
100
AcDbText
 73
 2
  0
TEXT
  5
4EE
100
AcDbEntity
  8
PIN_NUMBERS_BTM
100
AcDbText
 10
12532.068
 20
25477.496
 30
0.0
 40
508.000000
 41
1.000000
  1
7
  7
COURIER_NEW
 72
 1
 11
12750.0
 21
25700.0
 31
0.0
100
AcDbText
 73
 2
  0
TEXT
  5
4EF
100
AcDbEntity
  8
PIN_NUMBERS_BTM
100
AcDbText
 10
13032.068
 20
25477.496
 30
0.0
 40
508.000000
 41
1.000000
  1
8
  7
COURIER_NEW
 72
 1
 11
13250.0
 21
25700.0
 31
0.0
100
AcDbText
 73
 2
  0
TEXT
  5
4F0
100
AcDbEntity
  8
PIN_NUMBERS_BTM
100
AcDbText
 10
13532.068
 20
25477.496
 30
0.0
 40
508.000000
 41
1.000000
  1
9
  7
COURIER_NEW
 72
 1
 11
13750.0
 21
25700.0
 31
0.0
100
AcDbText
 73
 2
  0
TEXT
  5
4F1
100
AcDbEntity
  8
PIN_NUMBERS_BTM
100
AcDbText
 10
11032.068
 20
25477.496
 30
0.0
 40
508.000000
 41
1.000000
  1
4
  7
COURIER_NEW
 72
 1
 11
11250.0
 21
25700.0
 31
0.0
100
AcDbText
 73
 2
  0
TEXT
  5
4F2
100
AcDbEntity
  8
PIN_NUMBERS_BTM
100
AcDbText
 10
13814.136
 20
25477.496
 30
0.0
 40
508.000000
 41
1.000000
  1
10
  7
COURIER_NEW
 72
 1
 11
14250.0
 21
25700.0
 31
0.0
100
AcDbText
 73
 2
  0
TEXT
  5
4F3
100
AcDbEntity
  8
PIN_NUMBERS_BTM
100
AcDbText
 10
16314.136
 20
25477.496
 30
0.0
 40
508.000000
 41
1.000000
  1
15
  7
COURIER_NEW
 72
 1
 11
16750.0
 21
25700.0
 31
0.0
100
AcDbText
 73
 2
  0
TEXT
  5
4F4
100
AcDbEntity
  8
PIN_NUMBERS_BTM
100
AcDbText
 10
14314.136
 20
25477.496
 30
0.0
 40
508.000000
 41
1.000000
  1
11
  7
COURIER_NEW
 72
 1
 11
14750.0
 21
25700.0
 31
0.0
100
AcDbText
 73
 2
  0
TEXT
  5
4F5
100
AcDbEntity
  8
PIN_NUMBERS_BTM
100
AcDbText
 10
14814.136
 20
25477.496
 30
0.0
 40
508.000000
 41
1.000000
  1
12
  7
COURIER_NEW
 72
 1
 11
15250.0
 21
25700.0
 31
0.0
100
AcDbText
 73
 2
  0
TEXT
  5
4F6
100
AcDbEntity
  8
PIN_NUMBERS_BTM
100
AcDbText
 10
15814.136
 20
25477.496
 30
0.0
 40
508.000000
 41
1.000000
  1
14
  7
COURIER_NEW
 72
 1
 11
16250.0
 21
25700.0
 31
0.0
100
AcDbText
 73
 2
  0
TEXT
  5
4F7
100
AcDbEntity
  8
PIN_NUMBERS_BTM
100
AcDbText
 10
23814.136
 20
25477.496
 30
0.0
 40
508.000000
 41
1.000000
  1
30
  7
COURIER_NEW
 72
 1
 11
24250.0
 21
25700.0
 31
0.0
100
AcDbText
 73
 2
  0
TEXT
  5
4F8
100
AcDbEntity
  8
PIN_NUMBERS_BTM
100
AcDbText
 10
22814.136
 20
31127.496
 30
0.0
 40
508.000000
 41
1.000000
  1
G6
  7
COURIER_NEW
 72
 1
 11
23250.0
 21
31350.0
 31
0.0
100
AcDbText
 73
 2
  0
TEXT
  5
4F9
100
AcDbEntity
  8
PIN_NUMBERS_BTM
100
AcDbText
 10
20314.136
 20
31127.496
 30
0.0
 40
508.000000
 41
1.000000
  1
G5
  7
COURIER_NEW
 72
 1
 11
20750.0
 21
31350.0
 31
0.0
100
AcDbText
 73
 2
  0
TEXT
  5
4FA
100
AcDbEntity
  8
PIN_NUMBERS_BTM
100
AcDbText
 10
17814.136
 20
31127.496
 30
0.0
 40
508.000000
 41
1.000000
  1
G4
  7
COURIER_NEW
 72
 1
 11
18250.0
 21
31350.0
 31
0.0
100
AcDbText
 73
 2
  0
TEXT
  5
4FB
100
AcDbEntity
  8
PIN_NUMBERS_BTM
100
AcDbText
 10
15314.136
 20
31127.496
 30
0.0
 40
508.000000
 41
1.000000
  1
G3
  7
COURIER_NEW
 72
 1
 11
15750.0
 21
31350.0
 31
0.0
100
AcDbText
 73
 2
  0
TEXT
  5
4FC
100
AcDbEntity
  8
PIN_NUMBERS_BTM
100
AcDbText
 10
12814.136
 20
31127.496
 30
0.0
 40
508.000000
 41
1.000000
  1
G2
  7
COURIER_NEW
 72
 1
 11
13250.0
 21
31350.0
 31
0.0
100
AcDbText
 73
 2
  0
TEXT
  5
4FD
100
AcDbEntity
  8
PIN_NUMBERS_BTM
100
AcDbText
 10
10314.136
 20
31127.496
 30
0.0
 40
508.000000
 41
1.000000
  1
G1
  7
COURIER_NEW
 72
 1
 11
10750.0
 21
31350.0
 31
0.0
100
AcDbText
 73
 2
  0
TEXT
  5
4FE
100
AcDbEntity
  8
PIN_NUMBERS_BTM
100
AcDbText
 10
8064.136
 20
30677.496
 30
0.0
 40
508.000000
 41
1.000000
  1
X2
  7
COURIER_NEW
 72
 1
 11
8500.0
 21
30900.0
 31
0.0
100
AcDbText
 73
 2
  0
TEXT
  5
4FF
100
AcDbEntity
  8
PIN_NUMBERS_BTM
100
AcDbText
 10
25064.136
 20
30677.496
 30
0.0
 40
508.000000
 41
1.000000
  1
X1
  7
COURIER_NEW
 72
 1
 11
25500.0
 21
30900.0
 31
0.0
100
AcDbText
 73
 2
  0
TEXT
  5
500
100
AcDbEntity
  8
PIN_NUMBERS_BTM
100
AcDbText
 10
15314.136
 20
25477.496
 30
0.0
 40
508.000000
 41
1.000000
  1
13
  7
COURIER_NEW
 72
 1
 11
15750.0
 21
25700.0
 31
0.0
100
AcDbText
 73
 2
  0
TEXT
  5
501
100
AcDbEntity
  8
PIN_NUMBERS_BTM
100
AcDbText
 10
19314.136
 20
25477.496
 30
0.0
 40
508.000000
 41
1.000000
  1
21
  7
COURIER_NEW
 72
 1
 11
19750.0
 21
25700.0
 31
0.0
100
AcDbText
 73
 2
  0
TEXT
  5
502
100
AcDbEntity
  8
PIN_NUMBERS_BTM
100
AcDbText
 10
20814.136
 20
25477.496
 30
0.0
 40
508.000000
 41
1.000000
  1
24
  7
COURIER_NEW
 72
 1
 11
21250.0
 21
25700.0
 31
0.0
100
AcDbText
 73
 2
  0
TEXT
  5
503
100
AcDbEntity
  8
PIN_NUMBERS_BTM
100
AcDbText
 10
17814.136
 20
25477.496
 30
0.0
 40
508.000000
 41
1.000000
  1
18
  7
COURIER_NEW
 72
 1
 11
18250.0
 21
25700.0
 31
0.0
100
AcDbText
 73
 2
  0
TEXT
  5
504
100
AcDbEntity
  8
PIN_NUMBERS_BTM
100
AcDbText
 10
22314.136
 20
25477.496
 30
0.0
 40
508.000000
 41
1.000000
  1
27
  7
COURIER_NEW
 72
 1
 11
22750.0
 21
25700.0
 31
0.0
100
AcDbText
 73
 2
  0
TEXT
  5
505
100
AcDbEntity
  8
PIN_NUMBERS_BTM
100
AcDbText
 10
20314.136
 20
25477.496
 30
0.0
 40
508.000000
 41
1.000000
  1
23
  7
COURIER_NEW
 72
 1
 11
20750.0
 21
25700.0
 31
0.0
100
AcDbText
 73
 2
  0
TEXT
  5
506
100
AcDbEntity
  8
PIN_NUMBERS_BTM
100
AcDbText
 10
19814.136
 20
25477.496
 30
0.0
 40
508.000000
 41
1.000000
  1
22
  7
COURIER_NEW
 72
 1
 11
20250.0
 21
25700.0
 31
0.0
100
AcDbText
 73
 2
  0
TEXT
  5
507
100
AcDbEntity
  8
PIN_NUMBERS_BTM
100
AcDbText
 10
21314.136
 20
25477.496
 30
0.0
 40
508.000000
 41
1.000000
  1
25
  7
COURIER_NEW
 72
 1
 11
21750.0
 21
25700.0
 31
0.0
100
AcDbText
 73
 2
  0
TEXT
  5
508
100
AcDbEntity
  8
PIN_NUMBERS_BTM
100
AcDbText
 10
21814.136
 20
25477.496
 30
0.0
 40
508.000000
 41
1.000000
  1
26
  7
COURIER_NEW
 72
 1
 11
22250.0
 21
25700.0
 31
0.0
100
AcDbText
 73
 2
  0
TEXT
  5
509
100
AcDbEntity
  8
PIN_NUMBERS_BTM
100
AcDbText
 10
23314.136
 20
25477.496
 30
0.0
 40
508.000000
 41
1.000000
  1
29
  7
COURIER_NEW
 72
 1
 11
23750.0
 21
25700.0
 31
0.0
100
AcDbText
 73
 2
  0
TEXT
  5
50A
100
AcDbEntity
  8
PIN_NUMBERS_BTM
100
AcDbText
 10
22814.136
 20
25477.496
 30
0.0
 40
508.000000
 41
1.000000
  1
28
  7
COURIER_NEW
 72
 1
 11
23250.0
 21
25700.0
 31
0.0
100
AcDbText
 73
 2
  0
TEXT
  5
50B
100
AcDbEntity
  8
PIN_NUMBERS_BTM
100
AcDbText
 10
16814.136
 20
25477.496
 30
0.0
 40
508.000000
 41
1.000000
  1
16
  7
COURIER_NEW
 72
 1
 11
17250.0
 21
25700.0
 31
0.0
100
AcDbText
 73
 2
  0
TEXT
  5
50C
100
AcDbEntity
  8
PIN_NUMBERS_BTM
100
AcDbText
 10
17314.136
 20
25477.496
 30
0.0
 40
508.000000
 41
1.000000
  1
17
  7
COURIER_NEW
 72
 1
 11
17750.0
 21
25700.0
 31
0.0
100
AcDbText
 73
 2
  0
TEXT
  5
50D
100
AcDbEntity
  8
PIN_NUMBERS_BTM
100
AcDbText
 10
18314.136
 20
25477.496
 30
0.0
 40
508.000000
 41
1.000000
  1
19
  7
COURIER_NEW
 72
 1
 11
18750.0
 21
25700.0
 31
0.0
100
AcDbText
 73
 2
  0
TEXT
  5
50E
100
AcDbEntity
  8
PIN_NUMBERS_BTM
100
AcDbText
 10
18814.136
 20
25477.496
 30
0.0
 40
508.000000
 41
1.000000
  1
20
  7
COURIER_NEW
 72
 1
 11
19250.0
 21
25700.0
 31
0.0
100
AcDbText
 73
 2
  0
TEXT
  5
50F
100
AcDbEntity
  8
PIN_NUMBERS_BTM
100
AcDbText
 10
5882.068
 20
7327.496
 30
0.0
 40
508.000000
 41
1.000000
  1
1
  7
COURIER_NEW
 72
 1
 11
6100.0
 21
7550.0
 31
0.0
100
AcDbText
 73
 2
  0
TEXT
  5
510
100
AcDbEntity
  8
PIN_NUMBERS_BTM
100
AcDbText
 10
5882.068
 20
8127.496
 30
0.0
 40
508.000000
 41
1.000000
  1
2
  7
COURIER_NEW
 72
 1
 11
6100.0
 21
8350.0
 31
0.0
100
AcDbText
 73
 2
  0
TEXT
  5
511
100
AcDbEntity
  8
PIN_NUMBERS_BTM
100
AcDbText
 10
30275.818
 20
20427.496
 30
0.0
 40
508.000000
 41
1.000000
  1
2
  7
COURIER_NEW
 72
 1
 11
30493.75
 21
20650.0
 31
0.0
100
AcDbText
 73
 2
  0
TEXT
  5
512
100
AcDbEntity
  8
PIN_NUMBERS_BTM
100
AcDbText
 10
28688.318
 20
20427.496
 30
0.0
 40
508.000000
 41
1.000000
  1
1
  7
COURIER_NEW
 72
 1
 11
28906.25
 21
20650.0
 31
0.0
100
AcDbText
 73
 2
  0
TEXT
  5
513
100
AcDbEntity
  8
PIN_NUMBERS_BTM
100
AcDbText
 10
7532.068
 20
22677.496
 30
0.0
 40
508.000000
 41
1.000000
  1
1
  7
COURIER_NEW
 72
 1
 11
7750.0
 21
22900.0
 31
0.0
100
AcDbText
 73
 2
  0
TEXT
  5
514
100
AcDbEntity
  8
PIN_NUMBERS_BTM
100
AcDbText
 10
6732.068
 20
22677.496
 30
0.0
 40
508.000000
 41
1.000000
  1
2
  7
COURIER_NEW
 72
 1
 11
6950.0
 21
22900.0
 31
0.0
100
AcDbText
 73
 2
  0
TEXT
  5
515
100
AcDbEntity
  8
PIN_NUMBERS_BTM
100
AcDbText
 10
27132.068
 20
10477.496
 30
0.0
 40
508.000000
 41
1.000000
  1
2
  7
COURIER_NEW
 72
 1
 11
27350.0
 21
10700.0
 31
0.0
100
AcDbText
 73
 2
  0
TEXT
  5
516
100
AcDbEntity
  8
PIN_NUMBERS_BTM
100
AcDbText
 10
26332.068
 20
10477.496
 30
0.0
 40
508.000000
 41
1.000000
  1
1
  7
COURIER_NEW
 72
 1
 11
26550.0
 21
10700.0
 31
0.0
100
AcDbText
 73
 2
  0
TEXT
  5
517
100
AcDbEntity
  8
PIN_NUMBERS_BTM
100
AcDbText
 10
2782.068
 20
9227.496
 30
0.0
 40
508.000000
 41
1.000000
  1
1
  7
COURIER_NEW
 72
 1
 11
3000.0
 21
9450.0
 31
0.0
100
AcDbText
 73
 2
  0
TEXT
  5
518
100
AcDbEntity
  8
PIN_NUMBERS_BTM
100
AcDbText
 10
2782.068
 20
10027.496
 30
0.0
 40
508.000000
 41
1.000000
  1
2
  7
COURIER_NEW
 72
 1
 11
3000.0
 21
10250.0
 31
0.0
100
AcDbText
 73
 2
  0
TEXT
  5
519
100
AcDbEntity
  8
PIN_NUMBERS_BTM
100
AcDbText
 10
14032.068
 20
17127.496
 30
0.0
 40
508.000000
 41
1.000000
  1
2
  7
COURIER_NEW
 72
 1
 11
14250.0
 21
17350.0
 31
0.0
100
AcDbText
 73
 2
  0
TEXT
  5
51A
100
AcDbEntity
  8
PIN_NUMBERS_BTM
100
AcDbText
 10
14032.068
 20
17927.496
 30
0.0
 40
508.000000
 41
1.000000
  1
1
  7
COURIER_NEW
 72
 1
 11
14250.0
 21
18150.0
 31
0.0
100
AcDbText
 73
 2
  0
TEXT
  5
51B
100
AcDbEntity
  8
PIN_NUMBERS_BTM
100
AcDbText
 10
14032.068
 20
15627.496
 30
0.0
 40
508.000000
 41
1.000000
  1
2
  7
COURIER_NEW
 72
 1
 11
14250.0
 21
15850.0
 31
0.0
100
AcDbText
 73
 2
  0
TEXT
  5
51C
100
AcDbEntity
  8
PIN_NUMBERS_BTM
100
AcDbText
 10
14032.068
 20
16427.496
 30
0.0
 40
508.000000
 41
1.000000
  1
1
  7
COURIER_NEW
 72
 1
 11
14250.0
 21
16650.0
 31
0.0
100
AcDbText
 73
 2
  0
TEXT
  5
51D
100
AcDbEntity
  8
PIN_NUMBERS_BTM
100
AcDbText
 10
10032.068
 20
11477.496
 30
0.0
 40
508.000000
 41
1.000000
  1
2
  7
COURIER_NEW
 72
 1
 11
10250.0
 21
11700.0
 31
0.0
100
AcDbText
 73
 2
  0
TEXT
  5
51E
100
AcDbEntity
  8
PIN_NUMBERS_BTM
100
AcDbText
 10
10032.068
 20
10677.496
 30
0.0
 40
508.000000
 41
1.000000
  1
1
  7
COURIER_NEW
 72
 1
 11
10250.0
 21
10900.0
 31
0.0
100
AcDbText
 73
 2
  0
TEXT
  5
51F
100
AcDbEntity
  8
PIN_NUMBERS_BTM
100
AcDbText
 10
10232.068
 20
17877.496
 30
0.0
 40
508.000000
 41
1.000000
  1
1
  7
COURIER_NEW
 72
 1
 11
10450.0
 21
18100.0
 31
0.0
100
AcDbText
 73
 2
  0
TEXT
  5
520
100
AcDbEntity
  8
PIN_NUMBERS_BTM
100
AcDbText
 10
9432.068
 20
17877.496
 30
0.0
 40
508.000000
 41
1.000000
  1
2
  7
COURIER_NEW
 72
 1
 11
9650.0
 21
18100.0
 31
0.0
100
AcDbText
 73
 2
  0
TEXT
  5
521
100
AcDbEntity
  8
PIN_NUMBERS_BTM
100
AcDbText
 10
10232.068
 20
15627.496
 30
0.0
 40
508.000000
 41
1.000000
  1
1
  7
COURIER_NEW
 72
 1
 11
10450.0
 21
15850.0
 31
0.0
100
AcDbText
 73
 2
  0
TEXT
  5
522
100
AcDbEntity
  8
PIN_NUMBERS_BTM
100
AcDbText
 10
9432.068
 20
15627.496
 30
0.0
 40
508.000000
 41
1.000000
  1
2
  7
COURIER_NEW
 72
 1
 11
9650.0
 21
15850.0
 31
0.0
100
AcDbText
 73
 2
  0
TEXT
  5
523
100
AcDbEntity
  8
PIN_NUMBERS_BTM
100
AcDbText
 10
4932.068
 20
11977.496
 30
0.0
 40
508.000000
 41
1.000000
  1
2
  7
COURIER_NEW
 72
 1
 11
5150.0
 21
12200.0
 31
0.0
100
AcDbText
 73
 2
  0
TEXT
  5
524
100
AcDbEntity
  8
PIN_NUMBERS_BTM
100
AcDbText
 10
4932.068
 20
12777.496
 30
0.0
 40
508.000000
 41
1.000000
  1
1
  7
COURIER_NEW
 72
 1
 11
5150.0
 21
13000.0
 31
0.0
100
AcDbText
 73
 2
  0
TEXT
  5
525
100
AcDbEntity
  8
PIN_NUMBERS_BTM
100
AcDbText
 10
17732.068
 20
14177.496
 30
0.0
 40
508.000000
 41
1.000000
  1
1
  7
COURIER_NEW
 72
 1
 11
17950.0
 21
14400.0
 31
0.0
100
AcDbText
 73
 2
  0
TEXT
  5
526
100
AcDbEntity
  8
PIN_NUMBERS_BTM
100
AcDbText
 10
17732.068
 20
13377.496
 30
0.0
 40
508.000000
 41
1.000000
  1
2
  7
COURIER_NEW
 72
 1
 11
17950.0
 21
13600.0
 31
0.0
100
AcDbText
 73
 2
  0
TEXT
  5
527
100
AcDbEntity
  8
PIN_NUMBERS_BTM
100
AcDbText
 10
12782.068
 20
22677.496
 30
0.0
 40
508.000000
 41
1.000000
  1
1
  7
COURIER_NEW
 72
 1
 11
13000.0
 21
22900.0
 31
0.0
100
AcDbText
 73
 2
  0
TEXT
  5
528
100
AcDbEntity
  8
PIN_NUMBERS_BTM
100
AcDbText
 10
11982.068
 20
22677.496
 30
0.0
 40
508.000000
 41
1.000000
  1
2
  7
COURIER_NEW
 72
 1
 11
12200.0
 21
22900.0
 31
0.0
100
AcDbText
 73
 2
  0
TEXT
  5
529
100
AcDbEntity
  8
PIN_NUMBERS_BTM
100
AcDbText
 10
19782.068
 20
14227.496
 30
0.0
 40
508.000000
 41
1.000000
  1
1
  7
COURIER_NEW
 72
 1
 11
20000.0
 21
14450.0
 31
0.0
100
AcDbText
 73
 2
  0
TEXT
  5
52A
100
AcDbEntity
  8
PIN_NUMBERS_BTM
100
AcDbText
 10
19782.068
 20
13427.496
 30
0.0
 40
508.000000
 41
1.000000
  1
2
  7
COURIER_NEW
 72
 1
 11
20000.0
 21
13650.0
 31
0.0
100
AcDbText
 73
 2
  0
TEXT
  5
52B
100
AcDbEntity
  8
PIN_NUMBERS_BTM
100
AcDbText
 10
12132.068
 20
4527.496
 30
0.0
 40
508.000000
 41
1.000000
  1
2
  7
COURIER_NEW
 72
 1
 11
12350.0
 21
4750.0
 31
0.0
100
AcDbText
 73
 2
  0
TEXT
  5
52C
100
AcDbEntity
  8
PIN_NUMBERS_BTM
100
AcDbText
 10
12132.068
 20
3727.496
 30
0.0
 40
508.000000
 41
1.000000
  1
1
  7
COURIER_NEW
 72
 1
 11
12350.0
 21
3950.0
 31
0.0
100
AcDbText
 73
 2
  0
TEXT
  5
52D
100
AcDbEntity
  8
PIN_NUMBERS_BTM
100
AcDbText
 10
12782.068
 20
23427.496
 30
0.0
 40
508.000000
 41
1.000000
  1
1
  7
COURIER_NEW
 72
 1
 11
13000.0
 21
23650.0
 31
0.0
100
AcDbText
 73
 2
  0
TEXT
  5
52E
100
AcDbEntity
  8
PIN_NUMBERS_BTM
100
AcDbText
 10
11982.068
 20
23427.496
 30
0.0
 40
508.000000
 41
1.000000
  1
2
  7
COURIER_NEW
 72
 1
 11
12200.0
 21
23650.0
 31
0.0
100
AcDbText
 73
 2
  0
TEXT
  5
52F
100
AcDbEntity
  8
PIN_NUMBERS_BTM
100
AcDbText
 10
14632.068
 20
23227.496
 30
0.0
 40
508.000000
 41
1.000000
  1
2
  7
COURIER_NEW
 72
 1
 11
14850.0
 21
23450.0
 31
0.0
100
AcDbText
 73
 2
  0
TEXT
  5
530
100
AcDbEntity
  8
PIN_NUMBERS_BTM
100
AcDbText
 10
15432.068
 20
23227.496
 30
0.0
 40
508.000000
 41
1.000000
  1
1
  7
COURIER_NEW
 72
 1
 11
15650.0
 21
23450.0
 31
0.0
100
AcDbText
 73
 2
  0
TEXT
  5
531
100
AcDbEntity
  8
PIN_NUMBERS_BTM
100
AcDbText
 10
29582.068
 20
6827.496
 30
0.0
 40
508.000000
 41
1.000000
  1
1
  7
COURIER_NEW
 72
 1
 11
29800.0
 21
7050.0
 31
0.0
100
AcDbText
 73
 2
  0
TEXT
  5
532
100
AcDbEntity
  8
PIN_NUMBERS_BTM
100
AcDbText
 10
29582.068
 20
7627.496
 30
0.0
 40
508.000000
 41
1.000000
  1
2
  7
COURIER_NEW
 72
 1
 11
29800.0
 21
7850.0
 31
0.0
100
AcDbText
 73
 2
  0
TEXT
  5
533
100
AcDbEntity
  8
PIN_NUMBERS_BTM
100
AcDbText
 10
13782.068
 20
23927.496
 30
0.0
 40
508.000000
 41
1.000000
  1
2
  7
COURIER_NEW
 72
 1
 11
14000.0
 21
24150.0
 31
0.0
100
AcDbText
 73
 2
  0
TEXT
  5
534
100
AcDbEntity
  8
PIN_NUMBERS_BTM
100
AcDbText
 10
13782.068
 20
24727.496
 30
0.0
 40
508.000000
 41
1.000000
  1
1
  7
COURIER_NEW
 72
 1
 11
14000.0
 21
24950.0
 31
0.0
100
AcDbText
 73
 2
  0
TEXT
  5
535
100
AcDbEntity
  8
PIN_NUMBERS_BTM
100
AcDbText
 10
30782.068
 20
16227.496
 30
0.0
 40
508.000000
 41
1.000000
  1
1
  7
COURIER_NEW
 72
 1
 11
31000.0
 21
16450.0
 31
0.0
100
AcDbText
 73
 2
  0
TEXT
  5
536
100
AcDbEntity
  8
PIN_NUMBERS_BTM
100
AcDbText
 10
30782.068
 20
17027.496
 30
0.0
 40
508.000000
 41
1.000000
  1
2
  7
COURIER_NEW
 72
 1
 11
31000.0
 21
17250.0
 31
0.0
100
AcDbText
 73
 2
  0
TEXT
  5
537
100
AcDbEntity
  8
PIN_NUMBERS_BTM
100
AcDbText
 10
10232.068
 20
17127.496
 30
0.0
 40
508.000000
 41
1.000000
  1
1
  7
COURIER_NEW
 72
 1
 11
10450.0
 21
17350.0
 31
0.0
100
AcDbText
 73
 2
  0
TEXT
  5
538
100
AcDbEntity
  8
PIN_NUMBERS_BTM
100
AcDbText
 10
9432.068
 20
17127.496
 30
0.0
 40
508.000000
 41
1.000000
  1
2
  7
COURIER_NEW
 72
 1
 11
9650.0
 21
17350.0
 31
0.0
100
AcDbText
 73
 2
  0
TEXT
  5
539
100
AcDbEntity
  8
PIN_NUMBERS_BTM
100
AcDbText
 10
10232.068
 20
16377.496
 30
0.0
 40
508.000000
 41
1.000000
  1
1
  7
COURIER_NEW
 72
 1
 11
10450.0
 21
16600.0
 31
0.0
100
AcDbText
 73
 2
  0
TEXT
  5
53A
100
AcDbEntity
  8
PIN_NUMBERS_BTM
100
AcDbText
 10
9432.068
 20
16377.496
 30
0.0
 40
508.000000
 41
1.000000
  1
2
  7
COURIER_NEW
 72
 1
 11
9650.0
 21
16600.0
 31
0.0
100
AcDbText
 73
 2
  0
TEXT
  5
53B
100
AcDbEntity
  8
PIN_NUMBERS_BTM
100
AcDbText
 10
12482.068
 20
19277.496
 30
0.0
 40
508.000000
 41
1.000000
  1
1
  7
COURIER_NEW
 72
 1
 11
12700.0
 21
19500.0
 31
0.0
100
AcDbText
 73
 2
  0
TEXT
  5
53C
100
AcDbEntity
  8
PIN_NUMBERS_BTM
100
AcDbText
 10
11682.068
 20
19277.496
 30
0.0
 40
508.000000
 41
1.000000
  1
2
  7
COURIER_NEW
 72
 1
 11
11900.0
 21
19500.0
 31
0.0
100
AcDbText
 73
 2
  0
TEXT
  5
53D
100
AcDbEntity
  8
PIN_NUMBERS_BTM
100
AcDbText
 10
2132.068
 20
17477.496
 30
0.0
 40
508.000000
 41
1.000000
  1
2
  7
COURIER_NEW
 72
 1
 11
2350.0
 21
17700.0
 31
0.0
100
AcDbText
 73
 2
  0
TEXT
  5
53E
100
AcDbEntity
  8
PIN_NUMBERS_BTM
100
AcDbText
 10
2132.068
 20
16677.496
 30
0.0
 40
508.000000
 41
1.000000
  1
1
  7
COURIER_NEW
 72
 1
 11
2350.0
 21
16900.0
 31
0.0
100
AcDbText
 73
 2
  0
TEXT
  5
53F
100
AcDbEntity
  8
PIN_NUMBERS_TOP
100
AcDbText
 10
16588.318
 20
12377.496
 30
0.0
 40
508.000000
 41
1.000000
  1
2
  7
COURIER_NEW
 72
 1
 11
16806.25
 21
12600.0
 31
0.0
100
AcDbText
 73
 2
  0
TEXT
  5
540
100
AcDbEntity
  8
PIN_NUMBERS_TOP
100
AcDbText
 10
18175.818
 20
12377.496
 30
0.0
 40
508.000000
 41
1.000000
  1
1
  7
COURIER_NEW
 72
 1
 11
18393.75
 21
12600.0
 31
0.0
100
AcDbText
 73
 2
  0
TEXT
  5
541
100
AcDbEntity
  8
PIN_NUMBERS_TOP
100
AcDbText
 10
12432.068
 20
14227.496
 30
0.0
 40
508.000000
 41
1.000000
  1
2
  7
COURIER_NEW
 72
 1
 11
12650.0
 21
14450.0
 31
0.0
100
AcDbText
 73
 2
  0
TEXT
  5
542
100
AcDbEntity
  8
PIN_NUMBERS_TOP
100
AcDbText
 10
12432.068
 20
13427.496
 30
0.0
 40
508.000000
 41
1.000000
  1
1
  7
COURIER_NEW
 72
 1
 11
12650.0
 21
13650.0
 31
0.0
100
AcDbText
 73
 2
  0
TEXT
  5
543
100
AcDbEntity
  8
PIN_NUMBERS_TOP
100
AcDbText
 10
22582.068
 20
22321.246
 30
0.0
 40
508.000000
 41
1.000000
  1
2
  7
COURIER_NEW
 72
 1
 11
22800.0
 21
22543.75
 31
0.0
100
AcDbText
 73
 2
  0
TEXT
  5
544
100
AcDbEntity
  8
PIN_NUMBERS_TOP
100
AcDbText
 10
22582.068
 20
20733.746
 30
0.0
 40
508.000000
 41
1.000000
  1
1
  7
COURIER_NEW
 72
 1
 11
22800.0
 21
20956.25
 31
0.0
100
AcDbText
 73
 2
  0
TEXT
  5
545
100
AcDbEntity
  8
PIN_NUMBERS_TOP
100
AcDbText
 10
11432.068
 20
17383.746
 30
0.0
 40
508.000000
 41
1.000000
  1
1
  7
COURIER_NEW
 72
 1
 11
11650.0
 21
17606.25
 31
0.0
100
AcDbText
 73
 2
  0
TEXT
  5
546
100
AcDbEntity
  8
PIN_NUMBERS_TOP
100
AcDbText
 10
11432.068
 20
18971.246
 30
0.0
 40
508.000000
 41
1.000000
  1
2
  7
COURIER_NEW
 72
 1
 11
11650.0
 21
19193.75
 31
0.0
100
AcDbText
 73
 2
  0
TEXT
  5
547
100
AcDbEntity
  8
PIN_NUMBERS_TOP
100
AcDbText
 10
20632.068
 20
13327.496
 30
0.0
 40
508.000000
 41
1.000000
  1
1
  7
COURIER_NEW
 72
 1
 11
20850.0
 21
13550.0
 31
0.0
100
AcDbText
 73
 2
  0
TEXT
  5
548
100
AcDbEntity
  8
PIN_NUMBERS_TOP
100
AcDbText
 10
19832.068
 20
13327.496
 30
0.0
 40
508.000000
 41
1.000000
  1
2
  7
COURIER_NEW
 72
 1
 11
20050.0
 21
13550.0
 31
0.0
100
AcDbText
 73
 2
  0
TEXT
  5
549
100
AcDbEntity
  8
PIN_NUMBERS_TOP
100
AcDbText
 10
20632.068
 20
12577.496
 30
0.0
 40
508.000000
 41
1.000000
  1
1
  7
COURIER_NEW
 72
 1
 11
20850.0
 21
12800.0
 31
0.0
100
AcDbText
 73
 2
  0
TEXT
  5
54A
100
AcDbEntity
  8
PIN_NUMBERS_TOP
100
AcDbText
 10
19832.068
 20
12577.496
 30
0.0
 40
508.000000
 41
1.000000
  1
2
  7
COURIER_NEW
 72
 1
 11
20050.0
 21
12800.0
 31
0.0
100
AcDbText
 73
 2
  0
TEXT
  5
54B
100
AcDbEntity
  8
PIN_NUMBERS_TOP
100
AcDbText
 10
18182.068
 20
28877.496
 30
0.0
 40
508.000000
 41
1.000000
  1
1
  7
COURIER_NEW
 72
 1
 11
18400.0
 21
29100.0
 31
0.0
100
AcDbText
 73
 2
  0
TEXT
  5
54C
100
AcDbEntity
  8
PIN_NUMBERS_TOP
100
AcDbText
 10
17582.068
 20
13327.496
 30
0.0
 40
508.000000
 41
1.000000
  1
2
  7
COURIER_NEW
 72
 1
 11
17800.0
 21
13550.0
 31
0.0
100
AcDbText
 73
 2
  0
TEXT
  5
54D
100
AcDbEntity
  8
PIN_NUMBERS_TOP
100
AcDbText
 10
18382.068
 20
13327.496
 30
0.0
 40
508.000000
 41
1.000000
  1
1
  7
COURIER_NEW
 72
 1
 11
18600.0
 21
13550.0
 31
0.0
100
AcDbText
 73
 2
  0
TEXT
  5
54E
100
AcDbEntity
  8
PIN_NUMBERS_TOP
100
AcDbText
 10
22482.068
 20
13152.496
 30
0.0
 40
508.000000
 41
1.000000
  1
1
  7
COURIER_NEW
 72
 1
 11
22700.0
 21
13375.0
 31
0.0
100
AcDbText
 73
 2
  0
TEXT
  5
54F
100
AcDbEntity
  8
PIN_NUMBERS_TOP
100
AcDbText
 10
22482.068
 20
11602.496
 30
0.0
 40
508.000000
 41
1.000000
  1
2
  7
COURIER_NEW
 72
 1
 11
22700.0
 21
11825.0
 31
0.0
100
AcDbText
 73
 2
  0
TEXT
  5
550
100
AcDbEntity
  8
PIN_NUMBERS_TOP
100
AcDbText
 10
11188.318
 20
12377.496
 30
0.0
 40
508.000000
 41
1.000000
  1
2
  7
COURIER_NEW
 72
 1
 11
11406.25
 21
12600.0
 31
0.0
100
AcDbText
 73
 2
  0
TEXT
  5
551
100
AcDbEntity
  8
PIN_NUMBERS_TOP
100
AcDbText
 10
12775.818
 20
12377.496
 30
0.0
 40
508.000000
 41
1.000000
  1
1
  7
COURIER_NEW
 72
 1
 11
12993.75
 21
12600.0
 31
0.0
100
AcDbText
 73
 2
  0
TEXT
  5
552
100
AcDbEntity
  8
PIN_NUMBERS_TOP
100
AcDbText
 10
13982.068
 20
13327.496
 30
0.0
 40
508.000000
 41
1.000000
  1
2
  7
COURIER_NEW
 72
 1
 11
14200.0
 21
13550.0
 31
0.0
100
AcDbText
 73
 2
  0
TEXT
  5
553
100
AcDbEntity
  8
PIN_NUMBERS_TOP
100
AcDbText
 10
13182.068
 20
13327.496
 30
0.0
 40
508.000000
 41
1.000000
  1
1
  7
COURIER_NEW
 72
 1
 11
13400.0
 21
13550.0
 31
0.0
100
AcDbText
 73
 2
  0
TEXT
  5
554
100
AcDbEntity
  8
PIN_NUMBERS_TOP
100
AcDbText
 10
21432.068
 20
20733.746
 30
0.0
 40
508.000000
 41
1.000000
  1
1
  7
COURIER_NEW
 72
 1
 11
21650.0
 21
20956.25
 31
0.0
100
AcDbText
 73
 2
  0
TEXT
  5
555
100
AcDbEntity
  8
PIN_NUMBERS_TOP
100
AcDbText
 10
21432.068
 20
22321.246
 30
0.0
 40
508.000000
 41
1.000000
  1
2
  7
COURIER_NEW
 72
 1
 11
21650.0
 21
22543.75
 31
0.0
100
AcDbText
 73
 2
  0
TEXT
  5
556
100
AcDbEntity
  8
PIN_NUMBERS_TOP
100
AcDbText
 10
15125.818
 20
22277.496
 30
0.0
 40
508.000000
 41
1.000000
  1
2
  7
COURIER_NEW
 72
 1
 11
15343.75
 21
22500.0
 31
0.0
100
AcDbText
 73
 2
  0
TEXT
  5
557
100
AcDbEntity
  8
PIN_NUMBERS_TOP
100
AcDbText
 10
13538.318
 20
22277.496
 30
0.0
 40
508.000000
 41
1.000000
  1
1
  7
COURIER_NEW
 72
 1
 11
13756.25
 21
22500.0
 31
0.0
100
AcDbText
 73
 2
  0
TEXT
  5
558
100
AcDbEntity
  8
PIN_NUMBERS_TOP
100
AcDbText
 10
13938.318
 20
12377.496
 30
0.0
 40
508.000000
 41
1.000000
  1
2
  7
COURIER_NEW
 72
 1
 11
14156.25
 21
12600.0
 31
0.0
100
AcDbText
 73
 2
  0
TEXT
  5
559
100
AcDbEntity
  8
PIN_NUMBERS_TOP
100
AcDbText
 10
15525.818
 20
12377.496
 30
0.0
 40
508.000000
 41
1.000000
  1
1
  7
COURIER_NEW
 72
 1
 11
15743.75
 21
12600.0
 31
0.0
100
AcDbText
 73
 2
  0
TEXT
  5
55A
100
AcDbEntity
  8
PIN_NUMBERS_TOP
100
AcDbText
 10
7455.716
 20
3322.47
 30
0.0
 40
508.000000
 41
1.000000
  1
1
  7
COURIER_NEW
 72
 1
 11
7673.648
 21
3544.974
 31
0.0
100
AcDbText
 73
 2
  0
TEXT
  5
55B
100
AcDbEntity
  8
PIN_NUMBERS_TOP
100
AcDbText
 10
2782.068
 20
30777.496
 30
0.0
 40
508.000000
 41
1.000000
  1
1
  7
COURIER_NEW
 72
 1
 11
3000.0
 21
31000.0
 31
0.0
100
AcDbText
 73
 2
  0
TEXT
  5
55C
100
AcDbEntity
  8
PIN_NUMBERS_TOP
100
AcDbText
 10
26532.068
 20
29877.496
 30
0.0
 40
508.000000
 41
1.000000
  1
1
  7
COURIER_NEW
 72
 1
 11
26750.0
 21
30100.0
 31
0.0
100
AcDbText
 73
 2
  0
TEXT
  5
55D
100
AcDbEntity
  8
PIN_NUMBERS_TOP
100
AcDbText
 10
30782.068
 20
30777.496
 30
0.0
 40
508.000000
 41
1.000000
  1
1
  7
COURIER_NEW
 72
 1
 11
31000.0
 21
31000.0
 31
0.0
100
AcDbText
 73
 2
  0
TEXT
  5
55E
100
AcDbEntity
  8
PIN_NUMBERS_TOP
100
AcDbText
 10
2782.068
 20
2777.496
 30
0.0
 40
508.000000
 41
1.000000
  1
1
  7
COURIER_NEW
 72
 1
 11
3000.0
 21
3000.0
 31
0.0
100
AcDbText
 73
 2
  0
TEXT
  5
55F
100
AcDbEntity
  8
PIN_NUMBERS_TOP
100
AcDbText
 10
21125.818
 20
11627.496
 30
0.0
 40
508.000000
 41
1.000000
  1
1
  7
COURIER_NEW
 72
 1
 11
21343.75
 21
11850.0
 31
0.0
100
AcDbText
 73
 2
  0
TEXT
  5
560
100
AcDbEntity
  8
PIN_NUMBERS_TOP
100
AcDbText
 10
19538.318
 20
11627.496
 30
0.0
 40
508.000000
 41
1.000000
  1
2
  7
COURIER_NEW
 72
 1
 11
19756.25
 21
11850.0
 31
0.0
100
AcDbText
 73
 2
  0
TEXT
  5
561
100
AcDbEntity
  8
PIN_NUMBERS_TOP
100
AcDbText
 10
30782.068
 20
2777.496
 30
0.0
 40
508.000000
 41
1.000000
  1
1
  7
COURIER_NEW
 72
 1
 11
31000.0
 21
3000.0
 31
0.0
100
AcDbText
 73
 2
  0
TEXT
  5
562
100
AcDbEntity
  8
PIN_NUMBERS_TOP
100
AcDbText
 10
5782.068
 20
16777.496
 30
0.0
 40
508.000000
 41
1.000000
  1
1
  7
COURIER_NEW
 72
 1
 11
6000.0
 21
17000.0
 31
0.0
100
AcDbText
 73
 2
  0
TEXT
  5
563
100
AcDbEntity
  8
PIN_NUMBERS_TOP
100
AcDbText
 10
14685.136
 20
19025.496
 30
0.0
 40
508.000000
 41
1.000000
  1
A2
  7
COURIER_NEW
 72
 1
 11
15121.0
 21
19248.0
 31
0.0
100
AcDbText
 73
 2
  0
TEXT
  5
564
100
AcDbEntity
  8
PIN_NUMBERS_TOP
100
AcDbText
 10
15385.136
 20
19025.496
 30
0.0
 40
508.000000
 41
1.000000
  1
A3
  7
COURIER_NEW
 72
 1
 11
15821.0
 21
19248.0
 31
0.0
100
AcDbText
 73
 2
  0
TEXT
  5
565
100
AcDbEntity
  8
PIN_NUMBERS_TOP
100
AcDbText
 10
16085.136
 20
19025.496
 30
0.0
 40
508.000000
 41
1.000000
  1
A4
  7
COURIER_NEW
 72
 1
 11
16521.0
 21
19248.0
 31
0.0
100
AcDbText
 73
 2
  0
TEXT
  5
566
100
AcDbEntity
  8
PIN_NUMBERS_TOP
100
AcDbText
 10
16785.136
 20
19025.496
 30
0.0
 40
508.000000
 41
1.000000
  1
A5
  7
COURIER_NEW
 72
 1
 11
17221.0
 21
19248.0
 31
0.0
100
AcDbText
 73
 2
  0
TEXT
  5
567
100
AcDbEntity
  8
PIN_NUMBERS_TOP
100
AcDbText
 10
17485.136
 20
19025.496
 30
0.0
 40
508.000000
 41
1.000000
  1
A6
  7
COURIER_NEW
 72
 1
 11
17921.0
 21
19248.0
 31
0.0
100
AcDbText
 73
 2
  0
TEXT
  5
568
100
AcDbEntity
  8
PIN_NUMBERS_TOP
100
AcDbText
 10
18185.136
 20
19025.496
 30
0.0
 40
508.000000
 41
1.000000
  1
A7
  7
COURIER_NEW
 72
 1
 11
18621.0
 21
19248.0
 31
0.0
100
AcDbText
 73
 2
  0
TEXT
  5
569
100
AcDbEntity
  8
PIN_NUMBERS_TOP
100
AcDbText
 10
18885.136
 20
19025.496
 30
0.0
 40
508.000000
 41
1.000000
  1
A8
  7
COURIER_NEW
 72
 1
 11
19321.0
 21
19248.0
 31
0.0
100
AcDbText
 73
 2
  0
TEXT
  5
56A
100
AcDbEntity
  8
PIN_NUMBERS_TOP
100
AcDbText
 10
19585.136
 20
19025.496
 30
0.0
 40
508.000000
 41
1.000000
  1
A9
  7
COURIER_NEW
 72
 1
 11
20021.0
 21
19248.0
 31
0.0
100
AcDbText
 73
 2
  0
TEXT
  5
56B
100
AcDbEntity
  8
PIN_NUMBERS_TOP
100
AcDbText
 10
20067.204
 20
19025.496
 30
0.0
 40
508.000000
 41
1.000000
  1
A10
  7
COURIER_NEW
 72
 1
 11
20721.0
 21
19248.0
 31
0.0
100
AcDbText
 73
 2
  0
TEXT
  5
56C
100
AcDbEntity
  8
PIN_NUMBERS_TOP
100
AcDbText
 10
20767.204
 20
19025.496
 30
0.0
 40
508.000000
 41
1.000000
  1
A11
  7
COURIER_NEW
 72
 1
 11
21421.0
 21
19248.0
 31
0.0
100
AcDbText
 73
 2
  0
TEXT
  5
56D
100
AcDbEntity
  8
PIN_NUMBERS_TOP
100
AcDbText
 10
21467.204
 20
19025.496
 30
0.0
 40
508.000000
 41
1.000000
  1
A12
  7
COURIER_NEW
 72
 1
 11
22121.0
 21
19248.0
 31
0.0
100
AcDbText
 73
 2
  0
TEXT
  5
56E
100
AcDbEntity
  8
PIN_NUMBERS_TOP
100
AcDbText
 10
13985.136
 20
18325.496
 30
0.0
 40
508.000000
 41
1.000000
  1
B1
  7
COURIER_NEW
 72
 1
 11
14421.0
 21
18548.0
 31
0.0
100
AcDbText
 73
 2
  0
TEXT
  5
56F
100
AcDbEntity
  8
PIN_NUMBERS_TOP
100
AcDbText
 10
14685.136
 20
18325.496
 30
0.0
 40
508.000000
 41
1.000000
  1
B2
  7
COURIER_NEW
 72
 1
 11
15121.0
 21
18548.0
 31
0.0
100
AcDbText
 73
 2
  0
TEXT
  5
570
100
AcDbEntity
  8
PIN_NUMBERS_TOP
100
AcDbText
 10
15385.136
 20
18325.496
 30
0.0
 40
508.000000
 41
1.000000
  1
B3
  7
COURIER_NEW
 72
 1
 11
15821.0
 21
18548.0
 31
0.0
100
AcDbText
 73
 2
  0
TEXT
  5
571
100
AcDbEntity
  8
PIN_NUMBERS_TOP
100
AcDbText
 10
16085.136
 20
18325.496
 30
0.0
 40
508.000000
 41
1.000000
  1
B4
  7
COURIER_NEW
 72
 1
 11
16521.0
 21
18548.0
 31
0.0
100
AcDbText
 73
 2
  0
TEXT
  5
572
100
AcDbEntity
  8
PIN_NUMBERS_TOP
100
AcDbText
 10
16785.136
 20
18325.496
 30
0.0
 40
508.000000
 41
1.000000
  1
B5
  7
COURIER_NEW
 72
 1
 11
17221.0
 21
18548.0
 31
0.0
100
AcDbText
 73
 2
  0
TEXT
  5
573
100
AcDbEntity
  8
PIN_NUMBERS_TOP
100
AcDbText
 10
17485.136
 20
18325.496
 30
0.0
 40
508.000000
 41
1.000000
  1
B6
  7
COURIER_NEW
 72
 1
 11
17921.0
 21
18548.0
 31
0.0
100
AcDbText
 73
 2
  0
TEXT
  5
574
100
AcDbEntity
  8
PIN_NUMBERS_TOP
100
AcDbText
 10
18185.136
 20
18325.496
 30
0.0
 40
508.000000
 41
1.000000
  1
B7
  7
COURIER_NEW
 72
 1
 11
18621.0
 21
18548.0
 31
0.0
100
AcDbText
 73
 2
  0
TEXT
  5
575
100
AcDbEntity
  8
PIN_NUMBERS_TOP
100
AcDbText
 10
18885.136
 20
18325.496
 30
0.0
 40
508.000000
 41
1.000000
  1
B8
  7
COURIER_NEW
 72
 1
 11
19321.0
 21
18548.0
 31
0.0
100
AcDbText
 73
 2
  0
TEXT
  5
576
100
AcDbEntity
  8
PIN_NUMBERS_TOP
100
AcDbText
 10
19585.136
 20
18325.496
 30
0.0
 40
508.000000
 41
1.000000
  1
B9
  7
COURIER_NEW
 72
 1
 11
20021.0
 21
18548.0
 31
0.0
100
AcDbText
 73
 2
  0
TEXT
  5
577
100
AcDbEntity
  8
PIN_NUMBERS_TOP
100
AcDbText
 10
20067.204
 20
18325.496
 30
0.0
 40
508.000000
 41
1.000000
  1
B10
  7
COURIER_NEW
 72
 1
 11
20721.0
 21
18548.0
 31
0.0
100
AcDbText
 73
 2
  0
TEXT
  5
578
100
AcDbEntity
  8
PIN_NUMBERS_TOP
100
AcDbText
 10
20767.204
 20
18325.496
 30
0.0
 40
508.000000
 41
1.000000
  1
B11
  7
COURIER_NEW
 72
 1
 11
21421.0
 21
18548.0
 31
0.0
100
AcDbText
 73
 2
  0
TEXT
  5
579
100
AcDbEntity
  8
PIN_NUMBERS_TOP
100
AcDbText
 10
21467.204
 20
18325.496
 30
0.0
 40
508.000000
 41
1.000000
  1
B12
  7
COURIER_NEW
 72
 1
 11
22121.0
 21
18548.0
 31
0.0
100
AcDbText
 73
 2
  0
TEXT
  5
57A
100
AcDbEntity
  8
PIN_NUMBERS_TOP
100
AcDbText
 10
13985.136
 20
17625.496
 30
0.0
 40
508.000000
 41
1.000000
  1
C1
  7
COURIER_NEW
 72
 1
 11
14421.0
 21
17848.0
 31
0.0
100
AcDbText
 73
 2
  0
TEXT
  5
57B
100
AcDbEntity
  8
PIN_NUMBERS_TOP
100
AcDbText
 10
14685.136
 20
17625.496
 30
0.0
 40
508.000000
 41
1.000000
  1
C2
  7
COURIER_NEW
 72
 1
 11
15121.0
 21
17848.0
 31
0.0
100
AcDbText
 73
 2
  0
TEXT
  5
57C
100
AcDbEntity
  8
PIN_NUMBERS_TOP
100
AcDbText
 10
15385.136
 20
17625.496
 30
0.0
 40
508.000000
 41
1.000000
  1
C3
  7
COURIER_NEW
 72
 1
 11
15821.0
 21
17848.0
 31
0.0
100
AcDbText
 73
 2
  0
TEXT
  5
57D
100
AcDbEntity
  8
PIN_NUMBERS_TOP
100
AcDbText
 10
16085.136
 20
17625.496
 30
0.0
 40
508.000000
 41
1.000000
  1
C4
  7
COURIER_NEW
 72
 1
 11
16521.0
 21
17848.0
 31
0.0
100
AcDbText
 73
 2
  0
TEXT
  5
57E
100
AcDbEntity
  8
PIN_NUMBERS_TOP
100
AcDbText
 10
16785.136
 20
17625.496
 30
0.0
 40
508.000000
 41
1.000000
  1
C5
  7
COURIER_NEW
 72
 1
 11
17221.0
 21
17848.0
 31
0.0
100
AcDbText
 73
 2
  0
TEXT
  5
57F
100
AcDbEntity
  8
PIN_NUMBERS_TOP
100
AcDbText
 10
17485.136
 20
17625.496
 30
0.0
 40
508.000000
 41
1.000000
  1
C6
  7
COURIER_NEW
 72
 1
 11
17921.0
 21
17848.0
 31
0.0
100
AcDbText
 73
 2
  0
TEXT
  5
580
100
AcDbEntity
  8
PIN_NUMBERS_TOP
100
AcDbText
 10
18185.136
 20
17625.496
 30
0.0
 40
508.000000
 41
1.000000
  1
C7
  7
COURIER_NEW
 72
 1
 11
18621.0
 21
17848.0
 31
0.0
100
AcDbText
 73
 2
  0
TEXT
  5
581
100
AcDbEntity
  8
PIN_NUMBERS_TOP
100
AcDbText
 10
18885.136
 20
17625.496
 30
0.0
 40
508.000000
 41
1.000000
  1
C8
  7
COURIER_NEW
 72
 1
 11
19321.0
 21
17848.0
 31
0.0
100
AcDbText
 73
 2
  0
TEXT
  5
582
100
AcDbEntity
  8
PIN_NUMBERS_TOP
100
AcDbText
 10
19585.136
 20
17625.496
 30
0.0
 40
508.000000
 41
1.000000
  1
C9
  7
COURIER_NEW
 72
 1
 11
20021.0
 21
17848.0
 31
0.0
100
AcDbText
 73
 2
  0
TEXT
  5
583
100
AcDbEntity
  8
PIN_NUMBERS_TOP
100
AcDbText
 10
20067.204
 20
17625.496
 30
0.0
 40
508.000000
 41
1.000000
  1
C10
  7
COURIER_NEW
 72
 1
 11
20721.0
 21
17848.0
 31
0.0
100
AcDbText
 73
 2
  0
TEXT
  5
584
100
AcDbEntity
  8
PIN_NUMBERS_TOP
100
AcDbText
 10
20767.204
 20
17625.496
 30
0.0
 40
508.000000
 41
1.000000
  1
C11
  7
COURIER_NEW
 72
 1
 11
21421.0
 21
17848.0
 31
0.0
100
AcDbText
 73
 2
  0
TEXT
  5
585
100
AcDbEntity
  8
PIN_NUMBERS_TOP
100
AcDbText
 10
21467.204
 20
17625.496
 30
0.0
 40
508.000000
 41
1.000000
  1
C12
  7
COURIER_NEW
 72
 1
 11
22121.0
 21
17848.0
 31
0.0
100
AcDbText
 73
 2
  0
TEXT
  5
586
100
AcDbEntity
  8
PIN_NUMBERS_TOP
100
AcDbText
 10
13985.136
 20
16925.496
 30
0.0
 40
508.000000
 41
1.000000
  1
D1
  7
COURIER_NEW
 72
 1
 11
14421.0
 21
17148.0
 31
0.0
100
AcDbText
 73
 2
  0
TEXT
  5
587
100
AcDbEntity
  8
PIN_NUMBERS_TOP
100
AcDbText
 10
14685.136
 20
16925.496
 30
0.0
 40
508.000000
 41
1.000000
  1
D2
  7
COURIER_NEW
 72
 1
 11
15121.0
 21
17148.0
 31
0.0
100
AcDbText
 73
 2
  0
TEXT
  5
588
100
AcDbEntity
  8
PIN_NUMBERS_TOP
100
AcDbText
 10
15385.136
 20
16925.496
 30
0.0
 40
508.000000
 41
1.000000
  1
D3
  7
COURIER_NEW
 72
 1
 11
15821.0
 21
17148.0
 31
0.0
100
AcDbText
 73
 2
  0
TEXT
  5
589
100
AcDbEntity
  8
PIN_NUMBERS_TOP
100
AcDbText
 10
16085.136
 20
16925.496
 30
0.0
 40
508.000000
 41
1.000000
  1
D4
  7
COURIER_NEW
 72
 1
 11
16521.0
 21
17148.0
 31
0.0
100
AcDbText
 73
 2
  0
TEXT
  5
58A
100
AcDbEntity
  8
PIN_NUMBERS_TOP
100
AcDbText
 10
16785.136
 20
16925.496
 30
0.0
 40
508.000000
 41
1.000000
  1
D5
  7
COURIER_NEW
 72
 1
 11
17221.0
 21
17148.0
 31
0.0
100
AcDbText
 73
 2
  0
TEXT
  5
58B
100
AcDbEntity
  8
PIN_NUMBERS_TOP
100
AcDbText
 10
17485.136
 20
16925.496
 30
0.0
 40
508.000000
 41
1.000000
  1
D6
  7
COURIER_NEW
 72
 1
 11
17921.0
 21
17148.0
 31
0.0
100
AcDbText
 73
 2
  0
TEXT
  5
58C
100
AcDbEntity
  8
PIN_NUMBERS_TOP
100
AcDbText
 10
18185.136
 20
16925.496
 30
0.0
 40
508.000000
 41
1.000000
  1
D7
  7
COURIER_NEW
 72
 1
 11
18621.0
 21
17148.0
 31
0.0
100
AcDbText
 73
 2
  0
TEXT
  5
58D
100
AcDbEntity
  8
PIN_NUMBERS_TOP
100
AcDbText
 10
18885.136
 20
16925.496
 30
0.0
 40
508.000000
 41
1.000000
  1
D8
  7
COURIER_NEW
 72
 1
 11
19321.0
 21
17148.0
 31
0.0
100
AcDbText
 73
 2
  0
TEXT
  5
58E
100
AcDbEntity
  8
PIN_NUMBERS_TOP
100
AcDbText
 10
19585.136
 20
16925.496
 30
0.0
 40
508.000000
 41
1.000000
  1
D9
  7
COURIER_NEW
 72
 1
 11
20021.0
 21
17148.0
 31
0.0
100
AcDbText
 73
 2
  0
TEXT
  5
58F
100
AcDbEntity
  8
PIN_NUMBERS_TOP
100
AcDbText
 10
20067.204
 20
16925.496
 30
0.0
 40
508.000000
 41
1.000000
  1
D10
  7
COURIER_NEW
 72
 1
 11
20721.0
 21
17148.0
 31
0.0
100
AcDbText
 73
 2
  0
TEXT
  5
590
100
AcDbEntity
  8
PIN_NUMBERS_TOP
100
AcDbText
 10
20767.204
 20
16925.496
 30
0.0
 40
508.000000
 41
1.000000
  1
D11
  7
COURIER_NEW
 72
 1
 11
21421.0
 21
17148.0
 31
0.0
100
AcDbText
 73
 2
  0
TEXT
  5
591
100
AcDbEntity
  8
PIN_NUMBERS_TOP
100
AcDbText
 10
21467.204
 20
16925.496
 30
0.0
 40
508.000000
 41
1.000000
  1
D12
  7
COURIER_NEW
 72
 1
 11
22121.0
 21
17148.0
 31
0.0
100
AcDbText
 73
 2
  0
TEXT
  5
592
100
AcDbEntity
  8
PIN_NUMBERS_TOP
100
AcDbText
 10
13985.136
 20
16225.496
 30
0.0
 40
508.000000
 41
1.000000
  1
E1
  7
COURIER_NEW
 72
 1
 11
14421.0
 21
16448.0
 31
0.0
100
AcDbText
 73
 2
  0
TEXT
  5
593
100
AcDbEntity
  8
PIN_NUMBERS_TOP
100
AcDbText
 10
14685.136
 20
16225.496
 30
0.0
 40
508.000000
 41
1.000000
  1
E2
  7
COURIER_NEW
 72
 1
 11
15121.0
 21
16448.0
 31
0.0
100
AcDbText
 73
 2
  0
TEXT
  5
594
100
AcDbEntity
  8
PIN_NUMBERS_TOP
100
AcDbText
 10
15385.136
 20
16225.496
 30
0.0
 40
508.000000
 41
1.000000
  1
E3
  7
COURIER_NEW
 72
 1
 11
15821.0
 21
16448.0
 31
0.0
100
AcDbText
 73
 2
  0
TEXT
  5
595
100
AcDbEntity
  8
PIN_NUMBERS_TOP
100
AcDbText
 10
16085.136
 20
16225.496
 30
0.0
 40
508.000000
 41
1.000000
  1
E4
  7
COURIER_NEW
 72
 1
 11
16521.0
 21
16448.0
 31
0.0
100
AcDbText
 73
 2
  0
TEXT
  5
596
100
AcDbEntity
  8
PIN_NUMBERS_TOP
100
AcDbText
 10
16785.136
 20
16225.496
 30
0.0
 40
508.000000
 41
1.000000
  1
E5
  7
COURIER_NEW
 72
 1
 11
17221.0
 21
16448.0
 31
0.0
100
AcDbText
 73
 2
  0
TEXT
  5
597
100
AcDbEntity
  8
PIN_NUMBERS_TOP
100
AcDbText
 10
17485.136
 20
16225.496
 30
0.0
 40
508.000000
 41
1.000000
  1
E6
  7
COURIER_NEW
 72
 1
 11
17921.0
 21
16448.0
 31
0.0
100
AcDbText
 73
 2
  0
TEXT
  5
598
100
AcDbEntity
  8
PIN_NUMBERS_TOP
100
AcDbText
 10
18185.136
 20
16225.496
 30
0.0
 40
508.000000
 41
1.000000
  1
E7
  7
COURIER_NEW
 72
 1
 11
18621.0
 21
16448.0
 31
0.0
100
AcDbText
 73
 2
  0
TEXT
  5
599
100
AcDbEntity
  8
PIN_NUMBERS_TOP
100
AcDbText
 10
18885.136
 20
16225.496
 30
0.0
 40
508.000000
 41
1.000000
  1
E8
  7
COURIER_NEW
 72
 1
 11
19321.0
 21
16448.0
 31
0.0
100
AcDbText
 73
 2
  0
TEXT
  5
59A
100
AcDbEntity
  8
PIN_NUMBERS_TOP
100
AcDbText
 10
19585.136
 20
16225.496
 30
0.0
 40
508.000000
 41
1.000000
  1
E9
  7
COURIER_NEW
 72
 1
 11
20021.0
 21
16448.0
 31
0.0
100
AcDbText
 73
 2
  0
TEXT
  5
59B
100
AcDbEntity
  8
PIN_NUMBERS_TOP
100
AcDbText
 10
20067.204
 20
16225.496
 30
0.0
 40
508.000000
 41
1.000000
  1
E10
  7
COURIER_NEW
 72
 1
 11
20721.0
 21
16448.0
 31
0.0
100
AcDbText
 73
 2
  0
TEXT
  5
59C
100
AcDbEntity
  8
PIN_NUMBERS_TOP
100
AcDbText
 10
20767.204
 20
16225.496
 30
0.0
 40
508.000000
 41
1.000000
  1
E11
  7
COURIER_NEW
 72
 1
 11
21421.0
 21
16448.0
 31
0.0
100
AcDbText
 73
 2
  0
TEXT
  5
59D
100
AcDbEntity
  8
PIN_NUMBERS_TOP
100
AcDbText
 10
21467.204
 20
16225.496
 30
0.0
 40
508.000000
 41
1.000000
  1
E12
  7
COURIER_NEW
 72
 1
 11
22121.0
 21
16448.0
 31
0.0
100
AcDbText
 73
 2
  0
TEXT
  5
59E
100
AcDbEntity
  8
PIN_NUMBERS_TOP
100
AcDbText
 10
13985.136
 20
15525.496
 30
0.0
 40
508.000000
 41
1.000000
  1
F1
  7
COURIER_NEW
 72
 1
 11
14421.0
 21
15748.0
 31
0.0
100
AcDbText
 73
 2
  0
TEXT
  5
59F
100
AcDbEntity
  8
PIN_NUMBERS_TOP
100
AcDbText
 10
14685.136
 20
15525.496
 30
0.0
 40
508.000000
 41
1.000000
  1
F2
  7
COURIER_NEW
 72
 1
 11
15121.0
 21
15748.0
 31
0.0
100
AcDbText
 73
 2
  0
TEXT
  5
5A0
100
AcDbEntity
  8
PIN_NUMBERS_TOP
100
AcDbText
 10
15385.136
 20
15525.496
 30
0.0
 40
508.000000
 41
1.000000
  1
F3
  7
COURIER_NEW
 72
 1
 11
15821.0
 21
15748.0
 31
0.0
100
AcDbText
 73
 2
  0
TEXT
  5
5A1
100
AcDbEntity
  8
PIN_NUMBERS_TOP
100
AcDbText
 10
16085.136
 20
15525.496
 30
0.0
 40
508.000000
 41
1.000000
  1
F4
  7
COURIER_NEW
 72
 1
 11
16521.0
 21
15748.0
 31
0.0
100
AcDbText
 73
 2
  0
TEXT
  5
5A2
100
AcDbEntity
  8
PIN_NUMBERS_TOP
100
AcDbText
 10
16785.136
 20
15525.496
 30
0.0
 40
508.000000
 41
1.000000
  1
F5
  7
COURIER_NEW
 72
 1
 11
17221.0
 21
15748.0
 31
0.0
100
AcDbText
 73
 2
  0
TEXT
  5
5A3
100
AcDbEntity
  8
PIN_NUMBERS_TOP
100
AcDbText
 10
17485.136
 20
15525.496
 30
0.0
 40
508.000000
 41
1.000000
  1
F6
  7
COURIER_NEW
 72
 1
 11
17921.0
 21
15748.0
 31
0.0
100
AcDbText
 73
 2
  0
TEXT
  5
5A4
100
AcDbEntity
  8
PIN_NUMBERS_TOP
100
AcDbText
 10
18185.136
 20
15525.496
 30
0.0
 40
508.000000
 41
1.000000
  1
F7
  7
COURIER_NEW
 72
 1
 11
18621.0
 21
15748.0
 31
0.0
100
AcDbText
 73
 2
  0
TEXT
  5
5A5
100
AcDbEntity
  8
PIN_NUMBERS_TOP
100
AcDbText
 10
18885.136
 20
15525.496
 30
0.0
 40
508.000000
 41
1.000000
  1
F8
  7
COURIER_NEW
 72
 1
 11
19321.0
 21
15748.0
 31
0.0
100
AcDbText
 73
 2
  0
TEXT
  5
5A6
100
AcDbEntity
  8
PIN_NUMBERS_TOP
100
AcDbText
 10
19585.136
 20
15525.496
 30
0.0
 40
508.000000
 41
1.000000
  1
F9
  7
COURIER_NEW
 72
 1
 11
20021.0
 21
15748.0
 31
0.0
100
AcDbText
 73
 2
  0
TEXT
  5
5A7
100
AcDbEntity
  8
PIN_NUMBERS_TOP
100
AcDbText
 10
20067.204
 20
15525.496
 30
0.0
 40
508.000000
 41
1.000000
  1
F10
  7
COURIER_NEW
 72
 1
 11
20721.0
 21
15748.0
 31
0.0
100
AcDbText
 73
 2
  0
TEXT
  5
5A8
100
AcDbEntity
  8
PIN_NUMBERS_TOP
100
AcDbText
 10
20767.204
 20
15525.496
 30
0.0
 40
508.000000
 41
1.000000
  1
F11
  7
COURIER_NEW
 72
 1
 11
21421.0
 21
15748.0
 31
0.0
100
AcDbText
 73
 2
  0
TEXT
  5
5A9
100
AcDbEntity
  8
PIN_NUMBERS_TOP
100
AcDbText
 10
21467.204
 20
15525.496
 30
0.0
 40
508.000000
 41
1.000000
  1
F12
  7
COURIER_NEW
 72
 1
 11
22121.0
 21
15748.0
 31
0.0
100
AcDbText
 73
 2
  0
TEXT
  5
5AA
100
AcDbEntity
  8
PIN_NUMBERS_TOP
100
AcDbText
 10
13985.136
 20
14825.496
 30
0.0
 40
508.000000
 41
1.000000
  1
G1
  7
COURIER_NEW
 72
 1
 11
14421.0
 21
15048.0
 31
0.0
100
AcDbText
 73
 2
  0
TEXT
  5
5AB
100
AcDbEntity
  8
PIN_NUMBERS_TOP
100
AcDbText
 10
14685.136
 20
14825.496
 30
0.0
 40
508.000000
 41
1.000000
  1
G2
  7
COURIER_NEW
 72
 1
 11
15121.0
 21
15048.0
 31
0.0
100
AcDbText
 73
 2
  0
TEXT
  5
5AC
100
AcDbEntity
  8
PIN_NUMBERS_TOP
100
AcDbText
 10
15385.136
 20
14825.496
 30
0.0
 40
508.000000
 41
1.000000
  1
G3
  7
COURIER_NEW
 72
 1
 11
15821.0
 21
15048.0
 31
0.0
100
AcDbText
 73
 2
  0
TEXT
  5
5AD
100
AcDbEntity
  8
PIN_NUMBERS_TOP
100
AcDbText
 10
16085.136
 20
14825.496
 30
0.0
 40
508.000000
 41
1.000000
  1
G4
  7
COURIER_NEW
 72
 1
 11
16521.0
 21
15048.0
 31
0.0
100
AcDbText
 73
 2
  0
TEXT
  5
5AE
100
AcDbEntity
  8
PIN_NUMBERS_TOP
100
AcDbText
 10
16785.136
 20
14825.496
 30
0.0
 40
508.000000
 41
1.000000
  1
G5
  7
COURIER_NEW
 72
 1
 11
17221.0
 21
15048.0
 31
0.0
100
AcDbText
 73
 2
  0
TEXT
  5
5AF
100
AcDbEntity
  8
PIN_NUMBERS_TOP
100
AcDbText
 10
17485.136
 20
14825.496
 30
0.0
 40
508.000000
 41
1.000000
  1
G6
  7
COURIER_NEW
 72
 1
 11
17921.0
 21
15048.0
 31
0.0
100
AcDbText
 73
 2
  0
TEXT
  5
5B0
100
AcDbEntity
  8
PIN_NUMBERS_TOP
100
AcDbText
 10
18185.136
 20
14825.496
 30
0.0
 40
508.000000
 41
1.000000
  1
G7
  7
COURIER_NEW
 72
 1
 11
18621.0
 21
15048.0
 31
0.0
100
AcDbText
 73
 2
  0
TEXT
  5
5B1
100
AcDbEntity
  8
PIN_NUMBERS_TOP
100
AcDbText
 10
18885.136
 20
14825.496
 30
0.0
 40
508.000000
 41
1.000000
  1
G8
  7
COURIER_NEW
 72
 1
 11
19321.0
 21
15048.0
 31
0.0
100
AcDbText
 73
 2
  0
TEXT
  5
5B2
100
AcDbEntity
  8
PIN_NUMBERS_TOP
100
AcDbText
 10
19585.136
 20
14825.496
 30
0.0
 40
508.000000
 41
1.000000
  1
G9
  7
COURIER_NEW
 72
 1
 11
20021.0
 21
15048.0
 31
0.0
100
AcDbText
 73
 2
  0
TEXT
  5
5B3
100
AcDbEntity
  8
PIN_NUMBERS_TOP
100
AcDbText
 10
20067.204
 20
14825.496
 30
0.0
 40
508.000000
 41
1.000000
  1
G10
  7
COURIER_NEW
 72
 1
 11
20721.0
 21
15048.0
 31
0.0
100
AcDbText
 73
 2
  0
TEXT
  5
5B4
100
AcDbEntity
  8
PIN_NUMBERS_TOP
100
AcDbText
 10
20767.204
 20
14825.496
 30
0.0
 40
508.000000
 41
1.000000
  1
G11
  7
COURIER_NEW
 72
 1
 11
21421.0
 21
15048.0
 31
0.0
100
AcDbText
 73
 2
  0
TEXT
  5
5B5
100
AcDbEntity
  8
PIN_NUMBERS_TOP
100
AcDbText
 10
21467.204
 20
14825.496
 30
0.0
 40
508.000000
 41
1.000000
  1
G12
  7
COURIER_NEW
 72
 1
 11
22121.0
 21
15048.0
 31
0.0
100
AcDbText
 73
 2
  0
TEXT
  5
5B6
100
AcDbEntity
  8
PIN_NUMBERS_TOP
100
AcDbText
 10
16932.068
 20
13327.496
 30
0.0
 40
508.000000
 41
1.000000
  1
2
  7
COURIER_NEW
 72
 1
 11
17150.0
 21
13550.0
 31
0.0
100
AcDbText
 73
 2
  0
TEXT
  5
5B7
100
AcDbEntity
  8
PIN_NUMBERS_TOP
100
AcDbText
 10
16132.068
 20
13327.496
 30
0.0
 40
508.000000
 41
1.000000
  1
1
  7
COURIER_NEW
 72
 1
 11
16350.0
 21
13550.0
 31
0.0
100
AcDbText
 73
 2
  0
TEXT
  5
5B8
100
AcDbEntity
  8
PIN_NUMBERS_TOP
100
AcDbText
 10
14732.068
 20
20577.496
 30
0.0
 40
508.000000
 41
1.000000
  1
2
  7
COURIER_NEW
 72
 1
 11
14950.0
 21
20800.0
 31
0.0
100
AcDbText
 73
 2
  0
TEXT
  5
5B9
100
AcDbEntity
  8
PIN_NUMBERS_TOP
100
AcDbText
 10
13932.068
 20
20577.496
 30
0.0
 40
508.000000
 41
1.000000
  1
1
  7
COURIER_NEW
 72
 1
 11
14150.0
 21
20800.0
 31
0.0
100
AcDbText
 73
 2
  0
TEXT
  5
5BA
100
AcDbEntity
  8
PIN_NUMBERS_TOP
100
AcDbText
 10
20482.068
 20
21327.496
 30
0.0
 40
508.000000
 41
1.000000
  1
2
  7
COURIER_NEW
 72
 1
 11
20700.0
 21
21550.0
 31
0.0
100
AcDbText
 73
 2
  0
TEXT
  5
5BB
100
AcDbEntity
  8
PIN_NUMBERS_TOP
100
AcDbText
 10
20482.068
 20
20527.496
 30
0.0
 40
508.000000
 41
1.000000
  1
1
  7
COURIER_NEW
 72
 1
 11
20700.0
 21
20750.0
 31
0.0
100
AcDbText
 73
 2
  0
TEXT
  5
5BC
100
AcDbEntity
  8
PIN_NUMBERS_TOP
100
AcDbText
 10
27782.068
 20
16777.496
 30
0.0
 40
508.000000
 41
1.000000
  1
1
  7
COURIER_NEW
 72
 1
 11
28000.0
 21
17000.0
 31
0.0
100
AcDbText
 73
 2
  0
TEXT
  5
5BD
100
AcDbEntity
  8
PIN_NUMBERS_TOP
100
AcDbText
 10
16332.068
 20
21327.496
 30
0.0
 40
508.000000
 41
1.000000
  1
2
  7
COURIER_NEW
 72
 1
 11
16550.0
 21
21550.0
 31
0.0
100
AcDbText
 73
 2
  0
TEXT
  5
5BE
100
AcDbEntity
  8
PIN_NUMBERS_TOP
100
AcDbText
 10
16332.068
 20
20527.496
 30
0.0
 40
508.000000
 41
1.000000
  1
1
  7
COURIER_NEW
 72
 1
 11
16550.0
 21
20750.0
 31
0.0
100
AcDbText
 73
 2
  0
TEXT
  5
5BF
100
AcDbEntity
  8
PIN_NUMBERS_TOP
100
AcDbText
 10
12482.068
 20
16477.496
 30
0.0
 40
508.000000
 41
1.000000
  1
1
  7
COURIER_NEW
 72
 1
 11
12700.0
 21
16700.0
 31
0.0
100
AcDbText
 73
 2
  0
TEXT
  5
5C0
100
AcDbEntity
  8
PIN_NUMBERS_TOP
100
AcDbText
 10
11682.068
 20
16477.496
 30
0.0
 40
508.000000
 41
1.000000
  1
2
  7
COURIER_NEW
 72
 1
 11
11900.0
 21
16700.0
 31
0.0
100
AcDbText
 73
 2
  0
TEXT
  5
5C1
100
AcDbEntity
  8
PIN_NUMBERS_TOP
100
AcDbText
 10
19132.068
 20
12577.496
 30
0.0
 40
508.000000
 41
1.000000
  1
2
  7
COURIER_NEW
 72
 1
 11
19350.0
 21
12800.0
 31
0.0
100
AcDbText
 73
 2
  0
TEXT
  5
5C2
100
AcDbEntity
  8
PIN_NUMBERS_TOP
100
AcDbText
 10
19132.068
 20
13377.496
 30
0.0
 40
508.000000
 41
1.000000
  1
1
  7
COURIER_NEW
 72
 1
 11
19350.0
 21
13600.0
 31
0.0
100
AcDbText
 73
 2
  0
TEXT
  5
5C3
100
AcDbEntity
  8
PIN_NUMBERS_TOP
100
AcDbText
 10
11432.068
 20
15521.246
 30
0.0
 40
508.000000
 41
1.000000
  1
1
  7
COURIER_NEW
 72
 1
 11
11650.0
 21
15743.75
 31
0.0
100
AcDbText
 73
 2
  0
TEXT
  5
5C4
100
AcDbEntity
  8
PIN_NUMBERS_TOP
100
AcDbText
 10
11432.068
 20
13933.746
 30
0.0
 40
508.000000
 41
1.000000
  1
2
  7
COURIER_NEW
 72
 1
 11
11650.0
 21
14156.25
 31
0.0
100
AcDbText
 73
 2
  0
TEXT
  5
5C5
100
AcDbEntity
  8
PIN_NUMBERS_TOP
100
AcDbText
 10
18825.818
 20
22077.496
 30
0.0
 40
508.000000
 41
1.000000
  1
1
  7
COURIER_NEW
 72
 1
 11
19043.75
 21
22300.0
 31
0.0
100
AcDbText
 73
 2
  0
TEXT
  5
5C6
100
AcDbEntity
  8
PIN_NUMBERS_TOP
100
AcDbText
 10
17238.318
 20
22077.496
 30
0.0
 40
508.000000
 41
1.000000
  1
2
  7
COURIER_NEW
 72
 1
 11
17456.25
 21
22300.0
 31
0.0
100
AcDbText
 73
 2
  0
TEXT
  5
5C7
100
AcDbEntity
  8
PIN_NUMBERS_TOP
100
AcDbText
 10
20532.068
 20
22177.496
 30
0.0
 40
508.000000
 41
1.000000
  1
1
  7
COURIER_NEW
 72
 1
 11
20750.0
 21
22400.0
 31
0.0
100
AcDbText
 73
 2
  0
TEXT
  5
5C8
100
AcDbEntity
  8
PIN_NUMBERS_TOP
100
AcDbText
 10
19732.068
 20
22177.496
 30
0.0
 40
508.000000
 41
1.000000
  1
2
  7
COURIER_NEW
 72
 1
 11
19950.0
 21
22400.0
 31
0.0
100
AcDbText
 73
 2
  0
TEXT
  5
5C9
100
AcDbEntity
  8
PIN_NUMBERS_TOP
100
AcDbText
 10
14682.068
 20
13327.496
 30
0.0
 40
508.000000
 41
1.000000
  1
2
  7
COURIER_NEW
 72
 1
 11
14900.0
 21
13550.0
 31
0.0
100
AcDbText
 73
 2
  0
TEXT
  5
5CA
100
AcDbEntity
  8
PIN_NUMBERS_TOP
100
AcDbText
 10
15482.068
 20
13327.496
 30
0.0
 40
508.000000
 41
1.000000
  1
1
  7
COURIER_NEW
 72
 1
 11
15700.0
 21
13550.0
 31
0.0
100
AcDbText
 73
 2
  0
TEXT
  5
5CB
100
AcDbEntity
  8
PIN_NUMBERS_TOP
100
AcDbText
 10
12432.068
 20
15727.496
 30
0.0
 40
508.000000
 41
1.000000
  1
1
  7
COURIER_NEW
 72
 1
 11
12650.0
 21
15950.0
 31
0.0
100
AcDbText
 73
 2
  0
TEXT
  5
5CC
100
AcDbEntity
  8
PIN_NUMBERS_TOP
100
AcDbText
 10
12432.068
 20
14927.496
 30
0.0
 40
508.000000
 41
1.000000
  1
2
  7
COURIER_NEW
 72
 1
 11
12650.0
 21
15150.0
 31
0.0
100
AcDbText
 73
 2
  0
TEXT
  5
5CD
100
AcDbEntity
  8
PIN_NUMBERS_TOP
100
AcDbText
 10
14732.068
 20
21327.496
 30
0.0
 40
508.000000
 41
1.000000
  1
2
  7
COURIER_NEW
 72
 1
 11
14950.0
 21
21550.0
 31
0.0
100
AcDbText
 73
 2
  0
TEXT
  5
5CE
100
AcDbEntity
  8
PIN_NUMBERS_TOP
100
AcDbText
 10
13932.068
 20
21327.496
 30
0.0
 40
508.000000
 41
1.000000
  1
1
  7
COURIER_NEW
 72
 1
 11
14150.0
 21
21550.0
 31
0.0
100
AcDbText
 73
 2
  0
TEXT
  5
5CF
100
AcDbEntity
  8
PIN_NUMBERS_TOP
100
AcDbText
 10
23532.068
 20
21327.496
 30
0.0
 40
508.000000
 41
1.000000
  1
2
  7
COURIER_NEW
 72
 1
 11
23750.0
 21
21550.0
 31
0.0
100
AcDbText
 73
 2
  0
TEXT
  5
5D0
100
AcDbEntity
  8
PIN_NUMBERS_TOP
100
AcDbText
 10
23532.068
 20
20527.496
 30
0.0
 40
508.000000
 41
1.000000
  1
1
  7
COURIER_NEW
 72
 1
 11
23750.0
 21
20750.0
 31
0.0
100
AcDbText
 73
 2
  0
TEXT
  5
5D1
100
AcDbEntity
  8
PIN_NUMBERS_TOP
100
AcDbText
 10
19732.068
 20
20627.496
 30
0.0
 40
508.000000
 41
1.000000
  1
1
  7
COURIER_NEW
 72
 1
 11
19950.0
 21
20850.0
 31
0.0
100
AcDbText
 73
 2
  0
TEXT
  5
5D2
100
AcDbEntity
  8
PIN_NUMBERS_TOP
100
AcDbText
 10
19732.068
 20
21427.496
 30
0.0
 40
508.000000
 41
1.000000
  1
2
  7
COURIER_NEW
 72
 1
 11
19950.0
 21
21650.0
 31
0.0
100
AcDbText
 73
 2
  0
TEXT
  5
5D3
100
AcDbEntity
  8
PIN_NUMBERS_TOP
100
AcDbText
 10
12432.068
 20
17177.496
 30
0.0
 40
508.000000
 41
1.000000
  1
1
  7
COURIER_NEW
 72
 1
 11
12650.0
 21
17400.0
 31
0.0
100
AcDbText
 73
 2
  0
TEXT
  5
5D4
100
AcDbEntity
  8
PIN_NUMBERS_TOP
100
AcDbText
 10
12432.068
 20
17977.496
 30
0.0
 40
508.000000
 41
1.000000
  1
2
  7
COURIER_NEW
 72
 1
 11
12650.0
 21
18200.0
 31
0.0
100
AcDbText
 73
 2
  0
ENDSEC
  0
SECTION
  2
OBJECTS
  0
DICTIONARY
  5
16
100
AcDbDictionary
  3
ACAD_GROUP
350
17
  3
ACAD_MLINESTYLE
350
18
  0
DICTIONARY
  5
17
102
{ACAD_REACTORS
330
16
102
}
100
AcDbDictionary
  0
DICTIONARY
  5
18
102
{ACAD_REACTORS
330
16
102
}
100
AcDbDictionary
  3
STANDARD
350
19
  0
MLINESTYLE
  5
19
102
{ACAD_REACTORS
330
18
102
}
100
AcDbMlineStyle
  2
STANDARD
 70
         0
  3

 62
         0
 51
90.0
 52
90.0
 71
        2
 49
0.5
 62
         256
  6
BYLAYER
 49
-0.5
 62
         256
  6
BYLAYER
  0
DICTIONARY
  5
1A
102
{ACAD_REACTORS
330
16
102
}
100
AcDbDictionary
  0
ENDSEC
  0
EOF
