  0
SECTION
  2
HEADER
  9
$ACADVER
  1
AC1014
  9
$ACADMAINTVER
 70
         0
  9
$DWGCODEPAGE
  3
ANSI_1252
  9
$INSBASE
 10
0.0
 20
0.0
 30
0.0
  9
$EXTMIN
 10
-254000.0
 20
-254000.0
 30
0.0
  9
$EXTMAX
 10
254000.0
 20
254000.0
 30
0.0
  9
$LIMMIN
 10
0.0
 20
0.0
  9
$LIMMAX
 10
0.0
 20
0.0
  9
$ORTHOMODE
 70
         0
  9
$REGENMODE
 70
         1
  9
$FILLMODE
 70
         1
  9
$QTEXTMODE
 70
         0
  9
$MIRRTEXT
 70
         1
  9
$DRAGMODE
 70
         2
  9
$LTSCALE
 40
1.0
  9
$OSMODE
 70
         0
  9
$ATTMODE
 70
         1
  9
$TEXTSIZE
 40
0.2
  9
$TRACEWID
 40
0.05
  9
$TEXTSTYLE
  7
STANDARD
  9
$CLAYER
  8
0
  9
$CELTYPE
  6
CONTINUOUS
  9
$CECOLOR
 62
       256
  9
$CELTSCALE
 40
1.0
  9
$DELOBJ
 70
         1
  9
$DISPSILH
 70
         0
  9
$DIMSCALE
 40
1.0
  9
$DIMASZ
 40
0.18
  9
$DIMEXO
 40
0.0625
  9
$DIMDLI
 40
0.38
  9
$DIMRND
 40
0.0
  9
$DIMDLE
 40
0.0
  9
$DIMEXE
 40
0.18
  9
$DIMTP
 40
0.0
  9
$DIMTM
 40
0.0
  9
$DIMTXT
 40
0.18
  9
$DIMCEN
 40
0.09
  9
$DIMTSZ
 40
0.0
  9
$DIMTOL
 70
         0
  9
$DIMLIM
 70
         0
  9
$DIMTIH
 70
         1
  9
$DIMTOH
 70
         1
  9
$DIMSE1
 70
         0
  9
$DIMSE2
 70
         0
  9
$DIMTAD
 70
         0
  9
$DIMZIN
 70
         0
  9
$DIMBLK
  1

  9
$DIMASO
 70
         1
  9
$DIMSHO
 70
         1
  9
$DIMPOST
  1

  9
$DIMAPOST
  1

  9
$DIMALT
 70
         0
  9
$DIMALTD
 70
         2
  9
$DIMALTF
 40
25.4
  9
$DIMLFAC
 40
1.0
  9
$DIMTOFL
 70
         0
  9
$DIMTVP
 40
0.0
  9
$DIMTIX
 70
         0
  9
$DIMSOXD
 70
         0
  9
$DIMSAH
 70
         0
  9
$DIMBLK1
  1

  9
$DIMBLK2
  1

  9
$DIMSTYLE
  2
STANDARD
  9
$DIMCLRD
 70
         0
  9
$DIMCLRE
 70
         0
  9
$DIMCLRT
 70
         0
  9
$DIMTFAC
 40
1.0
  9
$DIMGAP
 40
0.09
  9
$DIMJUST
 70
         0
  9
$DIMSD1
 70
         0
  9
$DIMSD2
 70
         0
  9
$DIMTOLJ
 70
         1
  9
$DIMTZIN
 70
         0
  9
$DIMALTZ
 70
         0
  9
$DIMALTTZ
 70
         0
  9
$DIMFIT
 70
         3
  9
$DIMUPT
 70
         0
  9
$DIMUNIT
 70
         2
  9
$DIMDEC
 70
         4
  9
$DIMTDEC
 70
         4
  9
$DIMALTU
 70
         2
  9
$DIMALTTD
 70
         2
  9
$DIMTXSTY
  7
STANDARD
  9
$DIMAUNIT
 70
         0
  9
$LUNITS
 70
         2
  9
$LUPREC
 70
         4
  9
$SKETCHINC
 40
0.1
  9
$FILLETRAD
 40
0.0
  9
$AUNITS
 70
         0
  9
$AUPREC
 70
         0
  9
$MENU
  1
acad
  9
$ELEVATION
 40
0.0
  9
$PELEVATION
 40
0.0
  9
$THICKNESS
 40
0.0
  9
$LIMCHECK
 70
         0
  9
$BLIPMODE
 70
         1
  9
$CHAMFERA
 40
0.0
  9
$CHAMFERB
 40
0.0
  9
$CHAMFERC
 40
0.0
  9
$CHAMFERD
 40
0.0
  9
$SKPOLY
 70
         0
  9
$TDCREATE
 40
20221104.134738
  9
$TDUPDATE
 40
0.0
  9
$TDINDWG
 40
0.0
  9
$TDUSRTIMER
 40
0.0
  9
$USRTIMER
 70
         1
  9
$ANGBASE
 50
0.0
  9
$ANGDIR
 70
         0
  9
$PDMODE
 70
         0
  9
$PDSIZE
 40
0.0
  9
$PLINEWID
 40
0.0
  9
$COORDS
 70
         0
  9
$SPLFRAME
 70
         0
  9
$SPLINETYPE
 70
         6
  9
$SPLINESEGS
 70
         8
  9
$ATTDIA
 70
         0
  9
$ATTREQ
 70
         1
  9
$HANDLING
 70
         1
  9
$HANDSEED
  5
756
  9
$SURFTAB1
 70
         6
  9
$SURFTAB2
 70
         6
  9
$SURFTYPE
 70
         6
  9
$SURFU
 70
         6
  9
$SURFV
 70
         6
  9
$UCSNAME
  2

  9
$UCSORG
 10
0.0
 20
0.0
 30
0.0
  9
$UCSXDIR
 10
1.0
 20
0.0
 30
0.0
  9
$UCSYDIR
 10
0.0
 20
1.0
 30
0.0
  9
$PUCSNAME
  2

  9
$PUCSORG
 10
0.0
 20
0.0
 30
0.0
  9
$PUCSXDIR
 10
1.0
 20
0.0
 30
0.0
  9
$PUCSYDIR
 10
0.0
 20
1.0
 30
0.0
  9
$USERI1
 70
         -4
  9
$USERI2
 70
         0
  9
$USERI3
 70
         0
  9
$USERI4
 70
         0
  9
$USERI5
 70
         0
  9
$USERR1
 40
0.0
  9
$USERR2
 40
0.0
  9
$USERR3
 40
0.0
  9
$USERR4
 40
0.0
  9
$USERR5
 40
0.0
  9
$WORLDVIEW
 70
         1
  9
$SHADEDGE
 70
         3
  9
$SHADEDIF
 70
        70
  9
$TILEMODE
 70
         1
  9
$MAXACTVP
 70
         16
  9
$PINSBASE
 10
0.0
 20
0.0
 30
0.0
  9
$PLIMCHECK
 70
         0
  9
$PEXTMIN
 10
100000000000000000000.0
 20
100000000000000000000.0
 30
100000000000000000000.0
  9
$PEXTMAX
 10
-100000000000000000000.0
 20
-100000000000000000000.0
 30
-100000000000000000000.0
  9
$PLIMMIN
 10
0.0
 20
0.0
  9
$PLIMMAX
 10
12.0
 20
9.0
  9
$UNITMODE
 70
         0
  9
$VISRETAIN
 70
         0
  9
$PLINEGEN
 70
         1
  9
$PSLTSCALE
 70
         0
  9
$TREEDEPTH
 70
      3020
  9
$PICKSTYLE
 70
         1
  9
$CMLSTYLE
  2
STANDARD
  9
$CMLJUST
 70
         0
  9
$CMLSCALE
 40
1.0
  9
$PROXYGRAPHICS
 70
         0
  9
$MEASUREMENT
 70
         0
  0
ENDSEC
  0
SECTION
  2
CLASSES
  0
CLASS
  1
LWPOLYLINE
  2
AcDbPolyline
  3
"AutoCAD"
 90
        0
280
         0
281
         1
  0
CLASS
  1
IMAGE
  2
AcDbRasterImage
  3
ISM
 90
      127
280
         0
281
         1
  0
CLASS
  1
OLE2FRAME
  2
AcDbOle2Frame
  3
""
 90
        0
280
         0
281
         1
  0
CLASS
  1
HATCH
  2
AcDbHatch
  3
"ACAD_SEDONA"
 90
        0
280
         0
281
         1
  0
CLASS
  1
DICTIONARYVAR
  2
AcDbDictionaryVar
  3
"AutoCAD"
 90
        0
280
         0
281
         0
  0
CLASS
  1
RASTERVARIABLES
  2
AcDbRasterVariables
  3
ISM
 90
        0
280
         0
281
         0
  0
CLASS
  1
IMAGEDEF
  2
AcDbRasterImageDef
  3
ISM
 90
        0
280
         0
281
         0
  0
CLASS
  1
IMAGEDEF_REACTOR
  2
AcDbRasterImageDefReactor
  3
ISM
 90
        1
280
         0
281
         0
  0
CLASS
  1
IDBUFFER
  2
AcDbIdBuffer
  3
"Acad"
 90
        0
280
         0
281
         0
  0
CLASS
  1
SPATIAL_FILTER
  2
AcDbSpatialFilter
  3
"Acad"
 90
        0
280
         0
281
         0
  0
CLASS
  1
XRECORD
  2
AcDbXrecord
  3
"<Built In>"
 90
        0
280
         0
281
         0
  0
CLASS
  1
SORTENTSTABLE
  2
AcDbSortentsTable
  3
"AutoCAD"
 90
        0
280
         0
281
         0
  0
CLASS
  1
LAYER_INDEX
  2
AcDbLayerIndex
  3
"Acad"
 90
        0
280
         0
281
         0
  0
CLASS
  1
SPATIAL_INDEX
  2
AcDbSpatialIndex
  3
"Acad"
 90
        0
280
         0
281
         0
  0
CLASS
  1
OBJECT_PTR
  2
CAseDLPNTableRecord
  3
"ASE-LPNTableRecord"
 90
        1
280
         0
281
         0
  0
CLASS
  1
LAYOUT
  2
AcDbLayout
  3
"AutoCAD 2000"
 90
        0
280
         0
281
         0
  0
CLASS
  1
PLOTSETTINGS
  2
AcDbPlotSettings
  3
"AutoCAD 2000"
 90
        0
280
         0
281
         0
  0
CLASS
  1
ACDBDICTIONARYWDFLT
  2
AcDbDictionaryWithDefault
  3
"AutoCAD 2000"
 90
        0
280
         0
281
         0
  0
CLASS
  1
ACDBPLACEHOLDER
  2
AcDbPlaceHolder
  3
"AutoCAD 2000"
 90
        0
280
         0
281
         0
  0
CLASS
  1
VBA_PROJECT
  2
AcDbVbaProject
  3
"acadvba"
 90
        0
280
         0
281
         0
  0
CLASS
  1
WIPEOUT
  2
AcDbWipeout
  3
WipeOut|AutoCAD Express Tool|expresstools@autodesk.com
 90
      127
280
         0
281
         1
  0
CLASS
  1
WIPEOUTVARIABLES
  2
AcDbWipeoutVariables
  3
WipeOut|AutoCAD Express Tool|expresstools@autodesk.com
 90
        0
280
         0
281
         0
  0
CLASS
  1
RTEXT
  2
RText
  3
RText|AutoCAD Express Tool|expresstools@autodesk.com
 90
        0
280
         0
281
         1
  0
CLASS
  1
ARCALIGNEDTEXT
  2
AcDbArcAlignedText
  3
ATEXT|AutoCAD Express Tool|expresstools@autodesk.com
 90
        0
280
         0
281
         1
  0
ENDSEC
  0
SECTION
  2
TABLES
  0
TABLE
  2
VPORT
  5
7
100
AcDbSymbolTable
70
    1
  0
VPORT
  5
13
100
AcDbSymbolTableRecord
100
AcDbViewportTableRecord
  2
*ACTIVE
 70
         0
 10
0.0
 20
0.0
 11
1.0
 21
1.0
 12
6.591288
 22
4.579184
 13
0.0
 23
0.0
 14
1.0
 24
1.0
 15
0.0
 25
0.0
 16
0.0
 26
0.0
 36
1.0
 17
0.0
 27
0.0
 37
0.0
  40
9.158369
  41
0.688564
  42
50.0
  43
0.0
  44
0.0
  50
0.0
  51
0.0
 71
    0
 72
    100
 73
    1
 74
    1
 75
    0
 76
    0
 77
    0
 78
    0
  0
ENDTAB
  0
TABLE
  2
LTYPE
  5
4
100
AcDbSymbolTable
70
    3
  0
LTYPE
  5
10
100
AcDbSymbolTableRecord
100
AcDbLinetypeTableRecord
  2
BYBLOCK
 70
         64
  3

 72
       65
 73
       0
  40
0.0
  0
LTYPE
  5
11
100
AcDbSymbolTableRecord
100
AcDbLinetypeTableRecord
  2
BYLAYER
 70
         64
  3

 72
       65
 73
       0
  40
0.0
  0
LTYPE
  5
12
100
AcDbSymbolTableRecord
100
AcDbLinetypeTableRecord
  2
CONTINUOUS
 70
         64
  3
Solid Line
 72
       65
 73
       0
  40
0.0
  0
ENDTAB
  0
TABLE
  2
LAYER
  5
2
100
AcDbSymbolTable
 70
         12
  0
LAYER
  5
746
100
AcDbSymbolTableRecord
100
AcDbLayerTableRecord
  2
0
 70
         0
 62
         7
  6
CONTINUOUS
  0
LAYER
  5
747
100
AcDbSymbolTableRecord
100
AcDbLayerTableRecord
  2
ASSEMBLY_OUTLINES_TOP
 70
         0
 62
         104
  6
CONTINUOUS
  0
LAYER
  5
748
100
AcDbSymbolTableRecord
100
AcDbLayerTableRecord
  2
ASSEMBLY_PART_NUMBERS_TOP
 70
         0
 62
         200
  6
CONTINUOUS
  0
LAYER
  5
749
100
AcDbSymbolTableRecord
100
AcDbLayerTableRecord
  2
ASSEMBLY_REF_DES_TOP
 70
         0
 62
         30
  6
CONTINUOUS
  0
LAYER
  5
74A
100
AcDbSymbolTableRecord
100
AcDbLayerTableRecord
  2
BOARD_OUTLINE
 70
         0
 62
         10
  6
CONTINUOUS
  0
LAYER
  5
74B
100
AcDbSymbolTableRecord
100
AcDbLayerTableRecord
  2
CONTOURS_LAYER_TOP
 70
         0
 62
         42
  6
CONTINUOUS
  0
LAYER
  5
74C
100
AcDbSymbolTableRecord
100
AcDbLayerTableRecord
  2
DIMENSION-HANDBUCH
 70
         0
 62
         221
  6
CONTINUOUS
  0
LAYER
  5
74D
100
AcDbSymbolTableRecord
100
AcDbLayerTableRecord
  2
PART_PADS_SMD_TOP
 70
         0
 62
         255
  6
CONTINUOUS
  0
LAYER
  5
74E
100
AcDbSymbolTableRecord
100
AcDbLayerTableRecord
  2
PIN_NUMBERS_TOP
 70
         0
 62
         8
  6
CONTINUOUS
  0
LAYER
  5
74F
100
AcDbSymbolTableRecord
100
AcDbLayerTableRecord
  2
SOLDERMASK_PADS_TOP
 70
         0
 62
         81
  6
CONTINUOUS
  0
LAYER
  5
750
100
AcDbSymbolTableRecord
100
AcDbLayerTableRecord
  2
SOLDERPASTE_PADS_TOP
 70
         0
 62
         81
  6
CONTINUOUS
  0
LAYER
  5
751
100
AcDbSymbolTableRecord
100
AcDbLayerTableRecord
  2
SOLDERPASTE_TOP
 70
         0
 62
         81
  6
CONTINUOUS
  0
ENDTAB
  0
TABLE
  2
STYLE
  5
3
100
AcDbSymbolTable
 70
         4
  0
STYLE
  5
752
100
AcDbSymbolTableRecord
100
AcDbTextStyleTableRecord
  2
STANDARD
 70
         0
 40
0.0
 41
1.0
 50
0.0
 71
         0
 42
0.0
  3
txt
  4

  0
STYLE
  5
753
100
AcDbSymbolTableRecord
100
AcDbTextStyleTableRecord
  2
VERIBEST_GERBER_0
 70
         0
 40
0.0
 41
1.0
 50
0.0
 71
         0
 42
0.0
  3
VBest0.ttf
  4

  0
STYLE
  5
754
100
AcDbSymbolTableRecord
100
AcDbTextStyleTableRecord
  2
ARIAL
 70
         0
 40
0.0
 41
1.0
 50
0.0
 71
         0
 42
0.0
  3
arial.ttf
  4

  0
STYLE
  5
755
100
AcDbSymbolTableRecord
100
AcDbTextStyleTableRecord
  2
COURIER_NEW
 70
         0
 40
0.0
 41
1.0
 50
0.0
 71
         0
 42
0.0
  3
cour.ttf
  4

  0
ENDTAB
  0
TABLE
  2
VIEW
  5
5
100
AcDbSymbolTable
 70
         0
  0
ENDTAB
  0
TABLE
  2
UCS
  5
6
100
AcDbSymbolTable
 70
         0
  0
ENDTAB
  0
TABLE
  2
APPID
  5
8
100
AcDbSymbolTable
 70
         1
  0
APPID
  5
14
100
AcDbSymbolTableRecord
100
AcDbRegAppTableRecord
  2
ACAD
 70
         0
  0
ENDTAB
  0
TABLE
  2
DIMSTYLE
  5
9
100
AcDbSymbolTable
 70
         1
  0
DIMSTYLE
105
15
100
AcDbSymbolTableRecord
100
AcDbDimStyleTableRecord
  2
STANDARD
 70
         0
  3

  4

  5

  6

 7

 40
1.0
 41
0.18
 42
0.0625
 43
0.38
 44
0.18
 45
0.0
 46
0.0
 47
0.0
 48
0.0
 71
         0
 72
         0
 73
         1
 74
         1
 75
         0
 76
         0
 77
         0
 78
         0
140
0.18
141
0.09
142
0.0
143
25.4
144
1.0
145
0.0
146
1.0
147
0.09
170
         0
171
         2
172
         0
173
         0
174
         0
175
         0
176
         0
177
         0
178
         0
270
         2
271
         4
272
         4
273
         2
274
         2
275
         0
280
         0
281
         0
282
         0
283
         1
284
         0
285
         0
286
         0
287
         3
288
         0
340
17
  0
ENDTAB
  0
TABLE
  2
BLOCK_RECORD
  5
1
100
AcDbSymbolTable
 70
         0
  0
BLOCK_RECORD
  5
A
100
AcDbSymbolTableRecord
100
AcDbBlockTableRecord
  2
*MODEL_SPACE
  0
BLOCK_RECORD
  5
B
100
AcDbSymbolTableRecord
100
AcDbBlockTableRecord
  2
*PAPER_SPACE
  0
ENDTAB
  0
ENDSEC
  0
SECTION
  2
BLOCKS
  0
BLOCK
  5
C
100
AcDbEntity
  8
0
100
AcDbBlockBegin
  2
*MODEL_SPACE
 70
         0
 10
0.0
 20
0.0
 30
0.0
  3
*MODEL_SPACE
  1

  0
ENDBLK
  5
D
100
AcDbEntity
  8
0
100
AcDbBlockEnd
  0
BLOCK
  5
E
100
AcDbEntity
 67
        1
  8
0
100
AcDbBlockBegin
  2
*PAPER_SPACE
 70
         0
 10
0.0
 20
0.0
 30
0.0
  3
*PAPER_SPACE
  1

  0
ENDBLK
  5
F
100
AcDbEntity
 67
        1
  8
0
100
AcDbBlockEnd
  0
ENDSEC
  0
SECTION
  2
ENTITIES
  0
LWPOLYLINE
  5
1B
100
AcDbEntity
  8
ASSEMBLY_OUTLINES_TOP
100
AcDbPolyline
 90
        4
 70
         1
 43
100.0
 10
0.0
 20
0.0
 10
0.0
 20
40000.0
 10
37000.0
 20
40000.0
 10
37000.0
 20
0.0
  0
CIRCLE
  5
1C
100
AcDbEntity
  8
ASSEMBLY_OUTLINES_TOP
100
AcDbCircle
 10
37000.0
 20
5000.0
 30
0.0
 40
1000.0
  0
HATCH
  5
1D
100
AcDbEntity
  8
ASSEMBLY_OUTLINES_TOP
100
AcDbHatch
 10
0.0
 20
0.0
 30
0.0
 210
0.0
 220
0.0
 230
1.0
  2
SOLID
 70
         1
 71
        1
 91
        1
  92
     1
  93
     1
 72
     2
 10
37000.0
 20
5000.0
  40
1000.0
  50
     0.0
  51
     360.0
 73
     0
  97
     1
  330
    28
 75
     0
 76
     1
  98
     1
 10
0.0
 20
0.0
  0
LWPOLYLINE
  5
1E
100
AcDbEntity
  8
ASSEMBLY_OUTLINES_TOP
100
AcDbPolyline
 90
        8
 70
         1
 43
0.0
 10
26000.0
 20
13000.0
 10
26000.0
 20
27000.0
 42
0.414214
 10
24000.0
 20
29000.0
 10
13000.0
 20
29000.0
 42
0.414214
 10
11000.0
 20
27000.0
 10
11000.0
 20
13000.0
 42
0.414214
 10
13000.0
 20
11000.0
 10
24000.0
 20
11000.0
 42
0.414214
  0
TEXT
  5
1F
100
AcDbEntity
  8
ASSEMBLY_PART_NUMBERS_TOP
100
AcDbText
 10
-23500.0
 20
-2340.0
 30
0.0
 40
1200.000000
 41
1.000000
  1
Part No
  7
VERIBEST_GERBER_0
 11
-23500.0
 21
-1140.0
 31
0.0
100
AcDbText
 73
 3
  0
TEXT
  5
20
100
AcDbEntity
  8
ASSEMBLY_REF_DES_TOP
100
AcDbText
 10
15618.5
 20
19480.0
 30
0.0
 40
1000.000000
 41
1.000000
  1
Ref Des
  7
ARIAL
 72
 1
 11
18200.0
 21
20000.0
 31
0.0
100
AcDbText
 73
 2
  0
LWPOLYLINE
  5
21
100
AcDbEntity
  8
BOARD_OUTLINE
100
AcDbPolyline
 90
        4
 70
         1
 43
0.002
 10
-254000.0
 20
-254000.0
 10
-254000.0
 20
254000.0
 10
254000.0
 20
254000.0
 10
254000.0
 20
-254000.0
  0
LWPOLYLINE
  5
22
100
AcDbEntity
  8
CONTOURS_LAYER_TOP
100
AcDbPolyline
 90
        8
 70
         1
 43
2000.0
 10
25000.0
 20
13000.0
 42
-0.414214
 10
24000.0
 20
12000.0
 10
13000.0
 20
12000.001
 42
-0.414214
 10
12000.0
 20
13000.0
 10
12000.0
 20
27000.0
 42
-0.414214
 10
13000.0
 20
28000.0
 10
24000.001
 20
28000.0
 42
-0.414214
 10
25000.0
 20
27000.0
  0
TEXT
  5
23
100
AcDbEntity
  8
DIMENSION-HANDBUCH
100
AcDbText
 10
14715.4
 20
51825.442
 30
0.0
 40
1270.000000
 41
1.000000
  1
39000um
  7
ARIAL
 72
 1
 11
18500.0
 21
52485.842
 31
0.0
100
AcDbText
 73
 2
  0
TEXT
  5
24
100
AcDbEntity
  8
DIMENSION-HANDBUCH
100
AcDbText
 10
59498.472
 20
16215.401
 30
0.0
 40
1270.000000
 41
1.000000
  1
42000um
  50
90.0
  7
ARIAL
 72
 1
 11
58838.072
 21
20000.001
 31
0.0
100
AcDbText
 73
 2
  0
TEXT
  5
25
100
AcDbEntity
  8
DIMENSION-HANDBUCH
100
AcDbText
 10
14712.9
 20
-7060.399
 30
0.0
 40
1270.000000
 41
1.000000
  1
38995um
  7
ARIAL
 72
 1
 11
18497.5
 21
-6399.999
 31
0.0
100
AcDbText
 73
 2
  0
TEXT
  5
26
100
AcDbEntity
  8
DIMENSION-HANDBUCH
100
AcDbText
 10
40826.873
 20
11156.23
 30
0.0
 40
1270.000000
 41
1.000000
  1
1990um
  7
ARIAL
 72
 1
 11
44106.648
 21
11816.63
 31
0.0
100
AcDbText
 73
 2
  0
TEXT
  5
27
100
AcDbEntity
  8
DIMENSION-HANDBUCH
100
AcDbText
 10
-4955.075
 20
-10595.326
 30
0.0
 40
1270.000000
 41
1.000000
  1
2220um
  50
90.0
  7
ARIAL
 72
 1
 11
-5615.475
 21
-7315.551
 31
0.0
100
AcDbText
 73
 2
  0
TEXT
  5
28
100
AcDbEntity
  8
DIMENSION-HANDBUCH
100
AcDbText
 10
-1572.953
 20
10454.839
 30
0.0
 40
1270.000000
 41
1.000000
  1
2540um
  50
90.0
  7
ARIAL
 72
 1
 11
-2233.353
 21
13734.614
 31
0.0
100
AcDbText
 73
 2
  0
TEXT
  5
29
100
AcDbEntity
  8
DIMENSION-HANDBUCH
100
AcDbText
 10
38966.859
 20
6073.754
 30
0.0
 40
1270.000000
 41
1.000000
  1
1270um
  7
ARIAL
 72
 1
 11
42246.634
 21
6734.154
 31
0.0
100
AcDbText
 73
 2
  0
TEXT
  5
2A
100
AcDbEntity
  8
DIMENSION-HANDBUCH
100
AcDbText
 10
50397.77
 20
15110.098
 30
0.0
 40
1270.000000
 41
1.000000
  1
1270um
  50
90.0
  7
ARIAL
 72
 1
 11
49737.37
 21
18389.873
 31
0.0
100
AcDbText
 73
 2
  0
TEXT
  5
2B
100
AcDbEntity
  8
DIMENSION-HANDBUCH
100
AcDbText
 10
-8737.6
 20
16215.401
 30
0.0
 40
1270.000000
 41
1.000000
  1
40000um
  50
90.0
  7
ARIAL
 72
 1
 11
-9398.0
 21
20000.001
 31
0.0
100
AcDbText
 73
 2
  0
TEXT
  5
2C
100
AcDbEntity
  8
DIMENSION-HANDBUCH
100
AcDbText
 10
43185.722
 20
30715.401
 30
0.0
 40
1270.000000
 41
1.000000
  1
11000um
  50
90.0
  7
ARIAL
 72
 1
 11
42525.322
 21
34500.001
 31
0.0
100
AcDbText
 73
 2
  0
TEXT
  5
2D
100
AcDbEntity
  8
DIMENSION-HANDBUCH
100
AcDbText
 10
27715.4
 20
43073.594
 30
0.0
 40
1270.000000
 41
1.000000
  1
11000um
  7
ARIAL
 72
 1
 11
31500.0
 21
43733.994
 31
0.0
100
AcDbText
 73
 2
  0
TEXT
  5
2E
100
AcDbEntity
  8
DIMENSION-HANDBUCH
100
AcDbText
 10
29362.4
 20
16215.401
 30
0.0
 40
1270.000000
 41
1.000000
  1
18000um
  50
90.0
  7
ARIAL
 72
 1
 11
28702.0
 21
20000.001
 31
0.0
100
AcDbText
 73
 2
  0
TEXT
  5
2F
100
AcDbEntity
  8
DIMENSION-HANDBUCH
100
AcDbText
 10
14715.4
 20
7721.6
 30
0.0
 40
1270.000000
 41
1.000000
  1
15000um
  7
ARIAL
 72
 1
 11
18500.0
 21
8382.0
 31
0.0
100
AcDbText
 73
 2
  0
TEXT
  5
30
100
AcDbEntity
  8
DIMENSION-HANDBUCH
100
AcDbText
 10
-7946.295
 20
33883.6
 30
0.0
 40
1270.000000
 41
1.000000
  1
R2000um
  7
ARIAL
 72
 1
 11
-4011.2
 21
34544.0
 31
0.0
100
AcDbText
 73
 2
  0
TEXT
  5
31
100
AcDbEntity
  8
DIMENSION-HANDBUCH
100
AcDbText
 10
-29658.409
 20
22820.062
 30
0.0
 40
1270.000000
 41
1.000000
  1
3500um
  50
90.0
  7
ARIAL
 72
 1
 11
-30318.809
 21
26099.837
 31
0.0
100
AcDbText
 73
 2
  0
TEXT
  5
32
100
AcDbEntity
  8
DIMENSION-HANDBUCH
100
AcDbText
 10
-24925.484
 20
18940.051
 30
0.0
 40
1270.000000
 41
1.000000
  1
2000um
  7
ARIAL
 72
 1
 11
-21645.709
 21
19600.451
 31
0.0
100
AcDbText
 73
 2
  0
TEXT
  5
33
100
AcDbEntity
  8
DIMENSION-HANDBUCH
100
AcDbText
 10
-11624.948
 20
24648.934
 30
0.0
 40
1270.000000
 41
1.000000
  1
2000um
  50
90.0
  7
ARIAL
 72
 1
 11
-12285.348
 21
27928.709
 31
0.0
100
AcDbText
 73
 2
  0
TEXT
  5
34
100
AcDbEntity
  8
DIMENSION-HANDBUCH
100
AcDbText
 10
-24815.067
 20
35161.273
 30
0.0
 40
1270.000000
 41
1.000000
  1
3500um
  7
ARIAL
 72
 1
 11
-21535.292
 21
35821.673
 31
0.0
100
AcDbText
 73
 2
  0
TEXT
  5
35
100
AcDbEntity
  8
DIMENSION-HANDBUCH
100
AcDbText
 10
14715.4
 20
48107.6
 30
0.0
 40
1270.000000
 41
1.000000
  1
37000um
  7
ARIAL
 72
 1
 11
18500.0
 21
48768.0
 31
0.0
100
AcDbText
 73
 2
  0
TEXT
  5
36
100
AcDbEntity
  8
DIMENSION-HANDBUCH
100
AcDbText
 10
42733.414
 20
-4968.271
 30
0.0
 40
1270.000000
 41
1.000000
  1
2000um
  7
ARIAL
 72
 1
 11
46013.189
 21
-4307.871
 31
0.0
100
AcDbText
 73
 2
  0
TEXT
  5
37
100
AcDbEntity
  8
DIMENSION-HANDBUCH
100
AcDbText
 10
38680.052
 20
-15915.836
 30
0.0
 40
1270.000000
 41
1.000000
  1
2000um
  50
90.0
  7
ARIAL
 72
 1
 11
38019.652
 21
-12636.061
 31
0.0
100
AcDbText
 73
 2
  0
TEXT
  5
38
100
AcDbEntity
  8
DIMENSION-HANDBUCH
100
AcDbText
 10
55590.109
 20
-15390.442
 30
0.0
 40
1270.000000
 41
1.000000
  1
3500um
  50
90.0
  7
ARIAL
 72
 1
 11
54929.709
 21
-12110.667
 31
0.0
100
AcDbText
 73
 2
  0
TEXT
  5
39
100
AcDbEntity
  8
DIMENSION-HANDBUCH
100
AcDbText
 10
42080.542
 20
-20645.8
 30
0.0
 40
1270.000000
 41
1.000000
  1
3500um
  7
ARIAL
 72
 1
 11
45360.317
 21
-19985.4
 31
0.0
100
AcDbText
 73
 2
  0
TEXT
  5
3A
100
AcDbEntity
  8
DIMENSION-HANDBUCH
100
AcDbText
 10
8171.56
 20
-2907.15
 30
0.0
 40
1270.000000
 41
1.000000
  1
Stencil 100um thickness
  7
ARIAL
 72
 1
 11
17958.18
 21
-2246.75
 31
0.0
100
AcDbText
 73
 2
  0
TEXT
  5
3B
100
AcDbEntity
  8
DIMENSION-HANDBUCH
100
AcDbText
 10
13435.0
 20
18035.0
 30
0.0
 40
700.000000
 41
1.000000
  1
Contour milling outline:
  7
ARIAL
 11
13435.0
 21
18763.0
 31
0.0
100
AcDbText
 73
 3
  0
TEXT
  5
3C
100
AcDbEntity
  8
DIMENSION-HANDBUCH
100
AcDbText
 10
16000.0
 20
16838.0
 30
0.0
 40
700.000000
 41
1.000000
  1
15x18mm
  7
ARIAL
 11
16000.0
 21
17566.0
 31
0.0
100
AcDbText
 73
 3
  0
TEXT
  5
3D
100
AcDbEntity
  8
DIMENSION-HANDBUCH
100
AcDbText
 10
-29130.43
 20
40350.87
 30
0.0
 40
1270.000000
 41
1.000000
  1
Pad and soldermask
  7
ARIAL
 72
 1
 11
-20856.38
 21
41011.27
 31
0.0
100
AcDbText
 73
 2
  0
TEXT
  5
3E
100
AcDbEntity
  8
DIMENSION-HANDBUCH
100
AcDbText
 10
-22912.0
 20
8364.0
 30
0.0
 40
700.000000
 41
1.000000
  1
Baseboard
  7
ARIAL
 11
-22912.0
 21
9092.0
 31
0.0
100
AcDbText
 73
 3
  0
TEXT
  5
3F
100
AcDbEntity
  8
DIMENSION-HANDBUCH
100
AcDbText
 10
-25877.0
 20
4454.0
 30
0.0
 40
700.000000
 41
1.000000
  1
PAD Paste 720um
  7
ARIAL
 11
-25877.0
 21
5182.0
 31
0.0
100
AcDbText
 73
 3
  0
TEXT
  5
40
100
AcDbEntity
  8
DIMENSION-HANDBUCH
100
AcDbText
 10
-47808.605
 20
14836.87
 30
0.0
 40
1270.000000
 41
1.000000
  1
Enlarge 4 corner paste by 0,1mm on each side
  7
ARIAL
 72
 1
 11
-28990.38
 21
15497.27
 31
0.0
100
AcDbText
 73
 2
  0
TEXT
  5
41
100
AcDbEntity
  8
DIMENSION-HANDBUCH
100
AcDbText
 10
-25822.0
 20
6979.0
 30
0.0
 40
700.000000
 41
1.000000
  1
PAD Size copper 650um
  7
ARIAL
 11
-25822.0
 21
7707.0
 31
0.0
100
AcDbText
 73
 3
  0
TEXT
  5
42
100
AcDbEntity
  8
DIMENSION-HANDBUCH
100
AcDbText
 10
-25822.0
 20
5734.0
 30
0.0
 40
700.000000
 41
1.000000
  1
PAD Soldermask max. 750um (NSMD)
  7
ARIAL
 11
-25822.0
 21
6462.0
 31
0.0
100
AcDbText
 73
 3
  0
LWPOLYLINE
  5
43
100
AcDbEntity
  8
DIMENSION-HANDBUCH
100
AcDbPolyline
 90
        5
 70
         1
 43
0.0
 10
43620.0
 20
-13315.0
 10
43620.0
 20
-11315.0
 10
45120.0
 20
-9815.0
 10
47120.0
 20
-9815.0
 10
47120.0
 20
-13315.0
  0
LWPOLYLINE
  5
44
100
AcDbEntity
  8
DIMENSION-HANDBUCH
100
AcDbPolyline
 90
        6
 70
         1
 43
0.0
 10
-20724.0
 20
26317.0
 10
-20724.0
 20
24817.0
 10
-22724.0
 20
24817.0
 10
-22724.0
 20
28317.0
 10
-19224.0
 20
28317.0
 10
-19224.0
 20
26317.0
  0
LWPOLYLINE
  5
45
100
AcDbEntity
  8
DIMENSION-HANDBUCH
100
AcDbPolyline
 90
        8
 70
         1
 43
2000.0
 10
25000.0
 20
13000.0
 42
-0.414214
 10
24000.0
 20
12000.0
 10
13000.0
 20
12000.001
 42
-0.414214
 10
12000.0
 20
13000.0
 10
12000.0
 20
27000.0
 42
-0.414214
 10
13000.0
 20
28000.0
 10
24000.001
 20
28000.0
 42
-0.414214
 10
25000.0
 20
27000.0
  0
LWPOLYLINE
  5
46
100
AcDbEntity
  8
DIMENSION-HANDBUCH
100
AcDbPolyline
 90
        5
 70
         1
 43
0.0
 10
34495.0
 20
-1000.0
 10
34495.0
 20
1000.0
 10
35995.0
 20
2500.0
 10
37995.0
 20
2500.0
 10
37995.0
 20
-1000.0
  0
LWPOLYLINE
  5
47
100
AcDbEntity
  8
DIMENSION-HANDBUCH
100
AcDbPolyline
 90
        6
 70
         1
 43
0.0
 10
1000.0
 20
1000.0
 10
2500.0
 20
1000.0
 10
2500.0
 20
-1000.0
 10
-1000.0
 20
-1000.0
 10
-1000.0
 20
2500.0
 10
1000.0
 20
2500.0
  0
LWPOLYLINE
  5
48
100
AcDbEntity
  8
DIMENSION-HANDBUCH
100
AcDbPolyline
 90
        6
 70
         1
 43
0.0
 10
1000.0
 20
39000.0
 10
1000.0
 20
37500.0
 10
-1000.0
 20
37500.0
 10
-1000.0
 20
41000.0
 10
2500.0
 20
41000.0
 10
2500.0
 20
39000.0
  0
LWPOLYLINE
  5
49
100
AcDbEntity
  8
DIMENSION-HANDBUCH
100
AcDbPolyline
 90
        6
 70
         1
 43
0.0
 10
36000.0
 20
39000.0
 10
34500.0
 20
39000.0
 10
34500.0
 20
41000.0
 10
38000.0
 20
41000.0
 10
38000.0
 20
37500.0
 10
36000.0
 20
37500.0
  0
LWPOLYLINE
  5
4A
100
AcDbEntity
  8
DIMENSION-HANDBUCH
100
AcDbPolyline
 90
        2
 70
         0
 43
203.2
 10
-1000.0
 20
41508.0
 10
-1000.0
 20
52993.843
  0
LWPOLYLINE
  5
4B
100
AcDbEntity
  8
DIMENSION-HANDBUCH
100
AcDbPolyline
 90
        2
 70
         0
 43
203.2
 10
38000.0
 20
41508.0
 10
38000.0
 20
52993.843
  0
LWPOLYLINE
  5
4C
100
AcDbEntity
  8
DIMENSION-HANDBUCH
100
AcDbPolyline
 90
        2
 70
         0
 43
203.2
 10
-428.5
 20
52485.843
 10
14291.22
 20
52485.843
  0
LWPOLYLINE
  5
4D
100
AcDbEntity
  8
DIMENSION-HANDBUCH
100
AcDbPolyline
 90
        2
 70
         0
 43
203.2
 10
22708.78
 20
52485.843
 10
37428.5
 20
52485.843
  0
LWPOLYLINE
  5
4E
100
AcDbEntity
  8
DIMENSION-HANDBUCH
100
AcDbPolyline
 90
        3
 70
         1
 43
0.0
 10
-1000.0
 20
52485.843
 10
143.0
 20
53057.343
 10
143.0
 20
51914.343
  0
HATCH
  5
4F
100
AcDbEntity
  8
DIMENSION-HANDBUCH
100
AcDbHatch
 10
0.0
 20
0.0
 30
0.0
 210
0.0
 220
0.0
 230
1.0
  2
SOLID
 70
         1
 71
        1
 91
        1
  92
     2
 72
     0
 73
     1
  93
     3
 10
-1000.0
 20
52485.843
 10
143.0
 20
53057.343
 10
143.0
 20
51914.343
  97
     1
  330
    78
 75
     0
 76
     1
  98
     1
 10
0.0
 20
0.0
  0
LWPOLYLINE
  5
50
100
AcDbEntity
  8
DIMENSION-HANDBUCH
100
AcDbPolyline
 90
        3
 70
         1
 43
0.0
 10
38000.0
 20
52485.843
 10
36857.0
 20
51914.344
 10
36857.0
 20
53057.343
  0
HATCH
  5
51
100
AcDbEntity
  8
DIMENSION-HANDBUCH
100
AcDbHatch
 10
0.0
 20
0.0
 30
0.0
 210
0.0
 220
0.0
 230
1.0
  2
SOLID
 70
         1
 71
        1
 91
        1
  92
     2
 72
     0
 73
     1
  93
     3
 10
38000.0
 20
52485.843
 10
36857.0
 20
51914.344
 10
36857.0
 20
53057.343
  97
     1
  330
    80
 75
     0
 76
     1
  98
     1
 10
0.0
 20
0.0
  0
LWPOLYLINE
  5
52
100
AcDbEntity
  8
DIMENSION-HANDBUCH
100
AcDbPolyline
 90
        2
 70
         0
 43
203.2
 10
38508.0
 20
41000.0
 10
59346.072
 20
41000.0
  0
LWPOLYLINE
  5
53
100
AcDbEntity
  8
DIMENSION-HANDBUCH
100
AcDbPolyline
 90
        2
 70
         0
 43
203.2
 10
38503.0
 20
-1000.0
 10
59346.072
 20
-1000.0
  0
LWPOLYLINE
  5
54
100
AcDbEntity
  8
DIMENSION-HANDBUCH
100
AcDbPolyline
 90
        2
 70
         0
 43
203.2
 10
58838.072
 20
40428.5
 10
58838.072
 20
24208.779
  0
LWPOLYLINE
  5
55
100
AcDbEntity
  8
DIMENSION-HANDBUCH
100
AcDbPolyline
 90
        2
 70
         0
 43
203.2
 10
58838.072
 20
15791.22
 10
58838.072
 20
-428.5
  0
LWPOLYLINE
  5
56
100
AcDbEntity
  8
DIMENSION-HANDBUCH
100
AcDbPolyline
 90
        3
 70
         1
 43
0.0
 10
58838.072
 20
41000.0
 10
59409.571
 20
39857.0
 10
58266.572
 20
39857.001
  0
HATCH
  5
57
100
AcDbEntity
  8
DIMENSION-HANDBUCH
100
AcDbHatch
 10
0.0
 20
0.0
 30
0.0
 210
0.0
 220
0.0
 230
1.0
  2
SOLID
 70
         1
 71
        1
 91
        1
  92
     2
 72
     0
 73
     1
  93
     3
 10
58838.072
 20
41000.0
 10
59409.571
 20
39857.0
 10
58266.572
 20
39857.001
  97
     1
  330
    86
 75
     0
 76
     1
  98
     1
 10
0.0
 20
0.0
  0
LWPOLYLINE
  5
58
100
AcDbEntity
  8
DIMENSION-HANDBUCH
100
AcDbPolyline
 90
        3
 70
         1
 43
0.0
 10
58838.072
 20
-1000.0
 10
58266.572
 20
143.0
 10
59409.572
 20
143.0
  0
HATCH
  5
59
100
AcDbEntity
  8
DIMENSION-HANDBUCH
100
AcDbHatch
 10
0.0
 20
0.0
 30
0.0
 210
0.0
 220
0.0
 230
1.0
  2
SOLID
 70
         1
 71
        1
 91
        1
  92
     2
 72
     0
 73
     1
  93
     3
 10
58838.072
 20
-1000.0
 10
58266.572
 20
143.0
 10
59409.572
 20
143.0
  97
     1
  330
    88
 75
     0
 76
     1
  98
     1
 10
0.0
 20
0.0
  0
LWPOLYLINE
  5
5A
100
AcDbEntity
  8
DIMENSION-HANDBUCH
100
AcDbPolyline
 90
        2
 70
         0
 43
203.2
 10
-1000.0
 20
-1508.0
 10
-1000.0
 20
-6908.0
  0
LWPOLYLINE
  5
5B
100
AcDbEntity
  8
DIMENSION-HANDBUCH
100
AcDbPolyline
 90
        2
 70
         0
 43
203.2
 10
37995.0
 20
-1508.0
 10
37995.0
 20
-6908.0
  0
LWPOLYLINE
  5
5C
100
AcDbEntity
  8
DIMENSION-HANDBUCH
100
AcDbPolyline
 90
        2
 70
         0
 43
203.2
 10
-428.5
 20
-6400.0
 10
14288.72
 20
-6400.0
  0
LWPOLYLINE
  5
5D
100
AcDbEntity
  8
DIMENSION-HANDBUCH
100
AcDbPolyline
 90
        2
 70
         0
 43
203.2
 10
22706.28
 20
-6400.0
 10
37423.5
 20
-6400.0
  0
LWPOLYLINE
  5
5E
100
AcDbEntity
  8
DIMENSION-HANDBUCH
100
AcDbPolyline
 90
        3
 70
         1
 43
0.0
 10
-1000.0
 20
-6400.0
 10
143.0
 20
-5828.5
 10
143.0
 20
-6971.5
  0
HATCH
  5
5F
100
AcDbEntity
  8
DIMENSION-HANDBUCH
100
AcDbHatch
 10
0.0
 20
0.0
 30
0.0
 210
0.0
 220
0.0
 230
1.0
  2
SOLID
 70
         1
 71
        1
 91
        1
  92
     2
 72
     0
 73
     1
  93
     3
 10
-1000.0
 20
-6400.0
 10
143.0
 20
-5828.5
 10
143.0
 20
-6971.5
  97
     1
  330
    94
 75
     0
 76
     1
  98
     1
 10
0.0
 20
0.0
  0
LWPOLYLINE
  5
60
100
AcDbEntity
  8
DIMENSION-HANDBUCH
100
AcDbPolyline
 90
        3
 70
         1
 43
0.0
 10
37995.0
 20
-6400.0
 10
36852.0
 20
-6971.499
 10
36852.0
 20
-5828.5
  0
HATCH
  5
61
100
AcDbEntity
  8
DIMENSION-HANDBUCH
100
AcDbHatch
 10
0.0
 20
0.0
 30
0.0
 210
0.0
 220
0.0
 230
1.0
  2
SOLID
 70
         1
 71
        1
 91
        1
  92
     2
 72
     0
 73
     1
  93
     3
 10
37995.0
 20
-6400.0
 10
36852.0
 20
-6971.499
 10
36852.0
 20
-5828.5
  97
     1
  330
    96
 75
     0
 76
     1
  98
     1
 10
0.0
 20
0.0
  0
LWPOLYLINE
  5
62
100
AcDbEntity
  8
DIMENSION-HANDBUCH
100
AcDbPolyline
 90
        2
 70
         0
 43
203.2
 10
35010.0
 20
11618.0
 10
35010.0
 20
12588.515
  0
LWPOLYLINE
  5
63
100
AcDbEntity
  8
DIMENSION-HANDBUCH
100
AcDbPolyline
 90
        2
 70
         0
 43
203.2
 10
37000.0
 20
508.0
 10
37000.0
 20
12588.515
  0
LWPOLYLINE
  5
64
100
AcDbEntity
  8
DIMENSION-HANDBUCH
100
AcDbPolyline
 90
        2
 70
         0
 43
203.2
 10
34438.5
 20
12080.515
 10
32152.5
 20
12080.515
  0
LWPOLYLINE
  5
65
100
AcDbEntity
  8
DIMENSION-HANDBUCH
100
AcDbPolyline
 90
        2
 70
         0
 43
203.2
 10
37571.5
 20
12080.515
 10
39857.5
 20
12080.515
  0
LWPOLYLINE
  5
66
100
AcDbEntity
  8
DIMENSION-HANDBUCH
100
AcDbPolyline
 90
        3
 70
         1
 43
0.0
 10
35010.0
 20
12080.515
 10
33867.0
 20
11509.016
 10
33867.0
 20
12652.015
  0
HATCH
  5
67
100
AcDbEntity
  8
DIMENSION-HANDBUCH
100
AcDbHatch
 10
0.0
 20
0.0
 30
0.0
 210
0.0
 220
0.0
 230
1.0
  2
SOLID
 70
         1
 71
        1
 91
        1
  92
     2
 72
     0
 73
     1
  93
     3
 10
35010.0
 20
12080.515
 10
33867.0
 20
11509.016
 10
33867.0
 20
12652.015
  97
     1
  330
    102
 75
     0
 76
     1
  98
     1
 10
0.0
 20
0.0
  0
LWPOLYLINE
  5
68
100
AcDbEntity
  8
DIMENSION-HANDBUCH
100
AcDbPolyline
 90
        3
 70
         1
 43
0.0
 10
37000.0
 20
12080.515
 10
38143.0
 20
12652.015
 10
38143.0
 20
11509.015
  0
HATCH
  5
69
100
AcDbEntity
  8
DIMENSION-HANDBUCH
100
AcDbHatch
 10
0.0
 20
0.0
 30
0.0
 210
0.0
 220
0.0
 230
1.0
  2
SOLID
 70
         1
 71
        1
 91
        1
  92
     2
 72
     0
 73
     1
  93
     3
 10
37000.0
 20
12080.515
 10
38143.0
 20
12652.015
 10
38143.0
 20
11509.015
  97
     1
  330
    104
 75
     0
 76
     1
  98
     1
 10
0.0
 20
0.0
  0
LWPOLYLINE
  5
6A
100
AcDbEntity
  8
DIMENSION-HANDBUCH
100
AcDbPolyline
 90
        2
 70
         0
 43
203.2
 10
3387.0
 20
2220.0
 10
-6096.0
 20
2220.0
  0
LWPOLYLINE
  5
6B
100
AcDbEntity
  8
DIMENSION-HANDBUCH
100
AcDbPolyline
 90
        2
 70
         0
 43
203.2
 10
-508.0
 20
0.0
 10
-6096.0
 20
0.0
  0
LWPOLYLINE
  5
6C
100
AcDbEntity
  8
DIMENSION-HANDBUCH
100
AcDbPolyline
 90
        2
 70
         0
 43
203.2
 10
-5588.0
 20
2791.5
 10
-5588.0
 20
5077.5
  0
LWPOLYLINE
  5
6D
100
AcDbEntity
  8
DIMENSION-HANDBUCH
100
AcDbPolyline
 90
        2
 70
         0
 43
203.2
 10
-5588.0
 20
-571.5
 10
-5588.0
 20
-2857.5
  0
LWPOLYLINE
  5
6E
100
AcDbEntity
  8
DIMENSION-HANDBUCH
100
AcDbPolyline
 90
        3
 70
         1
 43
0.0
 10
-5588.0
 20
2220.0
 10
-6159.5
 20
3363.0
 10
-5016.5
 20
3363.0
  0
HATCH
  5
6F
100
AcDbEntity
  8
DIMENSION-HANDBUCH
100
AcDbHatch
 10
0.0
 20
0.0
 30
0.0
 210
0.0
 220
0.0
 230
1.0
  2
SOLID
 70
         1
 71
        1
 91
        1
  92
     2
 72
     0
 73
     1
  93
     3
 10
-5588.0
 20
2220.0
 10
-6159.5
 20
3363.0
 10
-5016.5
 20
3363.0
  97
     1
  330
    110
 75
     0
 76
     1
  98
     1
 10
0.0
 20
0.0
  0
LWPOLYLINE
  5
70
100
AcDbEntity
  8
DIMENSION-HANDBUCH
100
AcDbPolyline
 90
        3
 70
         1
 43
0.0
 10
-5588.0
 20
0.0
 10
-5016.501
 20
-1143.0
 10
-6159.5
 20
-1142.999
  0
HATCH
  5
71
100
AcDbEntity
  8
DIMENSION-HANDBUCH
100
AcDbHatch
 10
0.0
 20
0.0
 30
0.0
 210
0.0
 220
0.0
 230
1.0
  2
SOLID
 70
         1
 71
        1
 91
        1
  92
     2
 72
     0
 73
     1
  93
     3
 10
-5588.0
 20
0.0
 10
-5016.501
 20
-1143.0
 10
-6159.5
 20
-1142.999
  97
     1
  330
    112
 75
     0
 76
     1
  98
     1
 10
0.0
 20
0.0
  0
LWPOLYLINE
  5
72
100
AcDbEntity
  8
DIMENSION-HANDBUCH
100
AcDbPolyline
 90
        2
 70
         0
 43
203.2
 10
7197.0
 20
7300.0
 10
-2741.353
 20
7300.0
  0
LWPOLYLINE
  5
73
100
AcDbEntity
  8
DIMENSION-HANDBUCH
100
AcDbPolyline
 90
        2
 70
         0
 43
203.2
 10
9737.0
 20
4760.0
 10
-2741.353
 20
4760.0
  0
LWPOLYLINE
  5
74
100
AcDbEntity
  8
DIMENSION-HANDBUCH
100
AcDbPolyline
 90
        2
 70
         0
 43
203.2
 10
-2233.353
 20
7871.5
 10
-2233.353
 20
10157.5
  0
LWPOLYLINE
  5
75
100
AcDbEntity
  8
DIMENSION-HANDBUCH
100
AcDbPolyline
 90
        2
 70
         0
 43
203.2
 10
-2233.353
 20
4188.5
 10
-2233.353
 20
1902.5
  0
LWPOLYLINE
  5
76
100
AcDbEntity
  8
DIMENSION-HANDBUCH
100
AcDbPolyline
 90
        3
 70
         1
 43
0.0
 10
-2233.353
 20
7300.0
 10
-2804.853
 20
8443.0
 10
-1661.853
 20
8443.0
  0
HATCH
  5
77
100
AcDbEntity
  8
DIMENSION-HANDBUCH
100
AcDbHatch
 10
0.0
 20
0.0
 30
0.0
 210
0.0
 220
0.0
 230
1.0
  2
SOLID
 70
         1
 71
        1
 91
        1
  92
     2
 72
     0
 73
     1
  93
     3
 10
-2233.353
 20
7300.0
 10
-2804.853
 20
8443.0
 10
-1661.853
 20
8443.0
  97
     1
  330
    118
 75
     0
 76
     1
  98
     1
 10
0.0
 20
0.0
  0
LWPOLYLINE
  5
78
100
AcDbEntity
  8
DIMENSION-HANDBUCH
100
AcDbPolyline
 90
        3
 70
         1
 43
0.0
 10
-2233.353
 20
4760.0
 10
-1661.854
 20
3617.0
 10
-2804.853
 20
3617.001
  0
HATCH
  5
79
100
AcDbEntity
  8
DIMENSION-HANDBUCH
100
AcDbHatch
 10
0.0
 20
0.0
 30
0.0
 210
0.0
 220
0.0
 230
1.0
  2
SOLID
 70
         1
 71
        1
 91
        1
  92
     2
 72
     0
 73
     1
  93
     3
 10
-2233.353
 20
4760.0
 10
-1661.854
 20
3617.0
 10
-2804.853
 20
3617.001
  97
     1
  330
    120
 75
     0
 76
     1
  98
     1
 10
0.0
 20
0.0
  0
LWPOLYLINE
  5
7A
100
AcDbEntity
  8
DIMENSION-HANDBUCH
100
AcDbPolyline
 90
        2
 70
         0
 43
203.2
 10
33740.0
 20
6538.0
 10
33740.0
 20
7112.0
  0
LWPOLYLINE
  5
7B
100
AcDbEntity
  8
DIMENSION-HANDBUCH
100
AcDbPolyline
 90
        2
 70
         0
 43
203.2
 10
35010.0
 20
6538.0
 10
35010.0
 20
7112.0
  0
LWPOLYLINE
  5
7C
100
AcDbEntity
  8
DIMENSION-HANDBUCH
100
AcDbPolyline
 90
        2
 70
         0
 43
203.2
 10
33168.5
 20
6604.0
 10
30882.5
 20
6604.0
  0
LWPOLYLINE
  5
7D
100
AcDbEntity
  8
DIMENSION-HANDBUCH
100
AcDbPolyline
 90
        2
 70
         0
 43
203.2
 10
35581.5
 20
6604.0
 10
37867.5
 20
6604.0
  0
LWPOLYLINE
  5
7E
100
AcDbEntity
  8
DIMENSION-HANDBUCH
100
AcDbPolyline
 90
        3
 70
         1
 43
0.0
 10
33740.0
 20
6604.0
 10
32597.0
 20
6032.501
 10
32597.0
 20
7175.5
  0
HATCH
  5
7F
100
AcDbEntity
  8
DIMENSION-HANDBUCH
100
AcDbHatch
 10
0.0
 20
0.0
 30
0.0
 210
0.0
 220
0.0
 230
1.0
  2
SOLID
 70
         1
 71
        1
 91
        1
  92
     2
 72
     0
 73
     1
  93
     3
 10
33740.0
 20
6604.0
 10
32597.0
 20
6032.501
 10
32597.0
 20
7175.5
  97
     1
  330
    126
 75
     0
 76
     1
  98
     1
 10
0.0
 20
0.0
  0
LWPOLYLINE
  5
80
100
AcDbEntity
  8
DIMENSION-HANDBUCH
100
AcDbPolyline
 90
        3
 70
         1
 43
0.0
 10
35010.0
 20
6604.0
 10
36153.0
 20
7175.5
 10
36153.0
 20
6032.5
  0
HATCH
  5
81
100
AcDbEntity
  8
DIMENSION-HANDBUCH
100
AcDbHatch
 10
0.0
 20
0.0
 30
0.0
 210
0.0
 220
0.0
 230
1.0
  2
SOLID
 70
         1
 71
        1
 91
        1
  92
     2
 72
     0
 73
     1
  93
     3
 10
35010.0
 20
6604.0
 10
36153.0
 20
7175.5
 10
36153.0
 20
6032.5
  97
     1
  330
    128
 75
     0
 76
     1
  98
     1
 10
0.0
 20
0.0
  0
LWPOLYLINE
  5
82
100
AcDbEntity
  8
DIMENSION-HANDBUCH
100
AcDbPolyline
 90
        2
 70
         0
 43
203.2
 10
35518.0
 20
18730.0
 10
48353.157
 20
18730.0
  0
LWPOLYLINE
  5
83
100
AcDbEntity
  8
DIMENSION-HANDBUCH
100
AcDbPolyline
 90
        2
 70
         0
 43
203.2
 10
34883.0
 20
17460.0
 10
48353.157
 20
17460.0
  0
LWPOLYLINE
  5
84
100
AcDbEntity
  8
DIMENSION-HANDBUCH
100
AcDbPolyline
 90
        2
 70
         0
 43
203.2
 10
47845.157
 20
19301.5
 10
47845.157
 20
21587.5
  0
LWPOLYLINE
  5
85
100
AcDbEntity
  8
DIMENSION-HANDBUCH
100
AcDbPolyline
 90
        2
 70
         0
 43
203.2
 10
47845.157
 20
16888.5
 10
47845.157
 20
14602.5
  0
LWPOLYLINE
  5
86
100
AcDbEntity
  8
DIMENSION-HANDBUCH
100
AcDbPolyline
 90
        3
 70
         1
 43
0.0
 10
47845.157
 20
18730.0
 10
47273.657
 20
19873.0
 10
48416.657
 20
19873.0
  0
HATCH
  5
87
100
AcDbEntity
  8
DIMENSION-HANDBUCH
100
AcDbHatch
 10
0.0
 20
0.0
 30
0.0
 210
0.0
 220
0.0
 230
1.0
  2
SOLID
 70
         1
 71
        1
 91
        1
  92
     2
 72
     0
 73
     1
  93
     3
 10
47845.157
 20
18730.0
 10
47273.657
 20
19873.0
 10
48416.657
 20
19873.0
  97
     1
  330
    134
 75
     0
 76
     1
  98
     1
 10
0.0
 20
0.0
  0
LWPOLYLINE
  5
88
100
AcDbEntity
  8
DIMENSION-HANDBUCH
100
AcDbPolyline
 90
        3
 70
         1
 43
0.0
 10
47845.157
 20
17460.0
 10
48416.656
 20
16317.0
 10
47273.657
 20
16317.001
  0
HATCH
  5
89
100
AcDbEntity
  8
DIMENSION-HANDBUCH
100
AcDbHatch
 10
0.0
 20
0.0
 30
0.0
 210
0.0
 220
0.0
 230
1.0
  2
SOLID
 70
         1
 71
        1
 91
        1
  92
     2
 72
     0
 73
     1
  93
     3
 10
47845.157
 20
17460.0
 10
48416.656
 20
16317.0
 10
47273.657
 20
16317.001
  97
     1
  330
    136
 75
     0
 76
     1
  98
     1
 10
0.0
 20
0.0
  0
LWPOLYLINE
  5
8A
100
AcDbEntity
  8
DIMENSION-HANDBUCH
100
AcDbPolyline
 90
        2
 70
         0
 43
203.2
 10
-508.0
 20
0.0
 10
-9906.0
 20
0.0
  0
LWPOLYLINE
  5
8B
100
AcDbEntity
  8
DIMENSION-HANDBUCH
100
AcDbPolyline
 90
        2
 70
         0
 43
203.2
 10
-508.0
 20
40000.0
 10
-9906.0
 20
40000.0
  0
LWPOLYLINE
  5
8C
100
AcDbEntity
  8
DIMENSION-HANDBUCH
100
AcDbPolyline
 90
        2
 70
         0
 43
203.2
 10
-9398.0
 20
571.5
 10
-9398.0
 20
15791.22
  0
LWPOLYLINE
  5
8D
100
AcDbEntity
  8
DIMENSION-HANDBUCH
100
AcDbPolyline
 90
        2
 70
         0
 43
203.2
 10
-9398.0
 20
24208.779
 10
-9398.0
 20
39428.5
  0
LWPOLYLINE
  5
8E
100
AcDbEntity
  8
DIMENSION-HANDBUCH
100
AcDbPolyline
 90
        3
 70
         1
 43
0.0
 10
-9398.0
 20
0.0
 10
-9969.5
 20
1143.0
 10
-8826.5
 20
1143.0
  0
HATCH
  5
8F
100
AcDbEntity
  8
DIMENSION-HANDBUCH
100
AcDbHatch
 10
0.0
 20
0.0
 30
0.0
 210
0.0
 220
0.0
 230
1.0
  2
SOLID
 70
         1
 71
        1
 91
        1
  92
     2
 72
     0
 73
     1
  93
     3
 10
-9398.0
 20
0.0
 10
-9969.5
 20
1143.0
 10
-8826.5
 20
1143.0
  97
     1
  330
    142
 75
     0
 76
     1
  98
     1
 10
0.0
 20
0.0
  0
LWPOLYLINE
  5
90
100
AcDbEntity
  8
DIMENSION-HANDBUCH
100
AcDbPolyline
 90
        3
 70
         1
 43
0.0
 10
-9398.0
 20
40000.0
 10
-8826.501
 20
38857.0
 10
-9969.5
 20
38857.001
  0
HATCH
  5
91
100
AcDbEntity
  8
DIMENSION-HANDBUCH
100
AcDbHatch
 10
0.0
 20
0.0
 30
0.0
 210
0.0
 220
0.0
 230
1.0
  2
SOLID
 70
         1
 71
        1
 91
        1
  92
     2
 72
     0
 73
     1
  93
     3
 10
-9398.0
 20
40000.0
 10
-8826.501
 20
38857.0
 10
-9969.5
 20
38857.001
  97
     1
  330
    144
 75
     0
 76
     1
  98
     1
 10
0.0
 20
0.0
  0
LWPOLYLINE
  5
92
100
AcDbEntity
  8
DIMENSION-HANDBUCH
100
AcDbPolyline
 90
        2
 70
         0
 43
203.2
 10
37508.0
 20
40000.0
 10
43033.322
 20
40000.0
  0
LWPOLYLINE
  5
93
100
AcDbEntity
  8
DIMENSION-HANDBUCH
100
AcDbPolyline
 90
        2
 70
         0
 43
203.2
 10
24508.0
 20
29000.0
 10
43033.322
 20
29000.0
  0
LWPOLYLINE
  5
94
100
AcDbEntity
  8
DIMENSION-HANDBUCH
100
AcDbPolyline
 90
        2
 70
         0
 43
203.2
 10
42525.322
 20
39428.5
 10
42525.322
 20
38708.779
  0
LWPOLYLINE
  5
95
100
AcDbEntity
  8
DIMENSION-HANDBUCH
100
AcDbPolyline
 90
        2
 70
         0
 43
203.2
 10
42525.322
 20
30291.22
 10
42525.322
 20
29571.5
  0
LWPOLYLINE
  5
96
100
AcDbEntity
  8
DIMENSION-HANDBUCH
100
AcDbPolyline
 90
        3
 70
         1
 43
0.0
 10
42525.322
 20
40000.0
 10
43096.821
 20
38857.0
 10
41953.822
 20
38857.001
  0
HATCH
  5
97
100
AcDbEntity
  8
DIMENSION-HANDBUCH
100
AcDbHatch
 10
0.0
 20
0.0
 30
0.0
 210
0.0
 220
0.0
 230
1.0
  2
SOLID
 70
         1
 71
        1
 91
        1
  92
     2
 72
     0
 73
     1
  93
     3
 10
42525.322
 20
40000.0
 10
43096.821
 20
38857.0
 10
41953.822
 20
38857.001
  97
     1
  330
    150
 75
     0
 76
     1
  98
     1
 10
0.0
 20
0.0
  0
LWPOLYLINE
  5
98
100
AcDbEntity
  8
DIMENSION-HANDBUCH
100
AcDbPolyline
 90
        3
 70
         1
 43
0.0
 10
42525.322
 20
29000.0
 10
41953.822
 20
30143.0
 10
43096.822
 20
30143.0
  0
HATCH
  5
99
100
AcDbEntity
  8
DIMENSION-HANDBUCH
100
AcDbHatch
 10
0.0
 20
0.0
 30
0.0
 210
0.0
 220
0.0
 230
1.0
  2
SOLID
 70
         1
 71
        1
 91
        1
  92
     2
 72
     0
 73
     1
  93
     3
 10
42525.322
 20
29000.0
 10
41953.822
 20
30143.0
 10
43096.822
 20
30143.0
  97
     1
  330
    152
 75
     0
 76
     1
  98
     1
 10
0.0
 20
0.0
  0
LWPOLYLINE
  5
9A
100
AcDbEntity
  8
DIMENSION-HANDBUCH
100
AcDbPolyline
 90
        2
 70
         0
 43
203.2
 10
26000.0
 20
27508.0
 10
26000.0
 20
44241.995
  0
LWPOLYLINE
  5
9B
100
AcDbEntity
  8
DIMENSION-HANDBUCH
100
AcDbPolyline
 90
        2
 70
         0
 43
203.2
 10
37000.0
 20
40508.0
 10
37000.0
 20
44241.995
  0
LWPOLYLINE
  5
9C
100
AcDbEntity
  8
DIMENSION-HANDBUCH
100
AcDbPolyline
 90
        2
 70
         0
 43
203.2
 10
26571.5
 20
43733.995
 10
27291.22
 20
43733.995
  0
LWPOLYLINE
  5
9D
100
AcDbEntity
  8
DIMENSION-HANDBUCH
100
AcDbPolyline
 90
        2
 70
         0
 43
203.2
 10
35708.78
 20
43733.995
 10
36428.5
 20
43733.995
  0
LWPOLYLINE
  5
9E
100
AcDbEntity
  8
DIMENSION-HANDBUCH
100
AcDbPolyline
 90
        3
 70
         1
 43
0.0
 10
26000.0
 20
43733.995
 10
27143.0
 20
44305.495
 10
27143.0
 20
43162.495
  0
HATCH
  5
9F
100
AcDbEntity
  8
DIMENSION-HANDBUCH
100
AcDbHatch
 10
0.0
 20
0.0
 30
0.0
 210
0.0
 220
0.0
 230
1.0
  2
SOLID
 70
         1
 71
        1
 91
        1
  92
     2
 72
     0
 73
     1
  93
     3
 10
26000.0
 20
43733.995
 10
27143.0
 20
44305.495
 10
27143.0
 20
43162.495
  97
     1
  330
    158
 75
     0
 76
     1
  98
     1
 10
0.0
 20
0.0
  0
LWPOLYLINE
  5
A0
100
AcDbEntity
  8
DIMENSION-HANDBUCH
100
AcDbPolyline
 90
        3
 70
         1
 43
0.0
 10
37000.0
 20
43733.995
 10
35857.0
 20
43162.496
 10
35857.0
 20
44305.495
  0
HATCH
  5
A1
100
AcDbEntity
  8
DIMENSION-HANDBUCH
100
AcDbHatch
 10
0.0
 20
0.0
 30
0.0
 210
0.0
 220
0.0
 230
1.0
  2
SOLID
 70
         1
 71
        1
 91
        1
  92
     2
 72
     0
 73
     1
  93
     3
 10
37000.0
 20
43733.995
 10
35857.0
 20
43162.496
 10
35857.0
 20
44305.495
  97
     1
  330
    160
 75
     0
 76
     1
  98
     1
 10
0.0
 20
0.0
  0
LWPOLYLINE
  5
A2
100
AcDbEntity
  8
DIMENSION-HANDBUCH
100
AcDbPolyline
 90
        2
 70
         0
 43
203.2
 10
24508.0
 20
29000.0
 10
29210.0
 20
29000.0
  0
LWPOLYLINE
  5
A3
100
AcDbEntity
  8
DIMENSION-HANDBUCH
100
AcDbPolyline
 90
        2
 70
         0
 43
203.2
 10
24508.0
 20
11000.0
 10
29210.0
 20
11000.0
  0
LWPOLYLINE
  5
A4
100
AcDbEntity
  8
DIMENSION-HANDBUCH
100
AcDbPolyline
 90
        2
 70
         0
 43
203.2
 10
28702.0
 20
28428.5
 10
28702.0
 20
24208.779
  0
LWPOLYLINE
  5
A5
100
AcDbEntity
  8
DIMENSION-HANDBUCH
100
AcDbPolyline
 90
        2
 70
         0
 43
203.2
 10
28702.0
 20
15791.22
 10
28702.0
 20
11571.5
  0
LWPOLYLINE
  5
A6
100
AcDbEntity
  8
DIMENSION-HANDBUCH
100
AcDbPolyline
 90
        3
 70
         1
 43
0.0
 10
28702.0
 20
29000.0
 10
29273.499
 20
27857.0
 10
28130.5
 20
27857.001
  0
HATCH
  5
A7
100
AcDbEntity
  8
DIMENSION-HANDBUCH
100
AcDbHatch
 10
0.0
 20
0.0
 30
0.0
 210
0.0
 220
0.0
 230
1.0
  2
SOLID
 70
         1
 71
        1
 91
        1
  92
     2
 72
     0
 73
     1
  93
     3
 10
28702.0
 20
29000.0
 10
29273.499
 20
27857.0
 10
28130.5
 20
27857.001
  97
     1
  330
    166
 75
     0
 76
     1
  98
     1
 10
0.0
 20
0.0
  0
LWPOLYLINE
  5
A8
100
AcDbEntity
  8
DIMENSION-HANDBUCH
100
AcDbPolyline
 90
        3
 70
         1
 43
0.0
 10
28702.0
 20
11000.0
 10
28130.5
 20
12143.0
 10
29273.5
 20
12143.0
  0
HATCH
  5
A9
100
AcDbEntity
  8
DIMENSION-HANDBUCH
100
AcDbHatch
 10
0.0
 20
0.0
 30
0.0
 210
0.0
 220
0.0
 230
1.0
  2
SOLID
 70
         1
 71
        1
 91
        1
  92
     2
 72
     0
 73
     1
  93
     3
 10
28702.0
 20
11000.0
 10
28130.5
 20
12143.0
 10
29273.5
 20
12143.0
  97
     1
  330
    168
 75
     0
 76
     1
  98
     1
 10
0.0
 20
0.0
  0
LWPOLYLINE
  5
AA
100
AcDbEntity
  8
DIMENSION-HANDBUCH
100
AcDbPolyline
 90
        2
 70
         0
 43
203.2
 10
11000.0
 20
12492.0
 10
11000.0
 20
7874.0
  0
LWPOLYLINE
  5
AB
100
AcDbEntity
  8
DIMENSION-HANDBUCH
100
AcDbPolyline
 90
        2
 70
         0
 43
203.2
 10
26000.0
 20
12492.0
 10
26000.0
 20
7874.0
  0
LWPOLYLINE
  5
AC
100
AcDbEntity
  8
DIMENSION-HANDBUCH
100
AcDbPolyline
 90
        2
 70
         0
 43
203.2
 10
11571.5
 20
8382.0
 10
14291.22
 20
8382.0
  0
LWPOLYLINE
  5
AD
100
AcDbEntity
  8
DIMENSION-HANDBUCH
100
AcDbPolyline
 90
        2
 70
         0
 43
203.2
 10
22708.78
 20
8382.0
 10
25428.5
 20
8382.0
  0
LWPOLYLINE
  5
AE
100
AcDbEntity
  8
DIMENSION-HANDBUCH
100
AcDbPolyline
 90
        3
 70
         1
 43
0.0
 10
11000.0
 20
8382.0
 10
12143.0
 20
8953.5
 10
12143.0
 20
7810.5
  0
HATCH
  5
AF
100
AcDbEntity
  8
DIMENSION-HANDBUCH
100
AcDbHatch
 10
0.0
 20
0.0
 30
0.0
 210
0.0
 220
0.0
 230
1.0
  2
SOLID
 70
         1
 71
        1
 91
        1
  92
     2
 72
     0
 73
     1
  93
     3
 10
11000.0
 20
8382.0
 10
12143.0
 20
8953.5
 10
12143.0
 20
7810.5
  97
     1
  330
    174
 75
     0
 76
     1
  98
     1
 10
0.0
 20
0.0
  0
LWPOLYLINE
  5
B0
100
AcDbEntity
  8
DIMENSION-HANDBUCH
100
AcDbPolyline
 90
        3
 70
         1
 43
0.0
 10
26000.0
 20
8382.0
 10
24857.0
 20
7810.501
 10
24857.0
 20
8953.5
  0
HATCH
  5
B1
100
AcDbEntity
  8
DIMENSION-HANDBUCH
100
AcDbHatch
 10
0.0
 20
0.0
 30
0.0
 210
0.0
 220
0.0
 230
1.0
  2
SOLID
 70
         1
 71
        1
 91
        1
  92
     2
 72
     0
 73
     1
  93
     3
 10
26000.0
 20
8382.0
 10
24857.0
 20
7810.501
 10
24857.0
 20
8953.5
  97
     1
  330
    176
 75
     0
 76
     1
  98
     1
 10
0.0
 20
0.0
  0
LWPOLYLINE
  5
B2
100
AcDbEntity
  8
DIMENSION-HANDBUCH
100
AcDbPolyline
 90
        2
 70
         0
 43
203.2
 10
762.0
 20
34544.0
 10
4572.0
 20
34544.0
  0
LWPOLYLINE
  5
B3
100
AcDbEntity
  8
DIMENSION-HANDBUCH
100
AcDbPolyline
 90
        2
 70
         0
 43
203.2
 10
4572.0
 20
34544.0
 10
11509.794
 20
28333.9
  0
LWPOLYLINE
  5
B4
100
AcDbEntity
  8
DIMENSION-HANDBUCH
100
AcDbPolyline
 90
        3
 70
         1
 43
0.0
 10
11509.794
 20
28333.9
 10
10276.98
 20
28670.397
 10
11039.304
 20
29522.049
  0
HATCH
  5
B5
100
AcDbEntity
  8
DIMENSION-HANDBUCH
100
AcDbHatch
 10
0.0
 20
0.0
 30
0.0
 210
0.0
 220
0.0
 230
1.0
  2
SOLID
 70
         1
 71
        1
 91
        1
  92
     2
 72
     0
 73
     1
  93
     3
 10
11509.794
 20
28333.9
 10
10276.98
 20
28670.397
 10
11039.304
 20
29522.049
  97
     1
  330
    180
 75
     0
 76
     1
  98
     1
 10
0.0
 20
0.0
  0
LWPOLYLINE
  5
B6
100
AcDbEntity
  8
DIMENSION-HANDBUCH
100
AcDbPolyline
 90
        2
 70
         0
 43
203.2
 10
-23232.0
 20
24817.0
 10
-27940.0
 20
24817.0
  0
LWPOLYLINE
  5
B7
100
AcDbEntity
  8
DIMENSION-HANDBUCH
100
AcDbPolyline
 90
        2
 70
         0
 43
203.2
 10
-23232.0
 20
28317.0
 10
-27940.0
 20
28317.0
  0
LWPOLYLINE
  5
B8
100
AcDbEntity
  8
DIMENSION-HANDBUCH
100
AcDbPolyline
 90
        2
 70
         0
 43
203.2
 10
-27432.0
 20
24245.5
 10
-27432.0
 20
21959.5
  0
LWPOLYLINE
  5
B9
100
AcDbEntity
  8
DIMENSION-HANDBUCH
100
AcDbPolyline
 90
        2
 70
         0
 43
203.2
 10
-27432.0
 20
28888.5
 10
-27432.0
 20
31174.5
  0
LWPOLYLINE
  5
BA
100
AcDbEntity
  8
DIMENSION-HANDBUCH
100
AcDbPolyline
 90
        3
 70
         1
 43
0.0
 10
-27432.0
 20
24817.0
 10
-26860.501
 20
23674.0
 10
-28003.5
 20
23674.001
  0
HATCH
  5
BB
100
AcDbEntity
  8
DIMENSION-HANDBUCH
100
AcDbHatch
 10
0.0
 20
0.0
 30
0.0
 210
0.0
 220
0.0
 230
1.0
  2
SOLID
 70
         1
 71
        1
 91
        1
  92
     2
 72
     0
 73
     1
  93
     3
 10
-27432.0
 20
24817.0
 10
-26860.501
 20
23674.0
 10
-28003.5
 20
23674.001
  97
     1
  330
    186
 75
     0
 76
     1
  98
     1
 10
0.0
 20
0.0
  0
LWPOLYLINE
  5
BC
100
AcDbEntity
  8
DIMENSION-HANDBUCH
100
AcDbPolyline
 90
        3
 70
         1
 43
0.0
 10
-27432.0
 20
28317.0
 10
-28003.5
 20
29460.0
 10
-26860.5
 20
29460.0
  0
HATCH
  5
BD
100
AcDbEntity
  8
DIMENSION-HANDBUCH
100
AcDbHatch
 10
0.0
 20
0.0
 30
0.0
 210
0.0
 220
0.0
 230
1.0
  2
SOLID
 70
         1
 71
        1
 91
        1
  92
     2
 72
     0
 73
     1
  93
     3
 10
-27432.0
 20
28317.0
 10
-28003.5
 20
29460.0
 10
-26860.5
 20
29460.0
  97
     1
  330
    188
 75
     0
 76
     1
  98
     1
 10
0.0
 20
0.0
  0
LWPOLYLINE
  5
BE
100
AcDbEntity
  8
DIMENSION-HANDBUCH
100
AcDbPolyline
 90
        2
 70
         0
 43
203.2
 10
-20724.0
 20
24309.0
 10
-20724.0
 20
21336.0
  0
LWPOLYLINE
  5
BF
100
AcDbEntity
  8
DIMENSION-HANDBUCH
100
AcDbPolyline
 90
        2
 70
         0
 43
203.2
 10
-22724.0
 20
24309.0
 10
-22724.0
 20
21336.0
  0
LWPOLYLINE
  5
C0
100
AcDbEntity
  8
DIMENSION-HANDBUCH
100
AcDbPolyline
 90
        2
 70
         0
 43
203.2
 10
-20152.5
 20
21844.0
 10
-17866.5
 20
21844.0
  0
LWPOLYLINE
  5
C1
100
AcDbEntity
  8
DIMENSION-HANDBUCH
100
AcDbPolyline
 90
        2
 70
         0
 43
203.2
 10
-23295.5
 20
21844.0
 10
-25581.5
 20
21844.0
  0
LWPOLYLINE
  5
C2
100
AcDbEntity
  8
DIMENSION-HANDBUCH
100
AcDbPolyline
 90
        3
 70
         1
 43
0.0
 10
-20724.0
 20
21844.0
 10
-19581.0
 20
22415.5
 10
-19581.0
 20
21272.5
  0
HATCH
  5
C3
100
AcDbEntity
  8
DIMENSION-HANDBUCH
100
AcDbHatch
 10
0.0
 20
0.0
 30
0.0
 210
0.0
 220
0.0
 230
1.0
  2
SOLID
 70
         1
 71
        1
 91
        1
  92
     2
 72
     0
 73
     1
  93
     3
 10
-20724.0
 20
21844.0
 10
-19581.0
 20
22415.5
 10
-19581.0
 20
21272.5
  97
     1
  330
    194
 75
     0
 76
     1
  98
     1
 10
0.0
 20
0.0
  0
LWPOLYLINE
  5
C4
100
AcDbEntity
  8
DIMENSION-HANDBUCH
100
AcDbPolyline
 90
        3
 70
         1
 43
0.0
 10
-22724.0
 20
21844.0
 10
-23867.0
 20
21272.501
 10
-23867.0
 20
22415.5
  0
HATCH
  5
C5
100
AcDbEntity
  8
DIMENSION-HANDBUCH
100
AcDbHatch
 10
0.0
 20
0.0
 30
0.0
 210
0.0
 220
0.0
 230
1.0
  2
SOLID
 70
         1
 71
        1
 91
        1
  92
     2
 72
     0
 73
     1
  93
     3
 10
-22724.0
 20
21844.0
 10
-23867.0
 20
21272.501
 10
-23867.0
 20
22415.5
  97
     1
  330
    196
 75
     0
 76
     1
  98
     1
 10
0.0
 20
0.0
  0
LWPOLYLINE
  5
C6
100
AcDbEntity
  8
DIMENSION-HANDBUCH
100
AcDbPolyline
 90
        2
 70
         0
 43
203.2
 10
-18716.0
 20
28317.0
 10
-14478.0
 20
28317.0
  0
LWPOLYLINE
  5
C7
100
AcDbEntity
  8
DIMENSION-HANDBUCH
100
AcDbPolyline
 90
        2
 70
         0
 43
203.2
 10
-18716.0
 20
26317.0
 10
-14478.0
 20
26317.0
  0
LWPOLYLINE
  5
C8
100
AcDbEntity
  8
DIMENSION-HANDBUCH
100
AcDbPolyline
 90
        2
 70
         0
 43
203.2
 10
-14986.0
 20
28888.5
 10
-14986.0
 20
31174.5
  0
LWPOLYLINE
  5
C9
100
AcDbEntity
  8
DIMENSION-HANDBUCH
100
AcDbPolyline
 90
        2
 70
         0
 43
203.2
 10
-14986.0
 20
25745.5
 10
-14986.0
 20
23459.5
  0
LWPOLYLINE
  5
CA
100
AcDbEntity
  8
DIMENSION-HANDBUCH
100
AcDbPolyline
 90
        3
 70
         1
 43
0.0
 10
-14986.0
 20
28317.0
 10
-15557.5
 20
29460.0
 10
-14414.5
 20
29460.0
  0
HATCH
  5
CB
100
AcDbEntity
  8
DIMENSION-HANDBUCH
100
AcDbHatch
 10
0.0
 20
0.0
 30
0.0
 210
0.0
 220
0.0
 230
1.0
  2
SOLID
 70
         1
 71
        1
 91
        1
  92
     2
 72
     0
 73
     1
  93
     3
 10
-14986.0
 20
28317.0
 10
-15557.5
 20
29460.0
 10
-14414.5
 20
29460.0
  97
     1
  330
    202
 75
     0
 76
     1
  98
     1
 10
0.0
 20
0.0
  0
LWPOLYLINE
  5
CC
100
AcDbEntity
  8
DIMENSION-HANDBUCH
100
AcDbPolyline
 90
        3
 70
         1
 43
0.0
 10
-14986.0
 20
26317.0
 10
-14414.501
 20
25174.0
 10
-15557.5
 20
25174.001
  0
HATCH
  5
CD
100
AcDbEntity
  8
DIMENSION-HANDBUCH
100
AcDbHatch
 10
0.0
 20
0.0
 30
0.0
 210
0.0
 220
0.0
 230
1.0
  2
SOLID
 70
         1
 71
        1
 91
        1
  92
     2
 72
     0
 73
     1
  93
     3
 10
-14986.0
 20
26317.0
 10
-14414.501
 20
25174.0
 10
-15557.5
 20
25174.001
  97
     1
  330
    204
 75
     0
 76
     1
  98
     1
 10
0.0
 20
0.0
  0
LWPOLYLINE
  5
CE
100
AcDbEntity
  8
DIMENSION-HANDBUCH
100
AcDbPolyline
 90
        2
 70
         0
 43
203.2
 10
-22724.0
 20
28825.0
 10
-22724.0
 20
33274.0
  0
LWPOLYLINE
  5
CF
100
AcDbEntity
  8
DIMENSION-HANDBUCH
100
AcDbPolyline
 90
        2
 70
         0
 43
203.2
 10
-19224.0
 20
28825.0
 10
-19224.0
 20
33274.0
  0
LWPOLYLINE
  5
D0
100
AcDbEntity
  8
DIMENSION-HANDBUCH
100
AcDbPolyline
 90
        2
 70
         0
 43
203.2
 10
-23295.5
 20
32766.0
 10
-25581.5
 20
32766.0
  0
LWPOLYLINE
  5
D1
100
AcDbEntity
  8
DIMENSION-HANDBUCH
100
AcDbPolyline
 90
        2
 70
         0
 43
203.2
 10
-18652.5
 20
32766.0
 10
-16366.5
 20
32766.0
  0
LWPOLYLINE
  5
D2
100
AcDbEntity
  8
DIMENSION-HANDBUCH
100
AcDbPolyline
 90
        3
 70
         1
 43
0.0
 10
-22724.0
 20
32766.0
 10
-23867.0
 20
32194.501
 10
-23867.0
 20
33337.5
  0
HATCH
  5
D3
100
AcDbEntity
  8
DIMENSION-HANDBUCH
100
AcDbHatch
 10
0.0
 20
0.0
 30
0.0
 210
0.0
 220
0.0
 230
1.0
  2
SOLID
 70
         1
 71
        1
 91
        1
  92
     2
 72
     0
 73
     1
  93
     3
 10
-22724.0
 20
32766.0
 10
-23867.0
 20
32194.501
 10
-23867.0
 20
33337.5
  97
     1
  330
    210
 75
     0
 76
     1
  98
     1
 10
0.0
 20
0.0
  0
LWPOLYLINE
  5
D4
100
AcDbEntity
  8
DIMENSION-HANDBUCH
100
AcDbPolyline
 90
        3
 70
         1
 43
0.0
 10
-19224.0
 20
32766.0
 10
-18081.0
 20
33337.5
 10
-18081.0
 20
32194.5
  0
HATCH
  5
D5
100
AcDbEntity
  8
DIMENSION-HANDBUCH
100
AcDbHatch
 10
0.0
 20
0.0
 30
0.0
 210
0.0
 220
0.0
 230
1.0
  2
SOLID
 70
         1
 71
        1
 91
        1
  92
     2
 72
     0
 73
     1
  93
     3
 10
-19224.0
 20
32766.0
 10
-18081.0
 20
33337.5
 10
-18081.0
 20
32194.5
  97
     1
  330
    212
 75
     0
 76
     1
  98
     1
 10
0.0
 20
0.0
  0
LWPOLYLINE
  5
D6
100
AcDbEntity
  8
DIMENSION-HANDBUCH
100
AcDbPolyline
 90
        2
 70
         0
 43
203.2
 10
0.0
 20
40508.0
 10
0.0
 20
49276.0
  0
LWPOLYLINE
  5
D7
100
AcDbEntity
  8
DIMENSION-HANDBUCH
100
AcDbPolyline
 90
        2
 70
         0
 43
203.2
 10
37000.0
 20
40508.0
 10
37000.0
 20
49276.0
  0
LWPOLYLINE
  5
D8
100
AcDbEntity
  8
DIMENSION-HANDBUCH
100
AcDbPolyline
 90
        2
 70
         0
 43
203.2
 10
571.5
 20
48768.0
 10
14291.22
 20
48768.0
  0
LWPOLYLINE
  5
D9
100
AcDbEntity
  8
DIMENSION-HANDBUCH
100
AcDbPolyline
 90
        2
 70
         0
 43
203.2
 10
22708.78
 20
48768.0
 10
36428.5
 20
48768.0
  0
LWPOLYLINE
  5
DA
100
AcDbEntity
  8
DIMENSION-HANDBUCH
100
AcDbPolyline
 90
        3
 70
         1
 43
0.0
 10
0.0
 20
48768.0
 10
1143.0
 20
49339.5
 10
1143.0
 20
48196.5
  0
HATCH
  5
DB
100
AcDbEntity
  8
DIMENSION-HANDBUCH
100
AcDbHatch
 10
0.0
 20
0.0
 30
0.0
 210
0.0
 220
0.0
 230
1.0
  2
SOLID
 70
         1
 71
        1
 91
        1
  92
     2
 72
     0
 73
     1
  93
     3
 10
0.0
 20
48768.0
 10
1143.0
 20
49339.5
 10
1143.0
 20
48196.5
  97
     1
  330
    218
 75
     0
 76
     1
  98
     1
 10
0.0
 20
0.0
  0
LWPOLYLINE
  5
DC
100
AcDbEntity
  8
DIMENSION-HANDBUCH
100
AcDbPolyline
 90
        3
 70
         1
 43
0.0
 10
37000.0
 20
48768.0
 10
35857.0
 20
48196.501
 10
35857.0
 20
49339.5
  0
HATCH
  5
DD
100
AcDbEntity
  8
DIMENSION-HANDBUCH
100
AcDbHatch
 10
0.0
 20
0.0
 30
0.0
 210
0.0
 220
0.0
 230
1.0
  2
SOLID
 70
         1
 71
        1
 91
        1
  92
     2
 72
     0
 73
     1
  93
     3
 10
37000.0
 20
48768.0
 10
35857.0
 20
48196.501
 10
35857.0
 20
49339.5
  97
     1
  330
    220
 75
     0
 76
     1
  98
     1
 10
0.0
 20
0.0
  0
LWPOLYLINE
  5
DE
100
AcDbEntity
  8
DIMENSION-HANDBUCH
100
AcDbPolyline
 90
        2
 70
         0
 43
203.2
 10
45120.0
 20
-9307.0
 10
45120.0
 20
-6350.0
  0
LWPOLYLINE
  5
DF
100
AcDbEntity
  8
DIMENSION-HANDBUCH
100
AcDbPolyline
 90
        2
 70
         0
 43
203.2
 10
47120.0
 20
-9307.0
 10
47120.0
 20
-6350.0
  0
LWPOLYLINE
  5
E0
100
AcDbEntity
  8
DIMENSION-HANDBUCH
100
AcDbPolyline
 90
        2
 70
         0
 43
203.2
 10
44548.5
 20
-6858.0
 10
42262.5
 20
-6858.0
  0
LWPOLYLINE
  5
E1
100
AcDbEntity
  8
DIMENSION-HANDBUCH
100
AcDbPolyline
 90
        2
 70
         0
 43
203.2
 10
47691.5
 20
-6858.0
 10
49977.5
 20
-6858.0
  0
LWPOLYLINE
  5
E2
100
AcDbEntity
  8
DIMENSION-HANDBUCH
100
AcDbPolyline
 90
        3
 70
         1
 43
0.0
 10
45120.0
 20
-6858.0
 10
43977.0
 20
-7429.499
 10
43977.0
 20
-6286.5
  0
HATCH
  5
E3
100
AcDbEntity
  8
DIMENSION-HANDBUCH
100
AcDbHatch
 10
0.0
 20
0.0
 30
0.0
 210
0.0
 220
0.0
 230
1.0
  2
SOLID
 70
         1
 71
        1
 91
        1
  92
     2
 72
     0
 73
     1
  93
     3
 10
45120.0
 20
-6858.0
 10
43977.0
 20
-7429.499
 10
43977.0
 20
-6286.5
  97
     1
  330
    226
 75
     0
 76
     1
  98
     1
 10
0.0
 20
0.0
  0
LWPOLYLINE
  5
E4
100
AcDbEntity
  8
DIMENSION-HANDBUCH
100
AcDbPolyline
 90
        3
 70
         1
 43
0.0
 10
47120.0
 20
-6858.0
 10
48263.0
 20
-6286.5
 10
48263.0
 20
-7429.5
  0
HATCH
  5
E5
100
AcDbEntity
  8
DIMENSION-HANDBUCH
100
AcDbHatch
 10
0.0
 20
0.0
 30
0.0
 210
0.0
 220
0.0
 230
1.0
  2
SOLID
 70
         1
 71
        1
 91
        1
  92
     2
 72
     0
 73
     1
  93
     3
 10
47120.0
 20
-6858.0
 10
48263.0
 20
-6286.5
 10
48263.0
 20
-7429.5
  97
     1
  330
    228
 75
     0
 76
     1
  98
     1
 10
0.0
 20
0.0
  0
LWPOLYLINE
  5
E6
100
AcDbEntity
  8
DIMENSION-HANDBUCH
100
AcDbPolyline
 90
        2
 70
         0
 43
203.2
 10
43112.0
 20
-11315.0
 10
40166.663
 20
-11315.0
  0
LWPOLYLINE
  5
E7
100
AcDbEntity
  8
DIMENSION-HANDBUCH
100
AcDbPolyline
 90
        2
 70
         0
 43
203.2
 10
43112.0
 20
-13315.0
 10
40166.663
 20
-13315.0
  0
LWPOLYLINE
  5
E8
100
AcDbEntity
  8
DIMENSION-HANDBUCH
100
AcDbPolyline
 90
        2
 70
         0
 43
203.2
 10
40674.663
 20
-10743.5
 10
40674.663
 20
-8457.5
  0
LWPOLYLINE
  5
E9
100
AcDbEntity
  8
DIMENSION-HANDBUCH
100
AcDbPolyline
 90
        2
 70
         0
 43
203.2
 10
40674.663
 20
-13886.5
 10
40674.663
 20
-16172.5
  0
LWPOLYLINE
  5
EA
100
AcDbEntity
  8
DIMENSION-HANDBUCH
100
AcDbPolyline
 90
        3
 70
         1
 43
0.0
 10
40674.663
 20
-11315.0
 10
40103.163
 20
-10172.0
 10
41246.163
 20
-10172.0
  0
HATCH
  5
EB
100
AcDbEntity
  8
DIMENSION-HANDBUCH
100
AcDbHatch
 10
0.0
 20
0.0
 30
0.0
 210
0.0
 220
0.0
 230
1.0
  2
SOLID
 70
         1
 71
        1
 91
        1
  92
     2
 72
     0
 73
     1
  93
     3
 10
40674.663
 20
-11315.0
 10
40103.163
 20
-10172.0
 10
41246.163
 20
-10172.0
  97
     1
  330
    234
 75
     0
 76
     1
  98
     1
 10
0.0
 20
0.0
  0
LWPOLYLINE
  5
EC
100
AcDbEntity
  8
DIMENSION-HANDBUCH
100
AcDbPolyline
 90
        3
 70
         1
 43
0.0
 10
40674.663
 20
-13315.0
 10
41246.162
 20
-14458.0
 10
40103.163
 20
-14457.999
  0
HATCH
  5
ED
100
AcDbEntity
  8
DIMENSION-HANDBUCH
100
AcDbHatch
 10
0.0
 20
0.0
 30
0.0
 210
0.0
 220
0.0
 230
1.0
  2
SOLID
 70
         1
 71
        1
 91
        1
  92
     2
 72
     0
 73
     1
  93
     3
 10
40674.663
 20
-13315.0
 10
41246.162
 20
-14458.0
 10
40103.163
 20
-14457.999
  97
     1
  330
    236
 75
     0
 76
     1
  98
     1
 10
0.0
 20
0.0
  0
LWPOLYLINE
  5
EE
100
AcDbEntity
  8
DIMENSION-HANDBUCH
100
AcDbPolyline
 90
        2
 70
         0
 43
203.2
 10
47628.0
 20
-9815.0
 10
52832.0
 20
-9815.0
  0
LWPOLYLINE
  5
EF
100
AcDbEntity
  8
DIMENSION-HANDBUCH
100
AcDbPolyline
 90
        2
 70
         0
 43
203.2
 10
47628.0
 20
-13315.0
 10
52832.0
 20
-13315.0
  0
LWPOLYLINE
  5
F0
100
AcDbEntity
  8
DIMENSION-HANDBUCH
100
AcDbPolyline
 90
        2
 70
         0
 43
203.2
 10
52324.0
 20
-9243.5
 10
52324.0
 20
-6957.5
  0
LWPOLYLINE
  5
F1
100
AcDbEntity
  8
DIMENSION-HANDBUCH
100
AcDbPolyline
 90
        2
 70
         0
 43
203.2
 10
52324.0
 20
-13886.5
 10
52324.0
 20
-16172.5
  0
LWPOLYLINE
  5
F2
100
AcDbEntity
  8
DIMENSION-HANDBUCH
100
AcDbPolyline
 90
        3
 70
         1
 43
0.0
 10
52324.0
 20
-9815.0
 10
51752.5
 20
-8672.0
 10
52895.5
 20
-8672.0
  0
HATCH
  5
F3
100
AcDbEntity
  8
DIMENSION-HANDBUCH
100
AcDbHatch
 10
0.0
 20
0.0
 30
0.0
 210
0.0
 220
0.0
 230
1.0
  2
SOLID
 70
         1
 71
        1
 91
        1
  92
     2
 72
     0
 73
     1
  93
     3
 10
52324.0
 20
-9815.0
 10
51752.5
 20
-8672.0
 10
52895.5
 20
-8672.0
  97
     1
  330
    242
 75
     0
 76
     1
  98
     1
 10
0.0
 20
0.0
  0
LWPOLYLINE
  5
F4
100
AcDbEntity
  8
DIMENSION-HANDBUCH
100
AcDbPolyline
 90
        3
 70
         1
 43
0.0
 10
52324.0
 20
-13315.0
 10
52895.499
 20
-14458.0
 10
51752.5
 20
-14457.999
  0
HATCH
  5
F5
100
AcDbEntity
  8
DIMENSION-HANDBUCH
100
AcDbHatch
 10
0.0
 20
0.0
 30
0.0
 210
0.0
 220
0.0
 230
1.0
  2
SOLID
 70
         1
 71
        1
 91
        1
  92
     2
 72
     0
 73
     1
  93
     3
 10
52324.0
 20
-13315.0
 10
52895.499
 20
-14458.0
 10
51752.5
 20
-14457.999
  97
     1
  330
    244
 75
     0
 76
     1
  98
     1
 10
0.0
 20
0.0
  0
LWPOLYLINE
  5
F6
100
AcDbEntity
  8
DIMENSION-HANDBUCH
100
AcDbPolyline
 90
        2
 70
         0
 43
203.2
 10
43620.0
 20
-13823.0
 10
43620.0
 20
-18011.653
  0
LWPOLYLINE
  5
F7
100
AcDbEntity
  8
DIMENSION-HANDBUCH
100
AcDbPolyline
 90
        2
 70
         0
 43
203.2
 10
47120.0
 20
-13823.0
 10
47120.0
 20
-18011.653
  0
LWPOLYLINE
  5
F8
100
AcDbEntity
  8
DIMENSION-HANDBUCH
100
AcDbPolyline
 90
        2
 70
         0
 43
203.2
 10
43048.5
 20
-17503.653
 10
40762.5
 20
-17503.653
  0
LWPOLYLINE
  5
F9
100
AcDbEntity
  8
DIMENSION-HANDBUCH
100
AcDbPolyline
 90
        2
 70
         0
 43
203.2
 10
47691.5
 20
-17503.653
 10
49977.5
 20
-17503.653
  0
LWPOLYLINE
  5
FA
100
AcDbEntity
  8
DIMENSION-HANDBUCH
100
AcDbPolyline
 90
        3
 70
         1
 43
0.0
 10
43620.0
 20
-17503.653
 10
42477.0
 20
-18075.152
 10
42477.0
 20
-16932.153
  0
HATCH
  5
FB
100
AcDbEntity
  8
DIMENSION-HANDBUCH
100
AcDbHatch
 10
0.0
 20
0.0
 30
0.0
 210
0.0
 220
0.0
 230
1.0
  2
SOLID
 70
         1
 71
        1
 91
        1
  92
     2
 72
     0
 73
     1
  93
     3
 10
43620.0
 20
-17503.653
 10
42477.0
 20
-18075.152
 10
42477.0
 20
-16932.153
  97
     1
  330
    250
 75
     0
 76
     1
  98
     1
 10
0.0
 20
0.0
  0
LWPOLYLINE
  5
FC
100
AcDbEntity
  8
DIMENSION-HANDBUCH
100
AcDbPolyline
 90
        3
 70
         1
 43
0.0
 10
47120.0
 20
-17503.653
 10
48263.0
 20
-16932.153
 10
48263.0
 20
-18075.153
  0
HATCH
  5
FD
100
AcDbEntity
  8
DIMENSION-HANDBUCH
100
AcDbHatch
 10
0.0
 20
0.0
 30
0.0
 210
0.0
 220
0.0
 230
1.0
  2
SOLID
 70
         1
 71
        1
 91
        1
  92
     2
 72
     0
 73
     1
  93
     3
 10
47120.0
 20
-17503.653
 10
48263.0
 20
-16932.153
 10
48263.0
 20
-18075.153
  97
     1
  330
    252
 75
     0
 76
     1
  98
     1
 10
0.0
 20
0.0
  0
CIRCLE
  5
FE
100
AcDbEntity
  8
PART_PADS_SMD_TOP
100
AcDbCircle
 10
29295.0
 20
7300.0
 30
0.0
 40
400.0
  0
CIRCLE
  5
FF
100
AcDbEntity
  8
PART_PADS_SMD_TOP
100
AcDbCircle
 10
28025.0
 20
7300.0
 30
0.0
 40
400.0
  0
CIRCLE
  5
100
100
AcDbEntity
  8
PART_PADS_SMD_TOP
100
AcDbCircle
 10
28660.0
 20
8570.0
 30
0.0
 40
400.0
  0
CIRCLE
  5
101
100
AcDbEntity
  8
PART_PADS_SMD_TOP
100
AcDbCircle
 10
29295.0
 20
9840.0
 30
0.0
 40
400.0
  0
CIRCLE
  5
102
100
AcDbEntity
  8
PART_PADS_SMD_TOP
100
AcDbCircle
 10
28025.0
 20
9840.0
 30
0.0
 40
400.0
  0
CIRCLE
  5
103
100
AcDbEntity
  8
PART_PADS_SMD_TOP
100
AcDbCircle
 10
26755.0
 20
7300.0
 30
0.0
 40
400.0
  0
CIRCLE
  5
104
100
AcDbEntity
  8
PART_PADS_SMD_TOP
100
AcDbCircle
 10
25485.0
 20
7300.0
 30
0.0
 40
400.0
  0
CIRCLE
  5
105
100
AcDbEntity
  8
PART_PADS_SMD_TOP
100
AcDbCircle
 10
26120.0
 20
8570.0
 30
0.0
 40
400.0
  0
CIRCLE
  5
106
100
AcDbEntity
  8
PART_PADS_SMD_TOP
100
AcDbCircle
 10
26755.0
 20
9840.0
 30
0.0
 40
400.0
  0
CIRCLE
  5
107
100
AcDbEntity
  8
PART_PADS_SMD_TOP
100
AcDbCircle
 10
25485.0
 20
9840.0
 30
0.0
 40
400.0
  0
CIRCLE
  5
108
100
AcDbEntity
  8
PART_PADS_SMD_TOP
100
AcDbCircle
 10
24215.0
 20
7300.0
 30
0.0
 40
400.0
  0
CIRCLE
  5
109
100
AcDbEntity
  8
PART_PADS_SMD_TOP
100
AcDbCircle
 10
22945.0
 20
7300.0
 30
0.0
 40
400.0
  0
CIRCLE
  5
10A
100
AcDbEntity
  8
PART_PADS_SMD_TOP
100
AcDbCircle
 10
23580.0
 20
8570.0
 30
0.0
 40
400.0
  0
CIRCLE
  5
10B
100
AcDbEntity
  8
PART_PADS_SMD_TOP
100
AcDbCircle
 10
24215.0
 20
9840.0
 30
0.0
 40
400.0
  0
CIRCLE
  5
10C
100
AcDbEntity
  8
PART_PADS_SMD_TOP
100
AcDbCircle
 10
22945.0
 20
9840.0
 30
0.0
 40
400.0
  0
CIRCLE
  5
10D
100
AcDbEntity
  8
PART_PADS_SMD_TOP
100
AcDbCircle
 10
21675.0
 20
7300.0
 30
0.0
 40
400.0
  0
CIRCLE
  5
10E
100
AcDbEntity
  8
PART_PADS_SMD_TOP
100
AcDbCircle
 10
20405.0
 20
7300.0
 30
0.0
 40
400.0
  0
CIRCLE
  5
10F
100
AcDbEntity
  8
PART_PADS_SMD_TOP
100
AcDbCircle
 10
21040.0
 20
8570.0
 30
0.0
 40
400.0
  0
CIRCLE
  5
110
100
AcDbEntity
  8
PART_PADS_SMD_TOP
100
AcDbCircle
 10
21675.0
 20
9840.0
 30
0.0
 40
400.0
  0
CIRCLE
  5
111
100
AcDbEntity
  8
PART_PADS_SMD_TOP
100
AcDbCircle
 10
20405.0
 20
9840.0
 30
0.0
 40
400.0
  0
CIRCLE
  5
112
100
AcDbEntity
  8
PART_PADS_SMD_TOP
100
AcDbCircle
 10
19135.0
 20
7300.0
 30
0.0
 40
400.0
  0
CIRCLE
  5
113
100
AcDbEntity
  8
PART_PADS_SMD_TOP
100
AcDbCircle
 10
17865.0
 20
7300.0
 30
0.0
 40
400.0
  0
CIRCLE
  5
114
100
AcDbEntity
  8
PART_PADS_SMD_TOP
100
AcDbCircle
 10
18500.0
 20
8570.0
 30
0.0
 40
400.0
  0
CIRCLE
  5
115
100
AcDbEntity
  8
PART_PADS_SMD_TOP
100
AcDbCircle
 10
19135.0
 20
9840.0
 30
0.0
 40
400.0
  0
CIRCLE
  5
116
100
AcDbEntity
  8
PART_PADS_SMD_TOP
100
AcDbCircle
 10
17865.0
 20
9840.0
 30
0.0
 40
400.0
  0
CIRCLE
  5
117
100
AcDbEntity
  8
PART_PADS_SMD_TOP
100
AcDbCircle
 10
16595.0
 20
7300.0
 30
0.0
 40
400.0
  0
CIRCLE
  5
118
100
AcDbEntity
  8
PART_PADS_SMD_TOP
100
AcDbCircle
 10
15325.0
 20
7300.0
 30
0.0
 40
400.0
  0
CIRCLE
  5
119
100
AcDbEntity
  8
PART_PADS_SMD_TOP
100
AcDbCircle
 10
15960.0
 20
8570.0
 30
0.0
 40
400.0
  0
CIRCLE
  5
11A
100
AcDbEntity
  8
PART_PADS_SMD_TOP
100
AcDbCircle
 10
16595.0
 20
9840.0
 30
0.0
 40
400.0
  0
CIRCLE
  5
11B
100
AcDbEntity
  8
PART_PADS_SMD_TOP
100
AcDbCircle
 10
15325.0
 20
9840.0
 30
0.0
 40
400.0
  0
CIRCLE
  5
11C
100
AcDbEntity
  8
PART_PADS_SMD_TOP
100
AcDbCircle
 10
14055.0
 20
7300.0
 30
0.0
 40
400.0
  0
CIRCLE
  5
11D
100
AcDbEntity
  8
PART_PADS_SMD_TOP
100
AcDbCircle
 10
12785.0
 20
7300.0
 30
0.0
 40
400.0
  0
CIRCLE
  5
11E
100
AcDbEntity
  8
PART_PADS_SMD_TOP
100
AcDbCircle
 10
13420.0
 20
8570.0
 30
0.0
 40
400.0
  0
CIRCLE
  5
11F
100
AcDbEntity
  8
PART_PADS_SMD_TOP
100
AcDbCircle
 10
14055.0
 20
9840.0
 30
0.0
 40
400.0
  0
CIRCLE
  5
120
100
AcDbEntity
  8
PART_PADS_SMD_TOP
100
AcDbCircle
 10
12785.0
 20
9840.0
 30
0.0
 40
400.0
  0
CIRCLE
  5
121
100
AcDbEntity
  8
PART_PADS_SMD_TOP
100
AcDbCircle
 10
11515.0
 20
7300.0
 30
0.0
 40
400.0
  0
CIRCLE
  5
122
100
AcDbEntity
  8
PART_PADS_SMD_TOP
100
AcDbCircle
 10
10245.0
 20
7300.0
 30
0.0
 40
400.0
  0
CIRCLE
  5
123
100
AcDbEntity
  8
PART_PADS_SMD_TOP
100
AcDbCircle
 10
10880.0
 20
8570.0
 30
0.0
 40
400.0
  0
CIRCLE
  5
124
100
AcDbEntity
  8
PART_PADS_SMD_TOP
100
AcDbCircle
 10
11515.0
 20
9840.0
 30
0.0
 40
400.0
  0
CIRCLE
  5
125
100
AcDbEntity
  8
PART_PADS_SMD_TOP
100
AcDbCircle
 10
10245.0
 20
9840.0
 30
0.0
 40
400.0
  0
CIRCLE
  5
126
100
AcDbEntity
  8
PART_PADS_SMD_TOP
100
AcDbCircle
 10
8975.0
 20
7300.0
 30
0.0
 40
400.0
  0
CIRCLE
  5
127
100
AcDbEntity
  8
PART_PADS_SMD_TOP
100
AcDbCircle
 10
7705.0
 20
7300.0
 30
0.0
 40
400.0
  0
CIRCLE
  5
128
100
AcDbEntity
  8
PART_PADS_SMD_TOP
100
AcDbCircle
 10
8340.0
 20
8570.0
 30
0.0
 40
400.0
  0
CIRCLE
  5
129
100
AcDbEntity
  8
PART_PADS_SMD_TOP
100
AcDbCircle
 10
8975.0
 20
9840.0
 30
0.0
 40
400.0
  0
CIRCLE
  5
12A
100
AcDbEntity
  8
PART_PADS_SMD_TOP
100
AcDbCircle
 10
7705.0
 20
9840.0
 30
0.0
 40
400.0
  0
CIRCLE
  5
12B
100
AcDbEntity
  8
PART_PADS_SMD_TOP
100
AcDbCircle
 10
8340.0
 20
11110.0
 30
0.0
 40
400.0
  0
CIRCLE
  5
12C
100
AcDbEntity
  8
PART_PADS_SMD_TOP
100
AcDbCircle
 10
7705.0
 20
12380.0
 30
0.0
 40
400.0
  0
CIRCLE
  5
12D
100
AcDbEntity
  8
PART_PADS_SMD_TOP
100
AcDbCircle
 10
8975.0
 20
12380.0
 30
0.0
 40
400.0
  0
CIRCLE
  5
12E
100
AcDbEntity
  8
PART_PADS_SMD_TOP
100
AcDbCircle
 10
9610.0
 20
11110.0
 30
0.0
 40
400.0
  0
CIRCLE
  5
12F
100
AcDbEntity
  8
PART_PADS_SMD_TOP
100
AcDbCircle
 10
10245.0
 20
12380.0
 30
0.0
 40
400.0
  0
CIRCLE
  5
130
100
AcDbEntity
  8
PART_PADS_SMD_TOP
100
AcDbCircle
 10
8340.0
 20
13650.0
 30
0.0
 40
400.0
  0
CIRCLE
  5
131
100
AcDbEntity
  8
PART_PADS_SMD_TOP
100
AcDbCircle
 10
7705.0
 20
14920.0
 30
0.0
 40
400.0
  0
CIRCLE
  5
132
100
AcDbEntity
  8
PART_PADS_SMD_TOP
100
AcDbCircle
 10
8975.0
 20
14920.0
 30
0.0
 40
400.0
  0
CIRCLE
  5
133
100
AcDbEntity
  8
PART_PADS_SMD_TOP
100
AcDbCircle
 10
9610.0
 20
13650.0
 30
0.0
 40
400.0
  0
CIRCLE
  5
134
100
AcDbEntity
  8
PART_PADS_SMD_TOP
100
AcDbCircle
 10
10245.0
 20
14920.0
 30
0.0
 40
400.0
  0
CIRCLE
  5
135
100
AcDbEntity
  8
PART_PADS_SMD_TOP
100
AcDbCircle
 10
8340.0
 20
16190.0
 30
0.0
 40
400.0
  0
CIRCLE
  5
136
100
AcDbEntity
  8
PART_PADS_SMD_TOP
100
AcDbCircle
 10
7705.0
 20
17460.0
 30
0.0
 40
400.0
  0
CIRCLE
  5
137
100
AcDbEntity
  8
PART_PADS_SMD_TOP
100
AcDbCircle
 10
8975.0
 20
17460.0
 30
0.0
 40
400.0
  0
CIRCLE
  5
138
100
AcDbEntity
  8
PART_PADS_SMD_TOP
100
AcDbCircle
 10
9610.0
 20
16190.0
 30
0.0
 40
400.0
  0
CIRCLE
  5
139
100
AcDbEntity
  8
PART_PADS_SMD_TOP
100
AcDbCircle
 10
10245.0
 20
17460.0
 30
0.0
 40
400.0
  0
CIRCLE
  5
13A
100
AcDbEntity
  8
PART_PADS_SMD_TOP
100
AcDbCircle
 10
8340.0
 20
18730.0
 30
0.0
 40
400.0
  0
CIRCLE
  5
13B
100
AcDbEntity
  8
PART_PADS_SMD_TOP
100
AcDbCircle
 10
7705.0
 20
20000.0
 30
0.0
 40
400.0
  0
CIRCLE
  5
13C
100
AcDbEntity
  8
PART_PADS_SMD_TOP
100
AcDbCircle
 10
8975.0
 20
20000.0
 30
0.0
 40
400.0
  0
CIRCLE
  5
13D
100
AcDbEntity
  8
PART_PADS_SMD_TOP
100
AcDbCircle
 10
9610.0
 20
18730.0
 30
0.0
 40
400.0
  0
CIRCLE
  5
13E
100
AcDbEntity
  8
PART_PADS_SMD_TOP
100
AcDbCircle
 10
10245.0
 20
20000.0
 30
0.0
 40
400.0
  0
CIRCLE
  5
13F
100
AcDbEntity
  8
PART_PADS_SMD_TOP
100
AcDbCircle
 10
8340.0
 20
21270.0
 30
0.0
 40
400.0
  0
CIRCLE
  5
140
100
AcDbEntity
  8
PART_PADS_SMD_TOP
100
AcDbCircle
 10
7705.0
 20
22540.0
 30
0.0
 40
400.0
  0
CIRCLE
  5
141
100
AcDbEntity
  8
PART_PADS_SMD_TOP
100
AcDbCircle
 10
8975.0
 20
22540.0
 30
0.0
 40
400.0
  0
CIRCLE
  5
142
100
AcDbEntity
  8
PART_PADS_SMD_TOP
100
AcDbCircle
 10
9610.0
 20
21270.0
 30
0.0
 40
400.0
  0
CIRCLE
  5
143
100
AcDbEntity
  8
PART_PADS_SMD_TOP
100
AcDbCircle
 10
10245.0
 20
22540.0
 30
0.0
 40
400.0
  0
CIRCLE
  5
144
100
AcDbEntity
  8
PART_PADS_SMD_TOP
100
AcDbCircle
 10
8340.0
 20
23810.0
 30
0.0
 40
400.0
  0
CIRCLE
  5
145
100
AcDbEntity
  8
PART_PADS_SMD_TOP
100
AcDbCircle
 10
7705.0
 20
25080.0
 30
0.0
 40
400.0
  0
CIRCLE
  5
146
100
AcDbEntity
  8
PART_PADS_SMD_TOP
100
AcDbCircle
 10
8975.0
 20
25080.0
 30
0.0
 40
400.0
  0
CIRCLE
  5
147
100
AcDbEntity
  8
PART_PADS_SMD_TOP
100
AcDbCircle
 10
9610.0
 20
23810.0
 30
0.0
 40
400.0
  0
CIRCLE
  5
148
100
AcDbEntity
  8
PART_PADS_SMD_TOP
100
AcDbCircle
 10
10245.0
 20
25080.0
 30
0.0
 40
400.0
  0
CIRCLE
  5
149
100
AcDbEntity
  8
PART_PADS_SMD_TOP
100
AcDbCircle
 10
8340.0
 20
26350.0
 30
0.0
 40
400.0
  0
CIRCLE
  5
14A
100
AcDbEntity
  8
PART_PADS_SMD_TOP
100
AcDbCircle
 10
7705.0
 20
27620.0
 30
0.0
 40
400.0
  0
CIRCLE
  5
14B
100
AcDbEntity
  8
PART_PADS_SMD_TOP
100
AcDbCircle
 10
8975.0
 20
27620.0
 30
0.0
 40
400.0
  0
CIRCLE
  5
14C
100
AcDbEntity
  8
PART_PADS_SMD_TOP
100
AcDbCircle
 10
9610.0
 20
26350.0
 30
0.0
 40
400.0
  0
CIRCLE
  5
14D
100
AcDbEntity
  8
PART_PADS_SMD_TOP
100
AcDbCircle
 10
10245.0
 20
27620.0
 30
0.0
 40
400.0
  0
CIRCLE
  5
14E
100
AcDbEntity
  8
PART_PADS_SMD_TOP
100
AcDbCircle
 10
8340.0
 20
28890.0
 30
0.0
 40
400.0
  0
CIRCLE
  5
14F
100
AcDbEntity
  8
PART_PADS_SMD_TOP
100
AcDbCircle
 10
9610.0
 20
28890.0
 30
0.0
 40
400.0
  0
CIRCLE
  5
150
100
AcDbEntity
  8
PART_PADS_SMD_TOP
100
AcDbCircle
 10
7705.0
 20
32700.0
 30
0.0
 40
400.0
  0
CIRCLE
  5
151
100
AcDbEntity
  8
PART_PADS_SMD_TOP
100
AcDbCircle
 10
8975.0
 20
32700.0
 30
0.0
 40
400.0
  0
CIRCLE
  5
152
100
AcDbEntity
  8
PART_PADS_SMD_TOP
100
AcDbCircle
 10
8340.0
 20
31430.0
 30
0.0
 40
400.0
  0
CIRCLE
  5
153
100
AcDbEntity
  8
PART_PADS_SMD_TOP
100
AcDbCircle
 10
7705.0
 20
30160.0
 30
0.0
 40
400.0
  0
CIRCLE
  5
154
100
AcDbEntity
  8
PART_PADS_SMD_TOP
100
AcDbCircle
 10
8975.0
 20
30160.0
 30
0.0
 40
400.0
  0
CIRCLE
  5
155
100
AcDbEntity
  8
PART_PADS_SMD_TOP
100
AcDbCircle
 10
10245.0
 20
32700.0
 30
0.0
 40
400.0
  0
CIRCLE
  5
156
100
AcDbEntity
  8
PART_PADS_SMD_TOP
100
AcDbCircle
 10
11515.0
 20
32700.0
 30
0.0
 40
400.0
  0
CIRCLE
  5
157
100
AcDbEntity
  8
PART_PADS_SMD_TOP
100
AcDbCircle
 10
10880.0
 20
31430.0
 30
0.0
 40
400.0
  0
CIRCLE
  5
158
100
AcDbEntity
  8
PART_PADS_SMD_TOP
100
AcDbCircle
 10
10245.0
 20
30160.0
 30
0.0
 40
400.0
  0
CIRCLE
  5
159
100
AcDbEntity
  8
PART_PADS_SMD_TOP
100
AcDbCircle
 10
11515.0
 20
30160.0
 30
0.0
 40
400.0
  0
CIRCLE
  5
15A
100
AcDbEntity
  8
PART_PADS_SMD_TOP
100
AcDbCircle
 10
12785.0
 20
32700.0
 30
0.0
 40
400.0
  0
CIRCLE
  5
15B
100
AcDbEntity
  8
PART_PADS_SMD_TOP
100
AcDbCircle
 10
14055.0
 20
32700.0
 30
0.0
 40
400.0
  0
CIRCLE
  5
15C
100
AcDbEntity
  8
PART_PADS_SMD_TOP
100
AcDbCircle
 10
13420.0
 20
31430.0
 30
0.0
 40
400.0
  0
CIRCLE
  5
15D
100
AcDbEntity
  8
PART_PADS_SMD_TOP
100
AcDbCircle
 10
12785.0
 20
30160.0
 30
0.0
 40
400.0
  0
CIRCLE
  5
15E
100
AcDbEntity
  8
PART_PADS_SMD_TOP
100
AcDbCircle
 10
14055.0
 20
30160.0
 30
0.0
 40
400.0
  0
CIRCLE
  5
15F
100
AcDbEntity
  8
PART_PADS_SMD_TOP
100
AcDbCircle
 10
15325.0
 20
32700.0
 30
0.0
 40
400.0
  0
CIRCLE
  5
160
100
AcDbEntity
  8
PART_PADS_SMD_TOP
100
AcDbCircle
 10
16595.0
 20
32700.0
 30
0.0
 40
400.0
  0
CIRCLE
  5
161
100
AcDbEntity
  8
PART_PADS_SMD_TOP
100
AcDbCircle
 10
15960.0
 20
31430.0
 30
0.0
 40
400.0
  0
CIRCLE
  5
162
100
AcDbEntity
  8
PART_PADS_SMD_TOP
100
AcDbCircle
 10
15325.0
 20
30160.0
 30
0.0
 40
400.0
  0
CIRCLE
  5
163
100
AcDbEntity
  8
PART_PADS_SMD_TOP
100
AcDbCircle
 10
16595.0
 20
30160.0
 30
0.0
 40
400.0
  0
CIRCLE
  5
164
100
AcDbEntity
  8
PART_PADS_SMD_TOP
100
AcDbCircle
 10
17865.0
 20
32700.0
 30
0.0
 40
400.0
  0
CIRCLE
  5
165
100
AcDbEntity
  8
PART_PADS_SMD_TOP
100
AcDbCircle
 10
19135.0
 20
32700.0
 30
0.0
 40
400.0
  0
CIRCLE
  5
166
100
AcDbEntity
  8
PART_PADS_SMD_TOP
100
AcDbCircle
 10
18500.0
 20
31430.0
 30
0.0
 40
400.0
  0
CIRCLE
  5
167
100
AcDbEntity
  8
PART_PADS_SMD_TOP
100
AcDbCircle
 10
17865.0
 20
30160.0
 30
0.0
 40
400.0
  0
CIRCLE
  5
168
100
AcDbEntity
  8
PART_PADS_SMD_TOP
100
AcDbCircle
 10
19135.0
 20
30160.0
 30
0.0
 40
400.0
  0
CIRCLE
  5
169
100
AcDbEntity
  8
PART_PADS_SMD_TOP
100
AcDbCircle
 10
20405.0
 20
32700.0
 30
0.0
 40
400.0
  0
CIRCLE
  5
16A
100
AcDbEntity
  8
PART_PADS_SMD_TOP
100
AcDbCircle
 10
21675.0
 20
32700.0
 30
0.0
 40
400.0
  0
CIRCLE
  5
16B
100
AcDbEntity
  8
PART_PADS_SMD_TOP
100
AcDbCircle
 10
21040.0
 20
31430.0
 30
0.0
 40
400.0
  0
CIRCLE
  5
16C
100
AcDbEntity
  8
PART_PADS_SMD_TOP
100
AcDbCircle
 10
20405.0
 20
30160.0
 30
0.0
 40
400.0
  0
CIRCLE
  5
16D
100
AcDbEntity
  8
PART_PADS_SMD_TOP
100
AcDbCircle
 10
21675.0
 20
30160.0
 30
0.0
 40
400.0
  0
CIRCLE
  5
16E
100
AcDbEntity
  8
PART_PADS_SMD_TOP
100
AcDbCircle
 10
22945.0
 20
32700.0
 30
0.0
 40
400.0
  0
CIRCLE
  5
16F
100
AcDbEntity
  8
PART_PADS_SMD_TOP
100
AcDbCircle
 10
24215.0
 20
32700.0
 30
0.0
 40
400.0
  0
CIRCLE
  5
170
100
AcDbEntity
  8
PART_PADS_SMD_TOP
100
AcDbCircle
 10
23580.0
 20
31430.0
 30
0.0
 40
400.0
  0
CIRCLE
  5
171
100
AcDbEntity
  8
PART_PADS_SMD_TOP
100
AcDbCircle
 10
22945.0
 20
30160.0
 30
0.0
 40
400.0
  0
CIRCLE
  5
172
100
AcDbEntity
  8
PART_PADS_SMD_TOP
100
AcDbCircle
 10
24215.0
 20
30160.0
 30
0.0
 40
400.0
  0
CIRCLE
  5
173
100
AcDbEntity
  8
PART_PADS_SMD_TOP
100
AcDbCircle
 10
25485.0
 20
32700.0
 30
0.0
 40
400.0
  0
CIRCLE
  5
174
100
AcDbEntity
  8
PART_PADS_SMD_TOP
100
AcDbCircle
 10
26755.0
 20
32700.0
 30
0.0
 40
400.0
  0
CIRCLE
  5
175
100
AcDbEntity
  8
PART_PADS_SMD_TOP
100
AcDbCircle
 10
26120.0
 20
31430.0
 30
0.0
 40
400.0
  0
CIRCLE
  5
176
100
AcDbEntity
  8
PART_PADS_SMD_TOP
100
AcDbCircle
 10
25485.0
 20
30160.0
 30
0.0
 40
400.0
  0
CIRCLE
  5
177
100
AcDbEntity
  8
PART_PADS_SMD_TOP
100
AcDbCircle
 10
26755.0
 20
30160.0
 30
0.0
 40
400.0
  0
CIRCLE
  5
178
100
AcDbEntity
  8
PART_PADS_SMD_TOP
100
AcDbCircle
 10
28025.0
 20
32700.0
 30
0.0
 40
400.0
  0
CIRCLE
  5
179
100
AcDbEntity
  8
PART_PADS_SMD_TOP
100
AcDbCircle
 10
29295.0
 20
32700.0
 30
0.0
 40
400.0
  0
CIRCLE
  5
17A
100
AcDbEntity
  8
PART_PADS_SMD_TOP
100
AcDbCircle
 10
28660.0
 20
31430.0
 30
0.0
 40
400.0
  0
CIRCLE
  5
17B
100
AcDbEntity
  8
PART_PADS_SMD_TOP
100
AcDbCircle
 10
28025.0
 20
30160.0
 30
0.0
 40
400.0
  0
CIRCLE
  5
17C
100
AcDbEntity
  8
PART_PADS_SMD_TOP
100
AcDbCircle
 10
29295.0
 20
30160.0
 30
0.0
 40
400.0
  0
CIRCLE
  5
17D
100
AcDbEntity
  8
PART_PADS_SMD_TOP
100
AcDbCircle
 10
28660.0
 20
28890.0
 30
0.0
 40
400.0
  0
CIRCLE
  5
17E
100
AcDbEntity
  8
PART_PADS_SMD_TOP
100
AcDbCircle
 10
29295.0
 20
27620.0
 30
0.0
 40
400.0
  0
CIRCLE
  5
17F
100
AcDbEntity
  8
PART_PADS_SMD_TOP
100
AcDbCircle
 10
28025.0
 20
27620.0
 30
0.0
 40
400.0
  0
CIRCLE
  5
180
100
AcDbEntity
  8
PART_PADS_SMD_TOP
100
AcDbCircle
 10
27390.0
 20
28890.0
 30
0.0
 40
400.0
  0
CIRCLE
  5
181
100
AcDbEntity
  8
PART_PADS_SMD_TOP
100
AcDbCircle
 10
26755.0
 20
27620.0
 30
0.0
 40
400.0
  0
CIRCLE
  5
182
100
AcDbEntity
  8
PART_PADS_SMD_TOP
100
AcDbCircle
 10
28660.0
 20
26350.0
 30
0.0
 40
400.0
  0
CIRCLE
  5
183
100
AcDbEntity
  8
PART_PADS_SMD_TOP
100
AcDbCircle
 10
29295.0
 20
25080.0
 30
0.0
 40
400.0
  0
CIRCLE
  5
184
100
AcDbEntity
  8
PART_PADS_SMD_TOP
100
AcDbCircle
 10
28025.0
 20
25080.0
 30
0.0
 40
400.0
  0
CIRCLE
  5
185
100
AcDbEntity
  8
PART_PADS_SMD_TOP
100
AcDbCircle
 10
27390.0
 20
26350.0
 30
0.0
 40
400.0
  0
CIRCLE
  5
186
100
AcDbEntity
  8
PART_PADS_SMD_TOP
100
AcDbCircle
 10
26755.0
 20
25080.0
 30
0.0
 40
400.0
  0
CIRCLE
  5
187
100
AcDbEntity
  8
PART_PADS_SMD_TOP
100
AcDbCircle
 10
28660.0
 20
23810.0
 30
0.0
 40
400.0
  0
CIRCLE
  5
188
100
AcDbEntity
  8
PART_PADS_SMD_TOP
100
AcDbCircle
 10
29295.0
 20
22540.0
 30
0.0
 40
400.0
  0
CIRCLE
  5
189
100
AcDbEntity
  8
PART_PADS_SMD_TOP
100
AcDbCircle
 10
28025.0
 20
22540.0
 30
0.0
 40
400.0
  0
CIRCLE
  5
18A
100
AcDbEntity
  8
PART_PADS_SMD_TOP
100
AcDbCircle
 10
27390.0
 20
23810.0
 30
0.0
 40
400.0
  0
CIRCLE
  5
18B
100
AcDbEntity
  8
PART_PADS_SMD_TOP
100
AcDbCircle
 10
26755.0
 20
22540.0
 30
0.0
 40
400.0
  0
CIRCLE
  5
18C
100
AcDbEntity
  8
PART_PADS_SMD_TOP
100
AcDbCircle
 10
28660.0
 20
21270.0
 30
0.0
 40
400.0
  0
CIRCLE
  5
18D
100
AcDbEntity
  8
PART_PADS_SMD_TOP
100
AcDbCircle
 10
29295.0
 20
20000.0
 30
0.0
 40
400.0
  0
CIRCLE
  5
18E
100
AcDbEntity
  8
PART_PADS_SMD_TOP
100
AcDbCircle
 10
28025.0
 20
20000.0
 30
0.0
 40
400.0
  0
CIRCLE
  5
18F
100
AcDbEntity
  8
PART_PADS_SMD_TOP
100
AcDbCircle
 10
27390.0
 20
21270.0
 30
0.0
 40
400.0
  0
CIRCLE
  5
190
100
AcDbEntity
  8
PART_PADS_SMD_TOP
100
AcDbCircle
 10
26755.0
 20
20000.0
 30
0.0
 40
400.0
  0
CIRCLE
  5
191
100
AcDbEntity
  8
PART_PADS_SMD_TOP
100
AcDbCircle
 10
28660.0
 20
18730.0
 30
0.0
 40
400.0
  0
CIRCLE
  5
192
100
AcDbEntity
  8
PART_PADS_SMD_TOP
100
AcDbCircle
 10
29295.0
 20
17460.0
 30
0.0
 40
400.0
  0
CIRCLE
  5
193
100
AcDbEntity
  8
PART_PADS_SMD_TOP
100
AcDbCircle
 10
28025.0
 20
17460.0
 30
0.0
 40
400.0
  0
CIRCLE
  5
194
100
AcDbEntity
  8
PART_PADS_SMD_TOP
100
AcDbCircle
 10
27390.0
 20
18730.0
 30
0.0
 40
400.0
  0
CIRCLE
  5
195
100
AcDbEntity
  8
PART_PADS_SMD_TOP
100
AcDbCircle
 10
26755.0
 20
17460.0
 30
0.0
 40
400.0
  0
CIRCLE
  5
196
100
AcDbEntity
  8
PART_PADS_SMD_TOP
100
AcDbCircle
 10
28660.0
 20
16190.0
 30
0.0
 40
400.0
  0
CIRCLE
  5
197
100
AcDbEntity
  8
PART_PADS_SMD_TOP
100
AcDbCircle
 10
29295.0
 20
14920.0
 30
0.0
 40
400.0
  0
CIRCLE
  5
198
100
AcDbEntity
  8
PART_PADS_SMD_TOP
100
AcDbCircle
 10
28025.0
 20
14920.0
 30
0.0
 40
400.0
  0
CIRCLE
  5
199
100
AcDbEntity
  8
PART_PADS_SMD_TOP
100
AcDbCircle
 10
27390.0
 20
16190.0
 30
0.0
 40
400.0
  0
CIRCLE
  5
19A
100
AcDbEntity
  8
PART_PADS_SMD_TOP
100
AcDbCircle
 10
26755.0
 20
14920.0
 30
0.0
 40
400.0
  0
CIRCLE
  5
19B
100
AcDbEntity
  8
PART_PADS_SMD_TOP
100
AcDbCircle
 10
28660.0
 20
13650.0
 30
0.0
 40
400.0
  0
CIRCLE
  5
19C
100
AcDbEntity
  8
PART_PADS_SMD_TOP
100
AcDbCircle
 10
29295.0
 20
12380.0
 30
0.0
 40
400.0
  0
CIRCLE
  5
19D
100
AcDbEntity
  8
PART_PADS_SMD_TOP
100
AcDbCircle
 10
28025.0
 20
12380.0
 30
0.0
 40
400.0
  0
CIRCLE
  5
19E
100
AcDbEntity
  8
PART_PADS_SMD_TOP
100
AcDbCircle
 10
27390.0
 20
13650.0
 30
0.0
 40
400.0
  0
CIRCLE
  5
19F
100
AcDbEntity
  8
PART_PADS_SMD_TOP
100
AcDbCircle
 10
26755.0
 20
12380.0
 30
0.0
 40
400.0
  0
CIRCLE
  5
1A0
100
AcDbEntity
  8
PART_PADS_SMD_TOP
100
AcDbCircle
 10
28660.0
 20
11110.0
 30
0.0
 40
400.0
  0
CIRCLE
  5
1A1
100
AcDbEntity
  8
PART_PADS_SMD_TOP
100
AcDbCircle
 10
27390.0
 20
11110.0
 30
0.0
 40
400.0
  0
CIRCLE
  5
1A2
100
AcDbEntity
  8
PART_PADS_SMD_TOP
100
AcDbCircle
 10
34375.0
 20
2220.0
 30
0.0
 40
400.0
  0
CIRCLE
  5
1A3
100
AcDbEntity
  8
PART_PADS_SMD_TOP
100
AcDbCircle
 10
33105.0
 20
2220.0
 30
0.0
 40
400.0
  0
CIRCLE
  5
1A4
100
AcDbEntity
  8
PART_PADS_SMD_TOP
100
AcDbCircle
 10
33740.0
 20
3490.0
 30
0.0
 40
400.0
  0
CIRCLE
  5
1A5
100
AcDbEntity
  8
PART_PADS_SMD_TOP
100
AcDbCircle
 10
31835.0
 20
2220.0
 30
0.0
 40
400.0
  0
CIRCLE
  5
1A6
100
AcDbEntity
  8
PART_PADS_SMD_TOP
100
AcDbCircle
 10
30565.0
 20
2220.0
 30
0.0
 40
400.0
  0
CIRCLE
  5
1A7
100
AcDbEntity
  8
PART_PADS_SMD_TOP
100
AcDbCircle
 10
31200.0
 20
3490.0
 30
0.0
 40
400.0
  0
CIRCLE
  5
1A8
100
AcDbEntity
  8
PART_PADS_SMD_TOP
100
AcDbCircle
 10
29295.0
 20
2220.0
 30
0.0
 40
400.0
  0
CIRCLE
  5
1A9
100
AcDbEntity
  8
PART_PADS_SMD_TOP
100
AcDbCircle
 10
28025.0
 20
2220.0
 30
0.0
 40
400.0
  0
CIRCLE
  5
1AA
100
AcDbEntity
  8
PART_PADS_SMD_TOP
100
AcDbCircle
 10
28660.0
 20
3490.0
 30
0.0
 40
400.0
  0
CIRCLE
  5
1AB
100
AcDbEntity
  8
PART_PADS_SMD_TOP
100
AcDbCircle
 10
26755.0
 20
2220.0
 30
0.0
 40
400.0
  0
CIRCLE
  5
1AC
100
AcDbEntity
  8
PART_PADS_SMD_TOP
100
AcDbCircle
 10
25485.0
 20
2220.0
 30
0.0
 40
400.0
  0
CIRCLE
  5
1AD
100
AcDbEntity
  8
PART_PADS_SMD_TOP
100
AcDbCircle
 10
26120.0
 20
3490.0
 30
0.0
 40
400.0
  0
CIRCLE
  5
1AE
100
AcDbEntity
  8
PART_PADS_SMD_TOP
100
AcDbCircle
 10
26755.0
 20
4760.0
 30
0.0
 40
400.0
  0
CIRCLE
  5
1AF
100
AcDbEntity
  8
PART_PADS_SMD_TOP
100
AcDbCircle
 10
25485.0
 20
4760.0
 30
0.0
 40
400.0
  0
CIRCLE
  5
1B0
100
AcDbEntity
  8
PART_PADS_SMD_TOP
100
AcDbCircle
 10
24215.0
 20
2220.0
 30
0.0
 40
400.0
  0
CIRCLE
  5
1B1
100
AcDbEntity
  8
PART_PADS_SMD_TOP
100
AcDbCircle
 10
22945.0
 20
2220.0
 30
0.0
 40
400.0
  0
CIRCLE
  5
1B2
100
AcDbEntity
  8
PART_PADS_SMD_TOP
100
AcDbCircle
 10
23580.0
 20
3490.0
 30
0.0
 40
400.0
  0
CIRCLE
  5
1B3
100
AcDbEntity
  8
PART_PADS_SMD_TOP
100
AcDbCircle
 10
24215.0
 20
4760.0
 30
0.0
 40
400.0
  0
CIRCLE
  5
1B4
100
AcDbEntity
  8
PART_PADS_SMD_TOP
100
AcDbCircle
 10
22945.0
 20
4760.0
 30
0.0
 40
400.0
  0
CIRCLE
  5
1B5
100
AcDbEntity
  8
PART_PADS_SMD_TOP
100
AcDbCircle
 10
21675.0
 20
2220.0
 30
0.0
 40
400.0
  0
CIRCLE
  5
1B6
100
AcDbEntity
  8
PART_PADS_SMD_TOP
100
AcDbCircle
 10
20405.0
 20
2220.0
 30
0.0
 40
400.0
  0
CIRCLE
  5
1B7
100
AcDbEntity
  8
PART_PADS_SMD_TOP
100
AcDbCircle
 10
21040.0
 20
3490.0
 30
0.0
 40
400.0
  0
CIRCLE
  5
1B8
100
AcDbEntity
  8
PART_PADS_SMD_TOP
100
AcDbCircle
 10
21675.0
 20
4760.0
 30
0.0
 40
400.0
  0
CIRCLE
  5
1B9
100
AcDbEntity
  8
PART_PADS_SMD_TOP
100
AcDbCircle
 10
20405.0
 20
4760.0
 30
0.0
 40
400.0
  0
CIRCLE
  5
1BA
100
AcDbEntity
  8
PART_PADS_SMD_TOP
100
AcDbCircle
 10
19135.0
 20
2220.0
 30
0.0
 40
400.0
  0
CIRCLE
  5
1BB
100
AcDbEntity
  8
PART_PADS_SMD_TOP
100
AcDbCircle
 10
17865.0
 20
2220.0
 30
0.0
 40
400.0
  0
CIRCLE
  5
1BC
100
AcDbEntity
  8
PART_PADS_SMD_TOP
100
AcDbCircle
 10
18500.0
 20
3490.0
 30
0.0
 40
400.0
  0
CIRCLE
  5
1BD
100
AcDbEntity
  8
PART_PADS_SMD_TOP
100
AcDbCircle
 10
19135.0
 20
4760.0
 30
0.0
 40
400.0
  0
CIRCLE
  5
1BE
100
AcDbEntity
  8
PART_PADS_SMD_TOP
100
AcDbCircle
 10
17865.0
 20
4760.0
 30
0.0
 40
400.0
  0
CIRCLE
  5
1BF
100
AcDbEntity
  8
PART_PADS_SMD_TOP
100
AcDbCircle
 10
16595.0
 20
2220.0
 30
0.0
 40
400.0
  0
CIRCLE
  5
1C0
100
AcDbEntity
  8
PART_PADS_SMD_TOP
100
AcDbCircle
 10
15325.0
 20
2220.0
 30
0.0
 40
400.0
  0
CIRCLE
  5
1C1
100
AcDbEntity
  8
PART_PADS_SMD_TOP
100
AcDbCircle
 10
15960.0
 20
3490.0
 30
0.0
 40
400.0
  0
CIRCLE
  5
1C2
100
AcDbEntity
  8
PART_PADS_SMD_TOP
100
AcDbCircle
 10
16595.0
 20
4760.0
 30
0.0
 40
400.0
  0
CIRCLE
  5
1C3
100
AcDbEntity
  8
PART_PADS_SMD_TOP
100
AcDbCircle
 10
15325.0
 20
4760.0
 30
0.0
 40
400.0
  0
CIRCLE
  5
1C4
100
AcDbEntity
  8
PART_PADS_SMD_TOP
100
AcDbCircle
 10
14055.0
 20
2220.0
 30
0.0
 40
400.0
  0
CIRCLE
  5
1C5
100
AcDbEntity
  8
PART_PADS_SMD_TOP
100
AcDbCircle
 10
12785.0
 20
2220.0
 30
0.0
 40
400.0
  0
CIRCLE
  5
1C6
100
AcDbEntity
  8
PART_PADS_SMD_TOP
100
AcDbCircle
 10
13420.0
 20
3490.0
 30
0.0
 40
400.0
  0
CIRCLE
  5
1C7
100
AcDbEntity
  8
PART_PADS_SMD_TOP
100
AcDbCircle
 10
14055.0
 20
4760.0
 30
0.0
 40
400.0
  0
CIRCLE
  5
1C8
100
AcDbEntity
  8
PART_PADS_SMD_TOP
100
AcDbCircle
 10
12785.0
 20
4760.0
 30
0.0
 40
400.0
  0
CIRCLE
  5
1C9
100
AcDbEntity
  8
PART_PADS_SMD_TOP
100
AcDbCircle
 10
11515.0
 20
2220.0
 30
0.0
 40
400.0
  0
CIRCLE
  5
1CA
100
AcDbEntity
  8
PART_PADS_SMD_TOP
100
AcDbCircle
 10
10245.0
 20
2220.0
 30
0.0
 40
400.0
  0
CIRCLE
  5
1CB
100
AcDbEntity
  8
PART_PADS_SMD_TOP
100
AcDbCircle
 10
10880.0
 20
3490.0
 30
0.0
 40
400.0
  0
CIRCLE
  5
1CC
100
AcDbEntity
  8
PART_PADS_SMD_TOP
100
AcDbCircle
 10
11515.0
 20
4760.0
 30
0.0
 40
400.0
  0
CIRCLE
  5
1CD
100
AcDbEntity
  8
PART_PADS_SMD_TOP
100
AcDbCircle
 10
10245.0
 20
4760.0
 30
0.0
 40
400.0
  0
CIRCLE
  5
1CE
100
AcDbEntity
  8
PART_PADS_SMD_TOP
100
AcDbCircle
 10
8975.0
 20
2220.0
 30
0.0
 40
400.0
  0
CIRCLE
  5
1CF
100
AcDbEntity
  8
PART_PADS_SMD_TOP
100
AcDbCircle
 10
7705.0
 20
2220.0
 30
0.0
 40
400.0
  0
CIRCLE
  5
1D0
100
AcDbEntity
  8
PART_PADS_SMD_TOP
100
AcDbCircle
 10
8340.0
 20
3490.0
 30
0.0
 40
400.0
  0
CIRCLE
  5
1D1
100
AcDbEntity
  8
PART_PADS_SMD_TOP
100
AcDbCircle
 10
6435.0
 20
2220.0
 30
0.0
 40
400.0
  0
CIRCLE
  5
1D2
100
AcDbEntity
  8
PART_PADS_SMD_TOP
100
AcDbCircle
 10
5165.0
 20
2220.0
 30
0.0
 40
400.0
  0
CIRCLE
  5
1D3
100
AcDbEntity
  8
PART_PADS_SMD_TOP
100
AcDbCircle
 10
5800.0
 20
3490.0
 30
0.0
 40
400.0
  0
CIRCLE
  5
1D4
100
AcDbEntity
  8
PART_PADS_SMD_TOP
100
AcDbCircle
 10
3895.0
 20
2220.0
 30
0.0
 40
400.0
  0
CIRCLE
  5
1D5
100
AcDbEntity
  8
PART_PADS_SMD_TOP
100
AcDbCircle
 10
2625.0
 20
2220.0
 30
0.0
 40
400.0
  0
CIRCLE
  5
1D6
100
AcDbEntity
  8
PART_PADS_SMD_TOP
100
AcDbCircle
 10
3260.0
 20
3490.0
 30
0.0
 40
400.0
  0
CIRCLE
  5
1D7
100
AcDbEntity
  8
PART_PADS_SMD_TOP
100
AcDbCircle
 10
2625.0
 20
4760.0
 30
0.0
 40
400.0
  0
CIRCLE
  5
1D8
100
AcDbEntity
  8
PART_PADS_SMD_TOP
100
AcDbCircle
 10
1990.0
 20
6030.0
 30
0.0
 40
400.0
  0
CIRCLE
  5
1D9
100
AcDbEntity
  8
PART_PADS_SMD_TOP
100
AcDbCircle
 10
3260.0
 20
6030.0
 30
0.0
 40
400.0
  0
CIRCLE
  5
1DA
100
AcDbEntity
  8
PART_PADS_SMD_TOP
100
AcDbCircle
 10
3895.0
 20
4760.0
 30
0.0
 40
400.0
  0
CIRCLE
  5
1DB
100
AcDbEntity
  8
PART_PADS_SMD_TOP
100
AcDbCircle
 10
4530.0
 20
6030.0
 30
0.0
 40
400.0
  0
CIRCLE
  5
1DC
100
AcDbEntity
  8
PART_PADS_SMD_TOP
100
AcDbCircle
 10
2625.0
 20
7300.0
 30
0.0
 40
400.0
  0
CIRCLE
  5
1DD
100
AcDbEntity
  8
PART_PADS_SMD_TOP
100
AcDbCircle
 10
1990.0
 20
8570.0
 30
0.0
 40
400.0
  0
CIRCLE
  5
1DE
100
AcDbEntity
  8
PART_PADS_SMD_TOP
100
AcDbCircle
 10
3260.0
 20
8570.0
 30
0.0
 40
400.0
  0
CIRCLE
  5
1DF
100
AcDbEntity
  8
PART_PADS_SMD_TOP
100
AcDbCircle
 10
3895.0
 20
7300.0
 30
0.0
 40
400.0
  0
CIRCLE
  5
1E0
100
AcDbEntity
  8
PART_PADS_SMD_TOP
100
AcDbCircle
 10
4530.0
 20
8570.0
 30
0.0
 40
400.0
  0
CIRCLE
  5
1E1
100
AcDbEntity
  8
PART_PADS_SMD_TOP
100
AcDbCircle
 10
2625.0
 20
9840.0
 30
0.0
 40
400.0
  0
CIRCLE
  5
1E2
100
AcDbEntity
  8
PART_PADS_SMD_TOP
100
AcDbCircle
 10
1990.0
 20
11110.0
 30
0.0
 40
400.0
  0
CIRCLE
  5
1E3
100
AcDbEntity
  8
PART_PADS_SMD_TOP
100
AcDbCircle
 10
3260.0
 20
11110.0
 30
0.0
 40
400.0
  0
CIRCLE
  5
1E4
100
AcDbEntity
  8
PART_PADS_SMD_TOP
100
AcDbCircle
 10
3895.0
 20
9840.0
 30
0.0
 40
400.0
  0
CIRCLE
  5
1E5
100
AcDbEntity
  8
PART_PADS_SMD_TOP
100
AcDbCircle
 10
4530.0
 20
11110.0
 30
0.0
 40
400.0
  0
CIRCLE
  5
1E6
100
AcDbEntity
  8
PART_PADS_SMD_TOP
100
AcDbCircle
 10
2625.0
 20
12380.0
 30
0.0
 40
400.0
  0
CIRCLE
  5
1E7
100
AcDbEntity
  8
PART_PADS_SMD_TOP
100
AcDbCircle
 10
1990.0
 20
13650.0
 30
0.0
 40
400.0
  0
CIRCLE
  5
1E8
100
AcDbEntity
  8
PART_PADS_SMD_TOP
100
AcDbCircle
 10
3260.0
 20
13650.0
 30
0.0
 40
400.0
  0
CIRCLE
  5
1E9
100
AcDbEntity
  8
PART_PADS_SMD_TOP
100
AcDbCircle
 10
3895.0
 20
12380.0
 30
0.0
 40
400.0
  0
CIRCLE
  5
1EA
100
AcDbEntity
  8
PART_PADS_SMD_TOP
100
AcDbCircle
 10
4530.0
 20
13650.0
 30
0.0
 40
400.0
  0
CIRCLE
  5
1EB
100
AcDbEntity
  8
PART_PADS_SMD_TOP
100
AcDbCircle
 10
2625.0
 20
14920.0
 30
0.0
 40
400.0
  0
CIRCLE
  5
1EC
100
AcDbEntity
  8
PART_PADS_SMD_TOP
100
AcDbCircle
 10
1990.0
 20
16190.0
 30
0.0
 40
400.0
  0
CIRCLE
  5
1ED
100
AcDbEntity
  8
PART_PADS_SMD_TOP
100
AcDbCircle
 10
3260.0
 20
16190.0
 30
0.0
 40
400.0
  0
CIRCLE
  5
1EE
100
AcDbEntity
  8
PART_PADS_SMD_TOP
100
AcDbCircle
 10
3895.0
 20
14920.0
 30
0.0
 40
400.0
  0
CIRCLE
  5
1EF
100
AcDbEntity
  8
PART_PADS_SMD_TOP
100
AcDbCircle
 10
4530.0
 20
16190.0
 30
0.0
 40
400.0
  0
CIRCLE
  5
1F0
100
AcDbEntity
  8
PART_PADS_SMD_TOP
100
AcDbCircle
 10
2625.0
 20
17460.0
 30
0.0
 40
400.0
  0
CIRCLE
  5
1F1
100
AcDbEntity
  8
PART_PADS_SMD_TOP
100
AcDbCircle
 10
1990.0
 20
18730.0
 30
0.0
 40
400.0
  0
CIRCLE
  5
1F2
100
AcDbEntity
  8
PART_PADS_SMD_TOP
100
AcDbCircle
 10
3260.0
 20
18730.0
 30
0.0
 40
400.0
  0
CIRCLE
  5
1F3
100
AcDbEntity
  8
PART_PADS_SMD_TOP
100
AcDbCircle
 10
3895.0
 20
17460.0
 30
0.0
 40
400.0
  0
CIRCLE
  5
1F4
100
AcDbEntity
  8
PART_PADS_SMD_TOP
100
AcDbCircle
 10
4530.0
 20
18730.0
 30
0.0
 40
400.0
  0
CIRCLE
  5
1F5
100
AcDbEntity
  8
PART_PADS_SMD_TOP
100
AcDbCircle
 10
2625.0
 20
20000.0
 30
0.0
 40
400.0
  0
CIRCLE
  5
1F6
100
AcDbEntity
  8
PART_PADS_SMD_TOP
100
AcDbCircle
 10
1990.0
 20
21270.0
 30
0.0
 40
400.0
  0
CIRCLE
  5
1F7
100
AcDbEntity
  8
PART_PADS_SMD_TOP
100
AcDbCircle
 10
3260.0
 20
21270.0
 30
0.0
 40
400.0
  0
CIRCLE
  5
1F8
100
AcDbEntity
  8
PART_PADS_SMD_TOP
100
AcDbCircle
 10
3895.0
 20
20000.0
 30
0.0
 40
400.0
  0
CIRCLE
  5
1F9
100
AcDbEntity
  8
PART_PADS_SMD_TOP
100
AcDbCircle
 10
4530.0
 20
21270.0
 30
0.0
 40
400.0
  0
CIRCLE
  5
1FA
100
AcDbEntity
  8
PART_PADS_SMD_TOP
100
AcDbCircle
 10
2625.0
 20
22540.0
 30
0.0
 40
400.0
  0
CIRCLE
  5
1FB
100
AcDbEntity
  8
PART_PADS_SMD_TOP
100
AcDbCircle
 10
1990.0
 20
23810.0
 30
0.0
 40
400.0
  0
CIRCLE
  5
1FC
100
AcDbEntity
  8
PART_PADS_SMD_TOP
100
AcDbCircle
 10
3260.0
 20
23810.0
 30
0.0
 40
400.0
  0
CIRCLE
  5
1FD
100
AcDbEntity
  8
PART_PADS_SMD_TOP
100
AcDbCircle
 10
3895.0
 20
22540.0
 30
0.0
 40
400.0
  0
CIRCLE
  5
1FE
100
AcDbEntity
  8
PART_PADS_SMD_TOP
100
AcDbCircle
 10
4530.0
 20
23810.0
 30
0.0
 40
400.0
  0
CIRCLE
  5
1FF
100
AcDbEntity
  8
PART_PADS_SMD_TOP
100
AcDbCircle
 10
2625.0
 20
25080.0
 30
0.0
 40
400.0
  0
CIRCLE
  5
200
100
AcDbEntity
  8
PART_PADS_SMD_TOP
100
AcDbCircle
 10
1990.0
 20
26350.0
 30
0.0
 40
400.0
  0
CIRCLE
  5
201
100
AcDbEntity
  8
PART_PADS_SMD_TOP
100
AcDbCircle
 10
3260.0
 20
26350.0
 30
0.0
 40
400.0
  0
CIRCLE
  5
202
100
AcDbEntity
  8
PART_PADS_SMD_TOP
100
AcDbCircle
 10
3895.0
 20
25080.0
 30
0.0
 40
400.0
  0
CIRCLE
  5
203
100
AcDbEntity
  8
PART_PADS_SMD_TOP
100
AcDbCircle
 10
4530.0
 20
26350.0
 30
0.0
 40
400.0
  0
CIRCLE
  5
204
100
AcDbEntity
  8
PART_PADS_SMD_TOP
100
AcDbCircle
 10
2625.0
 20
27620.0
 30
0.0
 40
400.0
  0
CIRCLE
  5
205
100
AcDbEntity
  8
PART_PADS_SMD_TOP
100
AcDbCircle
 10
1990.0
 20
28890.0
 30
0.0
 40
400.0
  0
CIRCLE
  5
206
100
AcDbEntity
  8
PART_PADS_SMD_TOP
100
AcDbCircle
 10
3260.0
 20
28890.0
 30
0.0
 40
400.0
  0
CIRCLE
  5
207
100
AcDbEntity
  8
PART_PADS_SMD_TOP
100
AcDbCircle
 10
3895.0
 20
27620.0
 30
0.0
 40
400.0
  0
CIRCLE
  5
208
100
AcDbEntity
  8
PART_PADS_SMD_TOP
100
AcDbCircle
 10
4530.0
 20
28890.0
 30
0.0
 40
400.0
  0
CIRCLE
  5
209
100
AcDbEntity
  8
PART_PADS_SMD_TOP
100
AcDbCircle
 10
2625.0
 20
30160.0
 30
0.0
 40
400.0
  0
CIRCLE
  5
20A
100
AcDbEntity
  8
PART_PADS_SMD_TOP
100
AcDbCircle
 10
1990.0
 20
31430.0
 30
0.0
 40
400.0
  0
CIRCLE
  5
20B
100
AcDbEntity
  8
PART_PADS_SMD_TOP
100
AcDbCircle
 10
3260.0
 20
31430.0
 30
0.0
 40
400.0
  0
CIRCLE
  5
20C
100
AcDbEntity
  8
PART_PADS_SMD_TOP
100
AcDbCircle
 10
3895.0
 20
30160.0
 30
0.0
 40
400.0
  0
CIRCLE
  5
20D
100
AcDbEntity
  8
PART_PADS_SMD_TOP
100
AcDbCircle
 10
4530.0
 20
31430.0
 30
0.0
 40
400.0
  0
CIRCLE
  5
20E
100
AcDbEntity
  8
PART_PADS_SMD_TOP
100
AcDbCircle
 10
2625.0
 20
32700.0
 30
0.0
 40
400.0
  0
CIRCLE
  5
20F
100
AcDbEntity
  8
PART_PADS_SMD_TOP
100
AcDbCircle
 10
1990.0
 20
33970.0
 30
0.0
 40
400.0
  0
CIRCLE
  5
210
100
AcDbEntity
  8
PART_PADS_SMD_TOP
100
AcDbCircle
 10
3260.0
 20
33970.0
 30
0.0
 40
400.0
  0
CIRCLE
  5
211
100
AcDbEntity
  8
PART_PADS_SMD_TOP
100
AcDbCircle
 10
3895.0
 20
32700.0
 30
0.0
 40
400.0
  0
CIRCLE
  5
212
100
AcDbEntity
  8
PART_PADS_SMD_TOP
100
AcDbCircle
 10
4530.0
 20
33970.0
 30
0.0
 40
400.0
  0
CIRCLE
  5
213
100
AcDbEntity
  8
PART_PADS_SMD_TOP
100
AcDbCircle
 10
2625.0
 20
35240.0
 30
0.0
 40
400.0
  0
CIRCLE
  5
214
100
AcDbEntity
  8
PART_PADS_SMD_TOP
100
AcDbCircle
 10
3895.0
 20
35240.0
 30
0.0
 40
400.0
  0
CIRCLE
  5
215
100
AcDbEntity
  8
PART_PADS_SMD_TOP
100
AcDbCircle
 10
2625.0
 20
37780.0
 30
0.0
 40
400.0
  0
CIRCLE
  5
216
100
AcDbEntity
  8
PART_PADS_SMD_TOP
100
AcDbCircle
 10
3895.0
 20
37780.0
 30
0.0
 40
400.0
  0
CIRCLE
  5
217
100
AcDbEntity
  8
PART_PADS_SMD_TOP
100
AcDbCircle
 10
3260.0
 20
36510.0
 30
0.0
 40
400.0
  0
CIRCLE
  5
218
100
AcDbEntity
  8
PART_PADS_SMD_TOP
100
AcDbCircle
 10
5165.0
 20
37780.0
 30
0.0
 40
400.0
  0
CIRCLE
  5
219
100
AcDbEntity
  8
PART_PADS_SMD_TOP
100
AcDbCircle
 10
6435.0
 20
37780.0
 30
0.0
 40
400.0
  0
CIRCLE
  5
21A
100
AcDbEntity
  8
PART_PADS_SMD_TOP
100
AcDbCircle
 10
5800.0
 20
36510.0
 30
0.0
 40
400.0
  0
CIRCLE
  5
21B
100
AcDbEntity
  8
PART_PADS_SMD_TOP
100
AcDbCircle
 10
7705.0
 20
37780.0
 30
0.0
 40
400.0
  0
CIRCLE
  5
21C
100
AcDbEntity
  8
PART_PADS_SMD_TOP
100
AcDbCircle
 10
8975.0
 20
37780.0
 30
0.0
 40
400.0
  0
CIRCLE
  5
21D
100
AcDbEntity
  8
PART_PADS_SMD_TOP
100
AcDbCircle
 10
8340.0
 20
36510.0
 30
0.0
 40
400.0
  0
CIRCLE
  5
21E
100
AcDbEntity
  8
PART_PADS_SMD_TOP
100
AcDbCircle
 10
10245.0
 20
37780.0
 30
0.0
 40
400.0
  0
CIRCLE
  5
21F
100
AcDbEntity
  8
PART_PADS_SMD_TOP
100
AcDbCircle
 10
11515.0
 20
37780.0
 30
0.0
 40
400.0
  0
CIRCLE
  5
220
100
AcDbEntity
  8
PART_PADS_SMD_TOP
100
AcDbCircle
 10
10880.0
 20
36510.0
 30
0.0
 40
400.0
  0
CIRCLE
  5
221
100
AcDbEntity
  8
PART_PADS_SMD_TOP
100
AcDbCircle
 10
10245.0
 20
35240.0
 30
0.0
 40
400.0
  0
CIRCLE
  5
222
100
AcDbEntity
  8
PART_PADS_SMD_TOP
100
AcDbCircle
 10
11515.0
 20
35240.0
 30
0.0
 40
400.0
  0
CIRCLE
  5
223
100
AcDbEntity
  8
PART_PADS_SMD_TOP
100
AcDbCircle
 10
12785.0
 20
37780.0
 30
0.0
 40
400.0
  0
CIRCLE
  5
224
100
AcDbEntity
  8
PART_PADS_SMD_TOP
100
AcDbCircle
 10
14055.0
 20
37780.0
 30
0.0
 40
400.0
  0
CIRCLE
  5
225
100
AcDbEntity
  8
PART_PADS_SMD_TOP
100
AcDbCircle
 10
13420.0
 20
36510.0
 30
0.0
 40
400.0
  0
CIRCLE
  5
226
100
AcDbEntity
  8
PART_PADS_SMD_TOP
100
AcDbCircle
 10
12785.0
 20
35240.0
 30
0.0
 40
400.0
  0
CIRCLE
  5
227
100
AcDbEntity
  8
PART_PADS_SMD_TOP
100
AcDbCircle
 10
14055.0
 20
35240.0
 30
0.0
 40
400.0
  0
CIRCLE
  5
228
100
AcDbEntity
  8
PART_PADS_SMD_TOP
100
AcDbCircle
 10
15325.0
 20
37780.0
 30
0.0
 40
400.0
  0
CIRCLE
  5
229
100
AcDbEntity
  8
PART_PADS_SMD_TOP
100
AcDbCircle
 10
16595.0
 20
37780.0
 30
0.0
 40
400.0
  0
CIRCLE
  5
22A
100
AcDbEntity
  8
PART_PADS_SMD_TOP
100
AcDbCircle
 10
15960.0
 20
36510.0
 30
0.0
 40
400.0
  0
CIRCLE
  5
22B
100
AcDbEntity
  8
PART_PADS_SMD_TOP
100
AcDbCircle
 10
15325.0
 20
35240.0
 30
0.0
 40
400.0
  0
CIRCLE
  5
22C
100
AcDbEntity
  8
PART_PADS_SMD_TOP
100
AcDbCircle
 10
16595.0
 20
35240.0
 30
0.0
 40
400.0
  0
CIRCLE
  5
22D
100
AcDbEntity
  8
PART_PADS_SMD_TOP
100
AcDbCircle
 10
17865.0
 20
37780.0
 30
0.0
 40
400.0
  0
CIRCLE
  5
22E
100
AcDbEntity
  8
PART_PADS_SMD_TOP
100
AcDbCircle
 10
19135.0
 20
37780.0
 30
0.0
 40
400.0
  0
CIRCLE
  5
22F
100
AcDbEntity
  8
PART_PADS_SMD_TOP
100
AcDbCircle
 10
18500.0
 20
36510.0
 30
0.0
 40
400.0
  0
CIRCLE
  5
230
100
AcDbEntity
  8
PART_PADS_SMD_TOP
100
AcDbCircle
 10
17865.0
 20
35240.0
 30
0.0
 40
400.0
  0
CIRCLE
  5
231
100
AcDbEntity
  8
PART_PADS_SMD_TOP
100
AcDbCircle
 10
19135.0
 20
35240.0
 30
0.0
 40
400.0
  0
CIRCLE
  5
232
100
AcDbEntity
  8
PART_PADS_SMD_TOP
100
AcDbCircle
 10
20405.0
 20
37780.0
 30
0.0
 40
400.0
  0
CIRCLE
  5
233
100
AcDbEntity
  8
PART_PADS_SMD_TOP
100
AcDbCircle
 10
21675.0
 20
37780.0
 30
0.0
 40
400.0
  0
CIRCLE
  5
234
100
AcDbEntity
  8
PART_PADS_SMD_TOP
100
AcDbCircle
 10
21040.0
 20
36510.0
 30
0.0
 40
400.0
  0
CIRCLE
  5
235
100
AcDbEntity
  8
PART_PADS_SMD_TOP
100
AcDbCircle
 10
20405.0
 20
35240.0
 30
0.0
 40
400.0
  0
CIRCLE
  5
236
100
AcDbEntity
  8
PART_PADS_SMD_TOP
100
AcDbCircle
 10
21675.0
 20
35240.0
 30
0.0
 40
400.0
  0
CIRCLE
  5
237
100
AcDbEntity
  8
PART_PADS_SMD_TOP
100
AcDbCircle
 10
22945.0
 20
37780.0
 30
0.0
 40
400.0
  0
CIRCLE
  5
238
100
AcDbEntity
  8
PART_PADS_SMD_TOP
100
AcDbCircle
 10
24215.0
 20
37780.0
 30
0.0
 40
400.0
  0
CIRCLE
  5
239
100
AcDbEntity
  8
PART_PADS_SMD_TOP
100
AcDbCircle
 10
23580.0
 20
36510.0
 30
0.0
 40
400.0
  0
CIRCLE
  5
23A
100
AcDbEntity
  8
PART_PADS_SMD_TOP
100
AcDbCircle
 10
22945.0
 20
35240.0
 30
0.0
 40
400.0
  0
CIRCLE
  5
23B
100
AcDbEntity
  8
PART_PADS_SMD_TOP
100
AcDbCircle
 10
24215.0
 20
35240.0
 30
0.0
 40
400.0
  0
CIRCLE
  5
23C
100
AcDbEntity
  8
PART_PADS_SMD_TOP
100
AcDbCircle
 10
25485.0
 20
37780.0
 30
0.0
 40
400.0
  0
CIRCLE
  5
23D
100
AcDbEntity
  8
PART_PADS_SMD_TOP
100
AcDbCircle
 10
26755.0
 20
37780.0
 30
0.0
 40
400.0
  0
CIRCLE
  5
23E
100
AcDbEntity
  8
PART_PADS_SMD_TOP
100
AcDbCircle
 10
26120.0
 20
36510.0
 30
0.0
 40
400.0
  0
CIRCLE
  5
23F
100
AcDbEntity
  8
PART_PADS_SMD_TOP
100
AcDbCircle
 10
25485.0
 20
35240.0
 30
0.0
 40
400.0
  0
CIRCLE
  5
240
100
AcDbEntity
  8
PART_PADS_SMD_TOP
100
AcDbCircle
 10
26755.0
 20
35240.0
 30
0.0
 40
400.0
  0
CIRCLE
  5
241
100
AcDbEntity
  8
PART_PADS_SMD_TOP
100
AcDbCircle
 10
28025.0
 20
37780.0
 30
0.0
 40
400.0
  0
CIRCLE
  5
242
100
AcDbEntity
  8
PART_PADS_SMD_TOP
100
AcDbCircle
 10
29295.0
 20
37780.0
 30
0.0
 40
400.0
  0
CIRCLE
  5
243
100
AcDbEntity
  8
PART_PADS_SMD_TOP
100
AcDbCircle
 10
28660.0
 20
36510.0
 30
0.0
 40
400.0
  0
CIRCLE
  5
244
100
AcDbEntity
  8
PART_PADS_SMD_TOP
100
AcDbCircle
 10
30565.0
 20
37780.0
 30
0.0
 40
400.0
  0
CIRCLE
  5
245
100
AcDbEntity
  8
PART_PADS_SMD_TOP
100
AcDbCircle
 10
31835.0
 20
37780.0
 30
0.0
 40
400.0
  0
CIRCLE
  5
246
100
AcDbEntity
  8
PART_PADS_SMD_TOP
100
AcDbCircle
 10
31200.0
 20
36510.0
 30
0.0
 40
400.0
  0
CIRCLE
  5
247
100
AcDbEntity
  8
PART_PADS_SMD_TOP
100
AcDbCircle
 10
33105.0
 20
37780.0
 30
0.0
 40
400.0
  0
CIRCLE
  5
248
100
AcDbEntity
  8
PART_PADS_SMD_TOP
100
AcDbCircle
 10
34375.0
 20
37780.0
 30
0.0
 40
400.0
  0
CIRCLE
  5
249
100
AcDbEntity
  8
PART_PADS_SMD_TOP
100
AcDbCircle
 10
33740.0
 20
36510.0
 30
0.0
 40
400.0
  0
CIRCLE
  5
24A
100
AcDbEntity
  8
PART_PADS_SMD_TOP
100
AcDbCircle
 10
34375.0
 20
35240.0
 30
0.0
 40
400.0
  0
CIRCLE
  5
24B
100
AcDbEntity
  8
PART_PADS_SMD_TOP
100
AcDbCircle
 10
35010.0
 20
33970.0
 30
0.0
 40
400.0
  0
CIRCLE
  5
24C
100
AcDbEntity
  8
PART_PADS_SMD_TOP
100
AcDbCircle
 10
33740.0
 20
33970.0
 30
0.0
 40
400.0
  0
CIRCLE
  5
24D
100
AcDbEntity
  8
PART_PADS_SMD_TOP
100
AcDbCircle
 10
33105.0
 20
35240.0
 30
0.0
 40
400.0
  0
CIRCLE
  5
24E
100
AcDbEntity
  8
PART_PADS_SMD_TOP
100
AcDbCircle
 10
32470.0
 20
33970.0
 30
0.0
 40
400.0
  0
CIRCLE
  5
24F
100
AcDbEntity
  8
PART_PADS_SMD_TOP
100
AcDbCircle
 10
34375.0
 20
32700.0
 30
0.0
 40
400.0
  0
CIRCLE
  5
250
100
AcDbEntity
  8
PART_PADS_SMD_TOP
100
AcDbCircle
 10
35010.0
 20
31430.0
 30
0.0
 40
400.0
  0
CIRCLE
  5
251
100
AcDbEntity
  8
PART_PADS_SMD_TOP
100
AcDbCircle
 10
33740.0
 20
31430.0
 30
0.0
 40
400.0
  0
CIRCLE
  5
252
100
AcDbEntity
  8
PART_PADS_SMD_TOP
100
AcDbCircle
 10
33105.0
 20
32700.0
 30
0.0
 40
400.0
  0
CIRCLE
  5
253
100
AcDbEntity
  8
PART_PADS_SMD_TOP
100
AcDbCircle
 10
32470.0
 20
31430.0
 30
0.0
 40
400.0
  0
CIRCLE
  5
254
100
AcDbEntity
  8
PART_PADS_SMD_TOP
100
AcDbCircle
 10
34375.0
 20
30160.0
 30
0.0
 40
400.0
  0
CIRCLE
  5
255
100
AcDbEntity
  8
PART_PADS_SMD_TOP
100
AcDbCircle
 10
35010.0
 20
28890.0
 30
0.0
 40
400.0
  0
CIRCLE
  5
256
100
AcDbEntity
  8
PART_PADS_SMD_TOP
100
AcDbCircle
 10
33740.0
 20
28890.0
 30
0.0
 40
400.0
  0
CIRCLE
  5
257
100
AcDbEntity
  8
PART_PADS_SMD_TOP
100
AcDbCircle
 10
33105.0
 20
30160.0
 30
0.0
 40
400.0
  0
CIRCLE
  5
258
100
AcDbEntity
  8
PART_PADS_SMD_TOP
100
AcDbCircle
 10
32470.0
 20
28890.0
 30
0.0
 40
400.0
  0
CIRCLE
  5
259
100
AcDbEntity
  8
PART_PADS_SMD_TOP
100
AcDbCircle
 10
34375.0
 20
27620.0
 30
0.0
 40
400.0
  0
CIRCLE
  5
25A
100
AcDbEntity
  8
PART_PADS_SMD_TOP
100
AcDbCircle
 10
35010.0
 20
26350.0
 30
0.0
 40
400.0
  0
CIRCLE
  5
25B
100
AcDbEntity
  8
PART_PADS_SMD_TOP
100
AcDbCircle
 10
33740.0
 20
26350.0
 30
0.0
 40
400.0
  0
CIRCLE
  5
25C
100
AcDbEntity
  8
PART_PADS_SMD_TOP
100
AcDbCircle
 10
33105.0
 20
27620.0
 30
0.0
 40
400.0
  0
CIRCLE
  5
25D
100
AcDbEntity
  8
PART_PADS_SMD_TOP
100
AcDbCircle
 10
32470.0
 20
26350.0
 30
0.0
 40
400.0
  0
CIRCLE
  5
25E
100
AcDbEntity
  8
PART_PADS_SMD_TOP
100
AcDbCircle
 10
34375.0
 20
25080.0
 30
0.0
 40
400.0
  0
CIRCLE
  5
25F
100
AcDbEntity
  8
PART_PADS_SMD_TOP
100
AcDbCircle
 10
35010.0
 20
23810.0
 30
0.0
 40
400.0
  0
CIRCLE
  5
260
100
AcDbEntity
  8
PART_PADS_SMD_TOP
100
AcDbCircle
 10
33740.0
 20
23810.0
 30
0.0
 40
400.0
  0
CIRCLE
  5
261
100
AcDbEntity
  8
PART_PADS_SMD_TOP
100
AcDbCircle
 10
33105.0
 20
25080.0
 30
0.0
 40
400.0
  0
CIRCLE
  5
262
100
AcDbEntity
  8
PART_PADS_SMD_TOP
100
AcDbCircle
 10
32470.0
 20
23810.0
 30
0.0
 40
400.0
  0
CIRCLE
  5
263
100
AcDbEntity
  8
PART_PADS_SMD_TOP
100
AcDbCircle
 10
34375.0
 20
22540.0
 30
0.0
 40
400.0
  0
CIRCLE
  5
264
100
AcDbEntity
  8
PART_PADS_SMD_TOP
100
AcDbCircle
 10
35010.0
 20
21270.0
 30
0.0
 40
400.0
  0
CIRCLE
  5
265
100
AcDbEntity
  8
PART_PADS_SMD_TOP
100
AcDbCircle
 10
33740.0
 20
21270.0
 30
0.0
 40
400.0
  0
CIRCLE
  5
266
100
AcDbEntity
  8
PART_PADS_SMD_TOP
100
AcDbCircle
 10
33105.0
 20
22540.0
 30
0.0
 40
400.0
  0
CIRCLE
  5
267
100
AcDbEntity
  8
PART_PADS_SMD_TOP
100
AcDbCircle
 10
32470.0
 20
21270.0
 30
0.0
 40
400.0
  0
CIRCLE
  5
268
100
AcDbEntity
  8
PART_PADS_SMD_TOP
100
AcDbCircle
 10
34375.0
 20
20000.0
 30
0.0
 40
400.0
  0
CIRCLE
  5
269
100
AcDbEntity
  8
PART_PADS_SMD_TOP
100
AcDbCircle
 10
35010.0
 20
18730.0
 30
0.0
 40
400.0
  0
CIRCLE
  5
26A
100
AcDbEntity
  8
PART_PADS_SMD_TOP
100
AcDbCircle
 10
33740.0
 20
18730.0
 30
0.0
 40
400.0
  0
CIRCLE
  5
26B
100
AcDbEntity
  8
PART_PADS_SMD_TOP
100
AcDbCircle
 10
33105.0
 20
20000.0
 30
0.0
 40
400.0
  0
CIRCLE
  5
26C
100
AcDbEntity
  8
PART_PADS_SMD_TOP
100
AcDbCircle
 10
32470.0
 20
18730.0
 30
0.0
 40
400.0
  0
CIRCLE
  5
26D
100
AcDbEntity
  8
PART_PADS_SMD_TOP
100
AcDbCircle
 10
34375.0
 20
17460.0
 30
0.0
 40
400.0
  0
CIRCLE
  5
26E
100
AcDbEntity
  8
PART_PADS_SMD_TOP
100
AcDbCircle
 10
35010.0
 20
16190.0
 30
0.0
 40
400.0
  0
CIRCLE
  5
26F
100
AcDbEntity
  8
PART_PADS_SMD_TOP
100
AcDbCircle
 10
33740.0
 20
16190.0
 30
0.0
 40
400.0
  0
CIRCLE
  5
270
100
AcDbEntity
  8
PART_PADS_SMD_TOP
100
AcDbCircle
 10
33105.0
 20
17460.0
 30
0.0
 40
400.0
  0
CIRCLE
  5
271
100
AcDbEntity
  8
PART_PADS_SMD_TOP
100
AcDbCircle
 10
32470.0
 20
16190.0
 30
0.0
 40
400.0
  0
CIRCLE
  5
272
100
AcDbEntity
  8
PART_PADS_SMD_TOP
100
AcDbCircle
 10
34375.0
 20
14920.0
 30
0.0
 40
400.0
  0
CIRCLE
  5
273
100
AcDbEntity
  8
PART_PADS_SMD_TOP
100
AcDbCircle
 10
35010.0
 20
13650.0
 30
0.0
 40
400.0
  0
CIRCLE
  5
274
100
AcDbEntity
  8
PART_PADS_SMD_TOP
100
AcDbCircle
 10
33740.0
 20
13650.0
 30
0.0
 40
400.0
  0
CIRCLE
  5
275
100
AcDbEntity
  8
PART_PADS_SMD_TOP
100
AcDbCircle
 10
33105.0
 20
14920.0
 30
0.0
 40
400.0
  0
CIRCLE
  5
276
100
AcDbEntity
  8
PART_PADS_SMD_TOP
100
AcDbCircle
 10
32470.0
 20
13650.0
 30
0.0
 40
400.0
  0
CIRCLE
  5
277
100
AcDbEntity
  8
PART_PADS_SMD_TOP
100
AcDbCircle
 10
34375.0
 20
12380.0
 30
0.0
 40
400.0
  0
CIRCLE
  5
278
100
AcDbEntity
  8
PART_PADS_SMD_TOP
100
AcDbCircle
 10
35010.0
 20
11110.0
 30
0.0
 40
400.0
  0
CIRCLE
  5
279
100
AcDbEntity
  8
PART_PADS_SMD_TOP
100
AcDbCircle
 10
33740.0
 20
11110.0
 30
0.0
 40
400.0
  0
CIRCLE
  5
27A
100
AcDbEntity
  8
PART_PADS_SMD_TOP
100
AcDbCircle
 10
33105.0
 20
12380.0
 30
0.0
 40
400.0
  0
CIRCLE
  5
27B
100
AcDbEntity
  8
PART_PADS_SMD_TOP
100
AcDbCircle
 10
32470.0
 20
11110.0
 30
0.0
 40
400.0
  0
CIRCLE
  5
27C
100
AcDbEntity
  8
PART_PADS_SMD_TOP
100
AcDbCircle
 10
34375.0
 20
9840.0
 30
0.0
 40
400.0
  0
CIRCLE
  5
27D
100
AcDbEntity
  8
PART_PADS_SMD_TOP
100
AcDbCircle
 10
35010.0
 20
8570.0
 30
0.0
 40
400.0
  0
CIRCLE
  5
27E
100
AcDbEntity
  8
PART_PADS_SMD_TOP
100
AcDbCircle
 10
33740.0
 20
8570.0
 30
0.0
 40
400.0
  0
CIRCLE
  5
27F
100
AcDbEntity
  8
PART_PADS_SMD_TOP
100
AcDbCircle
 10
33105.0
 20
9840.0
 30
0.0
 40
400.0
  0
CIRCLE
  5
280
100
AcDbEntity
  8
PART_PADS_SMD_TOP
100
AcDbCircle
 10
32470.0
 20
8570.0
 30
0.0
 40
400.0
  0
CIRCLE
  5
281
100
AcDbEntity
  8
PART_PADS_SMD_TOP
100
AcDbCircle
 10
34375.0
 20
7300.0
 30
0.0
 40
400.0
  0
CIRCLE
  5
282
100
AcDbEntity
  8
PART_PADS_SMD_TOP
100
AcDbCircle
 10
35010.0
 20
6030.0
 30
0.0
 40
400.0
  0
CIRCLE
  5
283
100
AcDbEntity
  8
PART_PADS_SMD_TOP
100
AcDbCircle
 10
33740.0
 20
6030.0
 30
0.0
 40
400.0
  0
CIRCLE
  5
284
100
AcDbEntity
  8
PART_PADS_SMD_TOP
100
AcDbCircle
 10
33105.0
 20
7300.0
 30
0.0
 40
400.0
  0
CIRCLE
  5
285
100
AcDbEntity
  8
PART_PADS_SMD_TOP
100
AcDbCircle
 10
32470.0
 20
6030.0
 30
0.0
 40
400.0
  0
CIRCLE
  5
286
100
AcDbEntity
  8
PART_PADS_SMD_TOP
100
AcDbCircle
 10
34375.0
 20
4760.0
 30
0.0
 40
400.0
  0
CIRCLE
  5
287
100
AcDbEntity
  8
PART_PADS_SMD_TOP
100
AcDbCircle
 10
33105.0
 20
4760.0
 30
0.0
 40
400.0
  0
LWPOLYLINE
  5
288
100
AcDbEntity
  8
PART_PADS_SMD_TOP
100
AcDbPolyline
 90
        11
 70
         1
 43
0.0
 10
37995.0
 20
300.0
 10
34495.0
 20
300.0
 10
34495.0
 20
1000.0
 10
34895.0
 20
1400.0
 10
35658.263
 20
1400.0
 42
0.036540
 10
35767.737
 20
1400.0
 10
36045.0
 20
1400.0
 10
36495.0
 20
1850.0
 10
36495.0
 20
2500.0
 10
37846.7
 20
2500.0
 42
0.049070
 10
37995.0
 20
1992.54
  0
LWPOLYLINE
  5
289
100
AcDbEntity
  8
PART_PADS_SMD_TOP
100
AcDbPolyline
 90
        5
 70
         1
 43
0.0
 10
-846.7
 20
37500.0
 42
0.050306
 10
-1000.0
 20
38019.804
 10
-1000.0
 20
39700.0
 10
1000.0
 20
39700.0
 10
1000.0
 20
37500.0
  0
LWPOLYLINE
  5
28A
100
AcDbEntity
  8
PART_PADS_SMD_TOP
100
AcDbPolyline
 90
        4
 70
         1
 43
0.0
 10
-1000.0
 20
300.0
 10
-1000.0
 20
2500.0
 10
1000.0
 20
2500.0
 10
1000.0
 20
300.0
  0
LWPOLYLINE
  5
28B
100
AcDbEntity
  8
PART_PADS_SMD_TOP
100
AcDbPolyline
 90
        4
 70
         1
 43
0.0
 10
36000.0
 20
37500.0
 10
36000.0
 20
39700.0
 10
38000.0
 20
39700.0
 10
38000.0
 20
37500.0
  0
TEXT
  5
28C
100
AcDbEntity
  8
PIN_NUMBERS_TOP
100
AcDbText
 10
28859.136
 20
7077.496
 30
0.0
 40
508.000000
 41
1.000000
  1
A1
  7
COURIER_NEW
 72
 1
 11
29295.0
 21
7300.0
 31
0.0
100
AcDbText
 73
 2
  0
TEXT
  5
28D
100
AcDbEntity
  8
PIN_NUMBERS_TOP
100
AcDbText
 10
27589.136
 20
7077.496
 30
0.0
 40
508.000000
 41
1.000000
  1
A2
  7
COURIER_NEW
 72
 1
 11
28025.0
 21
7300.0
 31
0.0
100
AcDbText
 73
 2
  0
TEXT
  5
28E
100
AcDbEntity
  8
PIN_NUMBERS_TOP
100
AcDbText
 10
28224.136
 20
8347.496
 30
0.0
 40
508.000000
 41
1.000000
  1
A3
  7
COURIER_NEW
 72
 1
 11
28660.0
 21
8570.0
 31
0.0
100
AcDbText
 73
 2
  0
TEXT
  5
28F
100
AcDbEntity
  8
PIN_NUMBERS_TOP
100
AcDbText
 10
28859.136
 20
9617.496
 30
0.0
 40
508.000000
 41
1.000000
  1
A4
  7
COURIER_NEW
 72
 1
 11
29295.0
 21
9840.0
 31
0.0
100
AcDbText
 73
 2
  0
TEXT
  5
290
100
AcDbEntity
  8
PIN_NUMBERS_TOP
100
AcDbText
 10
27589.136
 20
9617.496
 30
0.0
 40
508.000000
 41
1.000000
  1
A5
  7
COURIER_NEW
 72
 1
 11
28025.0
 21
9840.0
 31
0.0
100
AcDbText
 73
 2
  0
TEXT
  5
291
100
AcDbEntity
  8
PIN_NUMBERS_TOP
100
AcDbText
 10
26319.136
 20
7077.496
 30
0.0
 40
508.000000
 41
1.000000
  1
A6
  7
COURIER_NEW
 72
 1
 11
26755.0
 21
7300.0
 31
0.0
100
AcDbText
 73
 2
  0
TEXT
  5
292
100
AcDbEntity
  8
PIN_NUMBERS_TOP
100
AcDbText
 10
25049.136
 20
7077.496
 30
0.0
 40
508.000000
 41
1.000000
  1
A7
  7
COURIER_NEW
 72
 1
 11
25485.0
 21
7300.0
 31
0.0
100
AcDbText
 73
 2
  0
TEXT
  5
293
100
AcDbEntity
  8
PIN_NUMBERS_TOP
100
AcDbText
 10
25684.136
 20
8347.496
 30
0.0
 40
508.000000
 41
1.000000
  1
A8
  7
COURIER_NEW
 72
 1
 11
26120.0
 21
8570.0
 31
0.0
100
AcDbText
 73
 2
  0
TEXT
  5
294
100
AcDbEntity
  8
PIN_NUMBERS_TOP
100
AcDbText
 10
26319.136
 20
9617.496
 30
0.0
 40
508.000000
 41
1.000000
  1
A9
  7
COURIER_NEW
 72
 1
 11
26755.0
 21
9840.0
 31
0.0
100
AcDbText
 73
 2
  0
TEXT
  5
295
100
AcDbEntity
  8
PIN_NUMBERS_TOP
100
AcDbText
 10
24831.204
 20
9617.496
 30
0.0
 40
508.000000
 41
1.000000
  1
A10
  7
COURIER_NEW
 72
 1
 11
25485.0
 21
9840.0
 31
0.0
100
AcDbText
 73
 2
  0
TEXT
  5
296
100
AcDbEntity
  8
PIN_NUMBERS_TOP
100
AcDbText
 10
23561.204
 20
7077.496
 30
0.0
 40
508.000000
 41
1.000000
  1
A11
  7
COURIER_NEW
 72
 1
 11
24215.0
 21
7300.0
 31
0.0
100
AcDbText
 73
 2
  0
TEXT
  5
297
100
AcDbEntity
  8
PIN_NUMBERS_TOP
100
AcDbText
 10
22291.204
 20
7077.496
 30
0.0
 40
508.000000
 41
1.000000
  1
A12
  7
COURIER_NEW
 72
 1
 11
22945.0
 21
7300.0
 31
0.0
100
AcDbText
 73
 2
  0
TEXT
  5
298
100
AcDbEntity
  8
PIN_NUMBERS_TOP
100
AcDbText
 10
22926.204
 20
8347.496
 30
0.0
 40
508.000000
 41
1.000000
  1
A13
  7
COURIER_NEW
 72
 1
 11
23580.0
 21
8570.0
 31
0.0
100
AcDbText
 73
 2
  0
TEXT
  5
299
100
AcDbEntity
  8
PIN_NUMBERS_TOP
100
AcDbText
 10
23561.204
 20
9617.496
 30
0.0
 40
508.000000
 41
1.000000
  1
A14
  7
COURIER_NEW
 72
 1
 11
24215.0
 21
9840.0
 31
0.0
100
AcDbText
 73
 2
  0
TEXT
  5
29A
100
AcDbEntity
  8
PIN_NUMBERS_TOP
100
AcDbText
 10
22291.204
 20
9617.496
 30
0.0
 40
508.000000
 41
1.000000
  1
A15
  7
COURIER_NEW
 72
 1
 11
22945.0
 21
9840.0
 31
0.0
100
AcDbText
 73
 2
  0
TEXT
  5
29B
100
AcDbEntity
  8
PIN_NUMBERS_TOP
100
AcDbText
 10
21021.204
 20
7077.496
 30
0.0
 40
508.000000
 41
1.000000
  1
A16
  7
COURIER_NEW
 72
 1
 11
21675.0
 21
7300.0
 31
0.0
100
AcDbText
 73
 2
  0
TEXT
  5
29C
100
AcDbEntity
  8
PIN_NUMBERS_TOP
100
AcDbText
 10
19751.204
 20
7077.496
 30
0.0
 40
508.000000
 41
1.000000
  1
A17
  7
COURIER_NEW
 72
 1
 11
20405.0
 21
7300.0
 31
0.0
100
AcDbText
 73
 2
  0
TEXT
  5
29D
100
AcDbEntity
  8
PIN_NUMBERS_TOP
100
AcDbText
 10
20386.204
 20
8347.496
 30
0.0
 40
508.000000
 41
1.000000
  1
A18
  7
COURIER_NEW
 72
 1
 11
21040.0
 21
8570.0
 31
0.0
100
AcDbText
 73
 2
  0
TEXT
  5
29E
100
AcDbEntity
  8
PIN_NUMBERS_TOP
100
AcDbText
 10
21021.204
 20
9617.496
 30
0.0
 40
508.000000
 41
1.000000
  1
A19
  7
COURIER_NEW
 72
 1
 11
21675.0
 21
9840.0
 31
0.0
100
AcDbText
 73
 2
  0
TEXT
  5
29F
100
AcDbEntity
  8
PIN_NUMBERS_TOP
100
AcDbText
 10
19751.204
 20
9617.496
 30
0.0
 40
508.000000
 41
1.000000
  1
A20
  7
COURIER_NEW
 72
 1
 11
20405.0
 21
9840.0
 31
0.0
100
AcDbText
 73
 2
  0
TEXT
  5
2A0
100
AcDbEntity
  8
PIN_NUMBERS_TOP
100
AcDbText
 10
18481.204
 20
7077.496
 30
0.0
 40
508.000000
 41
1.000000
  1
A21
  7
COURIER_NEW
 72
 1
 11
19135.0
 21
7300.0
 31
0.0
100
AcDbText
 73
 2
  0
TEXT
  5
2A1
100
AcDbEntity
  8
PIN_NUMBERS_TOP
100
AcDbText
 10
17211.204
 20
7077.496
 30
0.0
 40
508.000000
 41
1.000000
  1
A22
  7
COURIER_NEW
 72
 1
 11
17865.0
 21
7300.0
 31
0.0
100
AcDbText
 73
 2
  0
TEXT
  5
2A2
100
AcDbEntity
  8
PIN_NUMBERS_TOP
100
AcDbText
 10
17846.204
 20
8347.496
 30
0.0
 40
508.000000
 41
1.000000
  1
A23
  7
COURIER_NEW
 72
 1
 11
18500.0
 21
8570.0
 31
0.0
100
AcDbText
 73
 2
  0
TEXT
  5
2A3
100
AcDbEntity
  8
PIN_NUMBERS_TOP
100
AcDbText
 10
18481.204
 20
9617.496
 30
0.0
 40
508.000000
 41
1.000000
  1
A24
  7
COURIER_NEW
 72
 1
 11
19135.0
 21
9840.0
 31
0.0
100
AcDbText
 73
 2
  0
TEXT
  5
2A4
100
AcDbEntity
  8
PIN_NUMBERS_TOP
100
AcDbText
 10
17211.204
 20
9617.496
 30
0.0
 40
508.000000
 41
1.000000
  1
A25
  7
COURIER_NEW
 72
 1
 11
17865.0
 21
9840.0
 31
0.0
100
AcDbText
 73
 2
  0
TEXT
  5
2A5
100
AcDbEntity
  8
PIN_NUMBERS_TOP
100
AcDbText
 10
15941.204
 20
7077.496
 30
0.0
 40
508.000000
 41
1.000000
  1
A26
  7
COURIER_NEW
 72
 1
 11
16595.0
 21
7300.0
 31
0.0
100
AcDbText
 73
 2
  0
TEXT
  5
2A6
100
AcDbEntity
  8
PIN_NUMBERS_TOP
100
AcDbText
 10
14671.204
 20
7077.496
 30
0.0
 40
508.000000
 41
1.000000
  1
A27
  7
COURIER_NEW
 72
 1
 11
15325.0
 21
7300.0
 31
0.0
100
AcDbText
 73
 2
  0
TEXT
  5
2A7
100
AcDbEntity
  8
PIN_NUMBERS_TOP
100
AcDbText
 10
15306.204
 20
8347.496
 30
0.0
 40
508.000000
 41
1.000000
  1
A28
  7
COURIER_NEW
 72
 1
 11
15960.0
 21
8570.0
 31
0.0
100
AcDbText
 73
 2
  0
TEXT
  5
2A8
100
AcDbEntity
  8
PIN_NUMBERS_TOP
100
AcDbText
 10
15941.204
 20
9617.496
 30
0.0
 40
508.000000
 41
1.000000
  1
A29
  7
COURIER_NEW
 72
 1
 11
16595.0
 21
9840.0
 31
0.0
100
AcDbText
 73
 2
  0
TEXT
  5
2A9
100
AcDbEntity
  8
PIN_NUMBERS_TOP
100
AcDbText
 10
14671.204
 20
9617.496
 30
0.0
 40
508.000000
 41
1.000000
  1
A30
  7
COURIER_NEW
 72
 1
 11
15325.0
 21
9840.0
 31
0.0
100
AcDbText
 73
 2
  0
TEXT
  5
2AA
100
AcDbEntity
  8
PIN_NUMBERS_TOP
100
AcDbText
 10
13401.204
 20
7077.496
 30
0.0
 40
508.000000
 41
1.000000
  1
A31
  7
COURIER_NEW
 72
 1
 11
14055.0
 21
7300.0
 31
0.0
100
AcDbText
 73
 2
  0
TEXT
  5
2AB
100
AcDbEntity
  8
PIN_NUMBERS_TOP
100
AcDbText
 10
12131.204
 20
7077.496
 30
0.0
 40
508.000000
 41
1.000000
  1
A32
  7
COURIER_NEW
 72
 1
 11
12785.0
 21
7300.0
 31
0.0
100
AcDbText
 73
 2
  0
TEXT
  5
2AC
100
AcDbEntity
  8
PIN_NUMBERS_TOP
100
AcDbText
 10
12766.204
 20
8347.496
 30
0.0
 40
508.000000
 41
1.000000
  1
A33
  7
COURIER_NEW
 72
 1
 11
13420.0
 21
8570.0
 31
0.0
100
AcDbText
 73
 2
  0
TEXT
  5
2AD
100
AcDbEntity
  8
PIN_NUMBERS_TOP
100
AcDbText
 10
13401.204
 20
9617.496
 30
0.0
 40
508.000000
 41
1.000000
  1
A34
  7
COURIER_NEW
 72
 1
 11
14055.0
 21
9840.0
 31
0.0
100
AcDbText
 73
 2
  0
TEXT
  5
2AE
100
AcDbEntity
  8
PIN_NUMBERS_TOP
100
AcDbText
 10
12131.204
 20
9617.496
 30
0.0
 40
508.000000
 41
1.000000
  1
A35
  7
COURIER_NEW
 72
 1
 11
12785.0
 21
9840.0
 31
0.0
100
AcDbText
 73
 2
  0
TEXT
  5
2AF
100
AcDbEntity
  8
PIN_NUMBERS_TOP
100
AcDbText
 10
10861.204
 20
7077.496
 30
0.0
 40
508.000000
 41
1.000000
  1
A36
  7
COURIER_NEW
 72
 1
 11
11515.0
 21
7300.0
 31
0.0
100
AcDbText
 73
 2
  0
TEXT
  5
2B0
100
AcDbEntity
  8
PIN_NUMBERS_TOP
100
AcDbText
 10
9591.204
 20
7077.496
 30
0.0
 40
508.000000
 41
1.000000
  1
A37
  7
COURIER_NEW
 72
 1
 11
10245.0
 21
7300.0
 31
0.0
100
AcDbText
 73
 2
  0
TEXT
  5
2B1
100
AcDbEntity
  8
PIN_NUMBERS_TOP
100
AcDbText
 10
10226.204
 20
8347.496
 30
0.0
 40
508.000000
 41
1.000000
  1
A38
  7
COURIER_NEW
 72
 1
 11
10880.0
 21
8570.0
 31
0.0
100
AcDbText
 73
 2
  0
TEXT
  5
2B2
100
AcDbEntity
  8
PIN_NUMBERS_TOP
100
AcDbText
 10
10861.204
 20
9617.496
 30
0.0
 40
508.000000
 41
1.000000
  1
A39
  7
COURIER_NEW
 72
 1
 11
11515.0
 21
9840.0
 31
0.0
100
AcDbText
 73
 2
  0
TEXT
  5
2B3
100
AcDbEntity
  8
PIN_NUMBERS_TOP
100
AcDbText
 10
9591.204
 20
9617.496
 30
0.0
 40
508.000000
 41
1.000000
  1
A40
  7
COURIER_NEW
 72
 1
 11
10245.0
 21
9840.0
 31
0.0
100
AcDbText
 73
 2
  0
TEXT
  5
2B4
100
AcDbEntity
  8
PIN_NUMBERS_TOP
100
AcDbText
 10
8321.204
 20
7077.496
 30
0.0
 40
508.000000
 41
1.000000
  1
A41
  7
COURIER_NEW
 72
 1
 11
8975.0
 21
7300.0
 31
0.0
100
AcDbText
 73
 2
  0
TEXT
  5
2B5
100
AcDbEntity
  8
PIN_NUMBERS_TOP
100
AcDbText
 10
7051.204
 20
7077.496
 30
0.0
 40
508.000000
 41
1.000000
  1
A42
  7
COURIER_NEW
 72
 1
 11
7705.0
 21
7300.0
 31
0.0
100
AcDbText
 73
 2
  0
TEXT
  5
2B6
100
AcDbEntity
  8
PIN_NUMBERS_TOP
100
AcDbText
 10
7686.204
 20
8347.496
 30
0.0
 40
508.000000
 41
1.000000
  1
A43
  7
COURIER_NEW
 72
 1
 11
8340.0
 21
8570.0
 31
0.0
100
AcDbText
 73
 2
  0
TEXT
  5
2B7
100
AcDbEntity
  8
PIN_NUMBERS_TOP
100
AcDbText
 10
8321.204
 20
9617.496
 30
0.0
 40
508.000000
 41
1.000000
  1
A44
  7
COURIER_NEW
 72
 1
 11
8975.0
 21
9840.0
 31
0.0
100
AcDbText
 73
 2
  0
TEXT
  5
2B8
100
AcDbEntity
  8
PIN_NUMBERS_TOP
100
AcDbText
 10
7051.204
 20
9617.496
 30
0.0
 40
508.000000
 41
1.000000
  1
A45
  7
COURIER_NEW
 72
 1
 11
7705.0
 21
9840.0
 31
0.0
100
AcDbText
 73
 2
  0
TEXT
  5
2B9
100
AcDbEntity
  8
PIN_NUMBERS_TOP
100
AcDbText
 10
7686.204
 20
10887.496
 30
0.0
 40
508.000000
 41
1.000000
  1
A46
  7
COURIER_NEW
 72
 1
 11
8340.0
 21
11110.0
 31
0.0
100
AcDbText
 73
 2
  0
TEXT
  5
2BA
100
AcDbEntity
  8
PIN_NUMBERS_TOP
100
AcDbText
 10
7051.204
 20
12157.496
 30
0.0
 40
508.000000
 41
1.000000
  1
A47
  7
COURIER_NEW
 72
 1
 11
7705.0
 21
12380.0
 31
0.0
100
AcDbText
 73
 2
  0
TEXT
  5
2BB
100
AcDbEntity
  8
PIN_NUMBERS_TOP
100
AcDbText
 10
8321.204
 20
12157.496
 30
0.0
 40
508.000000
 41
1.000000
  1
A48
  7
COURIER_NEW
 72
 1
 11
8975.0
 21
12380.0
 31
0.0
100
AcDbText
 73
 2
  0
TEXT
  5
2BC
100
AcDbEntity
  8
PIN_NUMBERS_TOP
100
AcDbText
 10
8956.204
 20
10887.496
 30
0.0
 40
508.000000
 41
1.000000
  1
A49
  7
COURIER_NEW
 72
 1
 11
9610.0
 21
11110.0
 31
0.0
100
AcDbText
 73
 2
  0
TEXT
  5
2BD
100
AcDbEntity
  8
PIN_NUMBERS_TOP
100
AcDbText
 10
9591.204
 20
12157.496
 30
0.0
 40
508.000000
 41
1.000000
  1
A50
  7
COURIER_NEW
 72
 1
 11
10245.0
 21
12380.0
 31
0.0
100
AcDbText
 73
 2
  0
TEXT
  5
2BE
100
AcDbEntity
  8
PIN_NUMBERS_TOP
100
AcDbText
 10
7686.204
 20
13427.496
 30
0.0
 40
508.000000
 41
1.000000
  1
A51
  7
COURIER_NEW
 72
 1
 11
8340.0
 21
13650.0
 31
0.0
100
AcDbText
 73
 2
  0
TEXT
  5
2BF
100
AcDbEntity
  8
PIN_NUMBERS_TOP
100
AcDbText
 10
7051.204
 20
14697.496
 30
0.0
 40
508.000000
 41
1.000000
  1
A52
  7
COURIER_NEW
 72
 1
 11
7705.0
 21
14920.0
 31
0.0
100
AcDbText
 73
 2
  0
TEXT
  5
2C0
100
AcDbEntity
  8
PIN_NUMBERS_TOP
100
AcDbText
 10
8321.204
 20
14697.496
 30
0.0
 40
508.000000
 41
1.000000
  1
A53
  7
COURIER_NEW
 72
 1
 11
8975.0
 21
14920.0
 31
0.0
100
AcDbText
 73
 2
  0
TEXT
  5
2C1
100
AcDbEntity
  8
PIN_NUMBERS_TOP
100
AcDbText
 10
8956.204
 20
13427.496
 30
0.0
 40
508.000000
 41
1.000000
  1
A54
  7
COURIER_NEW
 72
 1
 11
9610.0
 21
13650.0
 31
0.0
100
AcDbText
 73
 2
  0
TEXT
  5
2C2
100
AcDbEntity
  8
PIN_NUMBERS_TOP
100
AcDbText
 10
9591.204
 20
14697.496
 30
0.0
 40
508.000000
 41
1.000000
  1
A55
  7
COURIER_NEW
 72
 1
 11
10245.0
 21
14920.0
 31
0.0
100
AcDbText
 73
 2
  0
TEXT
  5
2C3
100
AcDbEntity
  8
PIN_NUMBERS_TOP
100
AcDbText
 10
7686.204
 20
15967.496
 30
0.0
 40
508.000000
 41
1.000000
  1
A56
  7
COURIER_NEW
 72
 1
 11
8340.0
 21
16190.0
 31
0.0
100
AcDbText
 73
 2
  0
TEXT
  5
2C4
100
AcDbEntity
  8
PIN_NUMBERS_TOP
100
AcDbText
 10
7051.204
 20
17237.496
 30
0.0
 40
508.000000
 41
1.000000
  1
A57
  7
COURIER_NEW
 72
 1
 11
7705.0
 21
17460.0
 31
0.0
100
AcDbText
 73
 2
  0
TEXT
  5
2C5
100
AcDbEntity
  8
PIN_NUMBERS_TOP
100
AcDbText
 10
8321.204
 20
17237.496
 30
0.0
 40
508.000000
 41
1.000000
  1
A58
  7
COURIER_NEW
 72
 1
 11
8975.0
 21
17460.0
 31
0.0
100
AcDbText
 73
 2
  0
TEXT
  5
2C6
100
AcDbEntity
  8
PIN_NUMBERS_TOP
100
AcDbText
 10
8956.204
 20
15967.496
 30
0.0
 40
508.000000
 41
1.000000
  1
A59
  7
COURIER_NEW
 72
 1
 11
9610.0
 21
16190.0
 31
0.0
100
AcDbText
 73
 2
  0
TEXT
  5
2C7
100
AcDbEntity
  8
PIN_NUMBERS_TOP
100
AcDbText
 10
9591.204
 20
17237.496
 30
0.0
 40
508.000000
 41
1.000000
  1
A60
  7
COURIER_NEW
 72
 1
 11
10245.0
 21
17460.0
 31
0.0
100
AcDbText
 73
 2
  0
TEXT
  5
2C8
100
AcDbEntity
  8
PIN_NUMBERS_TOP
100
AcDbText
 10
7686.204
 20
18507.496
 30
0.0
 40
508.000000
 41
1.000000
  1
A61
  7
COURIER_NEW
 72
 1
 11
8340.0
 21
18730.0
 31
0.0
100
AcDbText
 73
 2
  0
TEXT
  5
2C9
100
AcDbEntity
  8
PIN_NUMBERS_TOP
100
AcDbText
 10
7051.204
 20
19777.496
 30
0.0
 40
508.000000
 41
1.000000
  1
A62
  7
COURIER_NEW
 72
 1
 11
7705.0
 21
20000.0
 31
0.0
100
AcDbText
 73
 2
  0
TEXT
  5
2CA
100
AcDbEntity
  8
PIN_NUMBERS_TOP
100
AcDbText
 10
8321.204
 20
19777.496
 30
0.0
 40
508.000000
 41
1.000000
  1
A63
  7
COURIER_NEW
 72
 1
 11
8975.0
 21
20000.0
 31
0.0
100
AcDbText
 73
 2
  0
TEXT
  5
2CB
100
AcDbEntity
  8
PIN_NUMBERS_TOP
100
AcDbText
 10
8956.204
 20
18507.496
 30
0.0
 40
508.000000
 41
1.000000
  1
A64
  7
COURIER_NEW
 72
 1
 11
9610.0
 21
18730.0
 31
0.0
100
AcDbText
 73
 2
  0
TEXT
  5
2CC
100
AcDbEntity
  8
PIN_NUMBERS_TOP
100
AcDbText
 10
9591.204
 20
19777.496
 30
0.0
 40
508.000000
 41
1.000000
  1
A65
  7
COURIER_NEW
 72
 1
 11
10245.0
 21
20000.0
 31
0.0
100
AcDbText
 73
 2
  0
TEXT
  5
2CD
100
AcDbEntity
  8
PIN_NUMBERS_TOP
100
AcDbText
 10
7686.204
 20
21047.496
 30
0.0
 40
508.000000
 41
1.000000
  1
A66
  7
COURIER_NEW
 72
 1
 11
8340.0
 21
21270.0
 31
0.0
100
AcDbText
 73
 2
  0
TEXT
  5
2CE
100
AcDbEntity
  8
PIN_NUMBERS_TOP
100
AcDbText
 10
7051.204
 20
22317.496
 30
0.0
 40
508.000000
 41
1.000000
  1
A67
  7
COURIER_NEW
 72
 1
 11
7705.0
 21
22540.0
 31
0.0
100
AcDbText
 73
 2
  0
TEXT
  5
2CF
100
AcDbEntity
  8
PIN_NUMBERS_TOP
100
AcDbText
 10
8321.204
 20
22317.496
 30
0.0
 40
508.000000
 41
1.000000
  1
A68
  7
COURIER_NEW
 72
 1
 11
8975.0
 21
22540.0
 31
0.0
100
AcDbText
 73
 2
  0
TEXT
  5
2D0
100
AcDbEntity
  8
PIN_NUMBERS_TOP
100
AcDbText
 10
8956.204
 20
21047.496
 30
0.0
 40
508.000000
 41
1.000000
  1
A69
  7
COURIER_NEW
 72
 1
 11
9610.0
 21
21270.0
 31
0.0
100
AcDbText
 73
 2
  0
TEXT
  5
2D1
100
AcDbEntity
  8
PIN_NUMBERS_TOP
100
AcDbText
 10
9591.204
 20
22317.496
 30
0.0
 40
508.000000
 41
1.000000
  1
A70
  7
COURIER_NEW
 72
 1
 11
10245.0
 21
22540.0
 31
0.0
100
AcDbText
 73
 2
  0
TEXT
  5
2D2
100
AcDbEntity
  8
PIN_NUMBERS_TOP
100
AcDbText
 10
7686.204
 20
23587.496
 30
0.0
 40
508.000000
 41
1.000000
  1
A71
  7
COURIER_NEW
 72
 1
 11
8340.0
 21
23810.0
 31
0.0
100
AcDbText
 73
 2
  0
TEXT
  5
2D3
100
AcDbEntity
  8
PIN_NUMBERS_TOP
100
AcDbText
 10
7051.204
 20
24857.496
 30
0.0
 40
508.000000
 41
1.000000
  1
A72
  7
COURIER_NEW
 72
 1
 11
7705.0
 21
25080.0
 31
0.0
100
AcDbText
 73
 2
  0
TEXT
  5
2D4
100
AcDbEntity
  8
PIN_NUMBERS_TOP
100
AcDbText
 10
8321.204
 20
24857.496
 30
0.0
 40
508.000000
 41
1.000000
  1
A73
  7
COURIER_NEW
 72
 1
 11
8975.0
 21
25080.0
 31
0.0
100
AcDbText
 73
 2
  0
TEXT
  5
2D5
100
AcDbEntity
  8
PIN_NUMBERS_TOP
100
AcDbText
 10
8956.204
 20
23587.496
 30
0.0
 40
508.000000
 41
1.000000
  1
A74
  7
COURIER_NEW
 72
 1
 11
9610.0
 21
23810.0
 31
0.0
100
AcDbText
 73
 2
  0
TEXT
  5
2D6
100
AcDbEntity
  8
PIN_NUMBERS_TOP
100
AcDbText
 10
9591.204
 20
24857.496
 30
0.0
 40
508.000000
 41
1.000000
  1
A75
  7
COURIER_NEW
 72
 1
 11
10245.0
 21
25080.0
 31
0.0
100
AcDbText
 73
 2
  0
TEXT
  5
2D7
100
AcDbEntity
  8
PIN_NUMBERS_TOP
100
AcDbText
 10
7686.204
 20
26127.496
 30
0.0
 40
508.000000
 41
1.000000
  1
A76
  7
COURIER_NEW
 72
 1
 11
8340.0
 21
26350.0
 31
0.0
100
AcDbText
 73
 2
  0
TEXT
  5
2D8
100
AcDbEntity
  8
PIN_NUMBERS_TOP
100
AcDbText
 10
7051.204
 20
27397.496
 30
0.0
 40
508.000000
 41
1.000000
  1
A77
  7
COURIER_NEW
 72
 1
 11
7705.0
 21
27620.0
 31
0.0
100
AcDbText
 73
 2
  0
TEXT
  5
2D9
100
AcDbEntity
  8
PIN_NUMBERS_TOP
100
AcDbText
 10
8321.204
 20
27397.496
 30
0.0
 40
508.000000
 41
1.000000
  1
A78
  7
COURIER_NEW
 72
 1
 11
8975.0
 21
27620.0
 31
0.0
100
AcDbText
 73
 2
  0
TEXT
  5
2DA
100
AcDbEntity
  8
PIN_NUMBERS_TOP
100
AcDbText
 10
8956.204
 20
26127.496
 30
0.0
 40
508.000000
 41
1.000000
  1
A79
  7
COURIER_NEW
 72
 1
 11
9610.0
 21
26350.0
 31
0.0
100
AcDbText
 73
 2
  0
TEXT
  5
2DB
100
AcDbEntity
  8
PIN_NUMBERS_TOP
100
AcDbText
 10
9591.204
 20
27397.496
 30
0.0
 40
508.000000
 41
1.000000
  1
A80
  7
COURIER_NEW
 72
 1
 11
10245.0
 21
27620.0
 31
0.0
100
AcDbText
 73
 2
  0
TEXT
  5
2DC
100
AcDbEntity
  8
PIN_NUMBERS_TOP
100
AcDbText
 10
7686.204
 20
28667.496
 30
0.0
 40
508.000000
 41
1.000000
  1
A81
  7
COURIER_NEW
 72
 1
 11
8340.0
 21
28890.0
 31
0.0
100
AcDbText
 73
 2
  0
TEXT
  5
2DD
100
AcDbEntity
  8
PIN_NUMBERS_TOP
100
AcDbText
 10
8956.204
 20
28667.496
 30
0.0
 40
508.000000
 41
1.000000
  1
A82
  7
COURIER_NEW
 72
 1
 11
9610.0
 21
28890.0
 31
0.0
100
AcDbText
 73
 2
  0
TEXT
  5
2DE
100
AcDbEntity
  8
PIN_NUMBERS_TOP
100
AcDbText
 10
7051.204
 20
32477.496
 30
0.0
 40
508.000000
 41
1.000000
  1
A83
  7
COURIER_NEW
 72
 1
 11
7705.0
 21
32700.0
 31
0.0
100
AcDbText
 73
 2
  0
TEXT
  5
2DF
100
AcDbEntity
  8
PIN_NUMBERS_TOP
100
AcDbText
 10
8321.204
 20
32477.496
 30
0.0
 40
508.000000
 41
1.000000
  1
A84
  7
COURIER_NEW
 72
 1
 11
8975.0
 21
32700.0
 31
0.0
100
AcDbText
 73
 2
  0
TEXT
  5
2E0
100
AcDbEntity
  8
PIN_NUMBERS_TOP
100
AcDbText
 10
7686.204
 20
31207.496
 30
0.0
 40
508.000000
 41
1.000000
  1
A85
  7
COURIER_NEW
 72
 1
 11
8340.0
 21
31430.0
 31
0.0
100
AcDbText
 73
 2
  0
TEXT
  5
2E1
100
AcDbEntity
  8
PIN_NUMBERS_TOP
100
AcDbText
 10
7051.204
 20
29937.496
 30
0.0
 40
508.000000
 41
1.000000
  1
A86
  7
COURIER_NEW
 72
 1
 11
7705.0
 21
30160.0
 31
0.0
100
AcDbText
 73
 2
  0
TEXT
  5
2E2
100
AcDbEntity
  8
PIN_NUMBERS_TOP
100
AcDbText
 10
8321.204
 20
29937.496
 30
0.0
 40
508.000000
 41
1.000000
  1
A87
  7
COURIER_NEW
 72
 1
 11
8975.0
 21
30160.0
 31
0.0
100
AcDbText
 73
 2
  0
TEXT
  5
2E3
100
AcDbEntity
  8
PIN_NUMBERS_TOP
100
AcDbText
 10
9591.204
 20
32477.496
 30
0.0
 40
508.000000
 41
1.000000
  1
A88
  7
COURIER_NEW
 72
 1
 11
10245.0
 21
32700.0
 31
0.0
100
AcDbText
 73
 2
  0
TEXT
  5
2E4
100
AcDbEntity
  8
PIN_NUMBERS_TOP
100
AcDbText
 10
10861.204
 20
32477.496
 30
0.0
 40
508.000000
 41
1.000000
  1
A89
  7
COURIER_NEW
 72
 1
 11
11515.0
 21
32700.0
 31
0.0
100
AcDbText
 73
 2
  0
TEXT
  5
2E5
100
AcDbEntity
  8
PIN_NUMBERS_TOP
100
AcDbText
 10
10226.204
 20
31207.496
 30
0.0
 40
508.000000
 41
1.000000
  1
A90
  7
COURIER_NEW
 72
 1
 11
10880.0
 21
31430.0
 31
0.0
100
AcDbText
 73
 2
  0
TEXT
  5
2E6
100
AcDbEntity
  8
PIN_NUMBERS_TOP
100
AcDbText
 10
9591.204
 20
29937.496
 30
0.0
 40
508.000000
 41
1.000000
  1
A91
  7
COURIER_NEW
 72
 1
 11
10245.0
 21
30160.0
 31
0.0
100
AcDbText
 73
 2
  0
TEXT
  5
2E7
100
AcDbEntity
  8
PIN_NUMBERS_TOP
100
AcDbText
 10
10861.204
 20
29937.496
 30
0.0
 40
508.000000
 41
1.000000
  1
A92
  7
COURIER_NEW
 72
 1
 11
11515.0
 21
30160.0
 31
0.0
100
AcDbText
 73
 2
  0
TEXT
  5
2E8
100
AcDbEntity
  8
PIN_NUMBERS_TOP
100
AcDbText
 10
12131.204
 20
32477.496
 30
0.0
 40
508.000000
 41
1.000000
  1
A93
  7
COURIER_NEW
 72
 1
 11
12785.0
 21
32700.0
 31
0.0
100
AcDbText
 73
 2
  0
TEXT
  5
2E9
100
AcDbEntity
  8
PIN_NUMBERS_TOP
100
AcDbText
 10
13401.204
 20
32477.496
 30
0.0
 40
508.000000
 41
1.000000
  1
A94
  7
COURIER_NEW
 72
 1
 11
14055.0
 21
32700.0
 31
0.0
100
AcDbText
 73
 2
  0
TEXT
  5
2EA
100
AcDbEntity
  8
PIN_NUMBERS_TOP
100
AcDbText
 10
12766.204
 20
31207.496
 30
0.0
 40
508.000000
 41
1.000000
  1
A95
  7
COURIER_NEW
 72
 1
 11
13420.0
 21
31430.0
 31
0.0
100
AcDbText
 73
 2
  0
TEXT
  5
2EB
100
AcDbEntity
  8
PIN_NUMBERS_TOP
100
AcDbText
 10
12131.204
 20
29937.496
 30
0.0
 40
508.000000
 41
1.000000
  1
A96
  7
COURIER_NEW
 72
 1
 11
12785.0
 21
30160.0
 31
0.0
100
AcDbText
 73
 2
  0
TEXT
  5
2EC
100
AcDbEntity
  8
PIN_NUMBERS_TOP
100
AcDbText
 10
13401.204
 20
29937.496
 30
0.0
 40
508.000000
 41
1.000000
  1
A97
  7
COURIER_NEW
 72
 1
 11
14055.0
 21
30160.0
 31
0.0
100
AcDbText
 73
 2
  0
TEXT
  5
2ED
100
AcDbEntity
  8
PIN_NUMBERS_TOP
100
AcDbText
 10
14671.204
 20
32477.496
 30
0.0
 40
508.000000
 41
1.000000
  1
A98
  7
COURIER_NEW
 72
 1
 11
15325.0
 21
32700.0
 31
0.0
100
AcDbText
 73
 2
  0
TEXT
  5
2EE
100
AcDbEntity
  8
PIN_NUMBERS_TOP
100
AcDbText
 10
15941.204
 20
32477.496
 30
0.0
 40
508.000000
 41
1.000000
  1
A99
  7
COURIER_NEW
 72
 1
 11
16595.0
 21
32700.0
 31
0.0
100
AcDbText
 73
 2
  0
TEXT
  5
2EF
100
AcDbEntity
  8
PIN_NUMBERS_TOP
100
AcDbText
 10
15088.272
 20
31207.496
 30
0.0
 40
508.000000
 41
1.000000
  1
A100
  7
COURIER_NEW
 72
 1
 11
15960.0
 21
31430.0
 31
0.0
100
AcDbText
 73
 2
  0
TEXT
  5
2F0
100
AcDbEntity
  8
PIN_NUMBERS_TOP
100
AcDbText
 10
14453.272
 20
29937.496
 30
0.0
 40
508.000000
 41
1.000000
  1
A101
  7
COURIER_NEW
 72
 1
 11
15325.0
 21
30160.0
 31
0.0
100
AcDbText
 73
 2
  0
TEXT
  5
2F1
100
AcDbEntity
  8
PIN_NUMBERS_TOP
100
AcDbText
 10
15723.272
 20
29937.496
 30
0.0
 40
508.000000
 41
1.000000
  1
A102
  7
COURIER_NEW
 72
 1
 11
16595.0
 21
30160.0
 31
0.0
100
AcDbText
 73
 2
  0
TEXT
  5
2F2
100
AcDbEntity
  8
PIN_NUMBERS_TOP
100
AcDbText
 10
16993.272
 20
32477.496
 30
0.0
 40
508.000000
 41
1.000000
  1
A103
  7
COURIER_NEW
 72
 1
 11
17865.0
 21
32700.0
 31
0.0
100
AcDbText
 73
 2
  0
TEXT
  5
2F3
100
AcDbEntity
  8
PIN_NUMBERS_TOP
100
AcDbText
 10
18263.272
 20
32477.496
 30
0.0
 40
508.000000
 41
1.000000
  1
A104
  7
COURIER_NEW
 72
 1
 11
19135.0
 21
32700.0
 31
0.0
100
AcDbText
 73
 2
  0
TEXT
  5
2F4
100
AcDbEntity
  8
PIN_NUMBERS_TOP
100
AcDbText
 10
17628.272
 20
31207.496
 30
0.0
 40
508.000000
 41
1.000000
  1
A105
  7
COURIER_NEW
 72
 1
 11
18500.0
 21
31430.0
 31
0.0
100
AcDbText
 73
 2
  0
TEXT
  5
2F5
100
AcDbEntity
  8
PIN_NUMBERS_TOP
100
AcDbText
 10
16993.272
 20
29937.496
 30
0.0
 40
508.000000
 41
1.000000
  1
A106
  7
COURIER_NEW
 72
 1
 11
17865.0
 21
30160.0
 31
0.0
100
AcDbText
 73
 2
  0
TEXT
  5
2F6
100
AcDbEntity
  8
PIN_NUMBERS_TOP
100
AcDbText
 10
18263.272
 20
29937.496
 30
0.0
 40
508.000000
 41
1.000000
  1
A107
  7
COURIER_NEW
 72
 1
 11
19135.0
 21
30160.0
 31
0.0
100
AcDbText
 73
 2
  0
TEXT
  5
2F7
100
AcDbEntity
  8
PIN_NUMBERS_TOP
100
AcDbText
 10
19533.272
 20
32477.496
 30
0.0
 40
508.000000
 41
1.000000
  1
A108
  7
COURIER_NEW
 72
 1
 11
20405.0
 21
32700.0
 31
0.0
100
AcDbText
 73
 2
  0
TEXT
  5
2F8
100
AcDbEntity
  8
PIN_NUMBERS_TOP
100
AcDbText
 10
20803.272
 20
32477.496
 30
0.0
 40
508.000000
 41
1.000000
  1
A109
  7
COURIER_NEW
 72
 1
 11
21675.0
 21
32700.0
 31
0.0
100
AcDbText
 73
 2
  0
TEXT
  5
2F9
100
AcDbEntity
  8
PIN_NUMBERS_TOP
100
AcDbText
 10
20168.272
 20
31207.496
 30
0.0
 40
508.000000
 41
1.000000
  1
A110
  7
COURIER_NEW
 72
 1
 11
21040.0
 21
31430.0
 31
0.0
100
AcDbText
 73
 2
  0
TEXT
  5
2FA
100
AcDbEntity
  8
PIN_NUMBERS_TOP
100
AcDbText
 10
19533.272
 20
29937.496
 30
0.0
 40
508.000000
 41
1.000000
  1
A111
  7
COURIER_NEW
 72
 1
 11
20405.0
 21
30160.0
 31
0.0
100
AcDbText
 73
 2
  0
TEXT
  5
2FB
100
AcDbEntity
  8
PIN_NUMBERS_TOP
100
AcDbText
 10
20803.272
 20
29937.496
 30
0.0
 40
508.000000
 41
1.000000
  1
A112
  7
COURIER_NEW
 72
 1
 11
21675.0
 21
30160.0
 31
0.0
100
AcDbText
 73
 2
  0
TEXT
  5
2FC
100
AcDbEntity
  8
PIN_NUMBERS_TOP
100
AcDbText
 10
22073.272
 20
32477.496
 30
0.0
 40
508.000000
 41
1.000000
  1
A113
  7
COURIER_NEW
 72
 1
 11
22945.0
 21
32700.0
 31
0.0
100
AcDbText
 73
 2
  0
TEXT
  5
2FD
100
AcDbEntity
  8
PIN_NUMBERS_TOP
100
AcDbText
 10
23343.272
 20
32477.496
 30
0.0
 40
508.000000
 41
1.000000
  1
A114
  7
COURIER_NEW
 72
 1
 11
24215.0
 21
32700.0
 31
0.0
100
AcDbText
 73
 2
  0
TEXT
  5
2FE
100
AcDbEntity
  8
PIN_NUMBERS_TOP
100
AcDbText
 10
22708.272
 20
31207.496
 30
0.0
 40
508.000000
 41
1.000000
  1
A115
  7
COURIER_NEW
 72
 1
 11
23580.0
 21
31430.0
 31
0.0
100
AcDbText
 73
 2
  0
TEXT
  5
2FF
100
AcDbEntity
  8
PIN_NUMBERS_TOP
100
AcDbText
 10
22073.272
 20
29937.496
 30
0.0
 40
508.000000
 41
1.000000
  1
A116
  7
COURIER_NEW
 72
 1
 11
22945.0
 21
30160.0
 31
0.0
100
AcDbText
 73
 2
  0
TEXT
  5
300
100
AcDbEntity
  8
PIN_NUMBERS_TOP
100
AcDbText
 10
23343.272
 20
29937.496
 30
0.0
 40
508.000000
 41
1.000000
  1
A117
  7
COURIER_NEW
 72
 1
 11
24215.0
 21
30160.0
 31
0.0
100
AcDbText
 73
 2
  0
TEXT
  5
301
100
AcDbEntity
  8
PIN_NUMBERS_TOP
100
AcDbText
 10
24613.272
 20
32477.496
 30
0.0
 40
508.000000
 41
1.000000
  1
A118
  7
COURIER_NEW
 72
 1
 11
25485.0
 21
32700.0
 31
0.0
100
AcDbText
 73
 2
  0
TEXT
  5
302
100
AcDbEntity
  8
PIN_NUMBERS_TOP
100
AcDbText
 10
25883.272
 20
32477.496
 30
0.0
 40
508.000000
 41
1.000000
  1
A119
  7
COURIER_NEW
 72
 1
 11
26755.0
 21
32700.0
 31
0.0
100
AcDbText
 73
 2
  0
TEXT
  5
303
100
AcDbEntity
  8
PIN_NUMBERS_TOP
100
AcDbText
 10
25248.272
 20
31207.496
 30
0.0
 40
508.000000
 41
1.000000
  1
A120
  7
COURIER_NEW
 72
 1
 11
26120.0
 21
31430.0
 31
0.0
100
AcDbText
 73
 2
  0
TEXT
  5
304
100
AcDbEntity
  8
PIN_NUMBERS_TOP
100
AcDbText
 10
24613.272
 20
29937.496
 30
0.0
 40
508.000000
 41
1.000000
  1
A121
  7
COURIER_NEW
 72
 1
 11
25485.0
 21
30160.0
 31
0.0
100
AcDbText
 73
 2
  0
TEXT
  5
305
100
AcDbEntity
  8
PIN_NUMBERS_TOP
100
AcDbText
 10
25883.272
 20
29937.496
 30
0.0
 40
508.000000
 41
1.000000
  1
A122
  7
COURIER_NEW
 72
 1
 11
26755.0
 21
30160.0
 31
0.0
100
AcDbText
 73
 2
  0
TEXT
  5
306
100
AcDbEntity
  8
PIN_NUMBERS_TOP
100
AcDbText
 10
27153.272
 20
32477.496
 30
0.0
 40
508.000000
 41
1.000000
  1
A123
  7
COURIER_NEW
 72
 1
 11
28025.0
 21
32700.0
 31
0.0
100
AcDbText
 73
 2
  0
TEXT
  5
307
100
AcDbEntity
  8
PIN_NUMBERS_TOP
100
AcDbText
 10
28423.272
 20
32477.496
 30
0.0
 40
508.000000
 41
1.000000
  1
A124
  7
COURIER_NEW
 72
 1
 11
29295.0
 21
32700.0
 31
0.0
100
AcDbText
 73
 2
  0
TEXT
  5
308
100
AcDbEntity
  8
PIN_NUMBERS_TOP
100
AcDbText
 10
27788.272
 20
31207.496
 30
0.0
 40
508.000000
 41
1.000000
  1
A125
  7
COURIER_NEW
 72
 1
 11
28660.0
 21
31430.0
 31
0.0
100
AcDbText
 73
 2
  0
TEXT
  5
309
100
AcDbEntity
  8
PIN_NUMBERS_TOP
100
AcDbText
 10
27153.272
 20
29937.496
 30
0.0
 40
508.000000
 41
1.000000
  1
A126
  7
COURIER_NEW
 72
 1
 11
28025.0
 21
30160.0
 31
0.0
100
AcDbText
 73
 2
  0
TEXT
  5
30A
100
AcDbEntity
  8
PIN_NUMBERS_TOP
100
AcDbText
 10
28423.272
 20
29937.496
 30
0.0
 40
508.000000
 41
1.000000
  1
A127
  7
COURIER_NEW
 72
 1
 11
29295.0
 21
30160.0
 31
0.0
100
AcDbText
 73
 2
  0
TEXT
  5
30B
100
AcDbEntity
  8
PIN_NUMBERS_TOP
100
AcDbText
 10
27788.272
 20
28667.496
 30
0.0
 40
508.000000
 41
1.000000
  1
A128
  7
COURIER_NEW
 72
 1
 11
28660.0
 21
28890.0
 31
0.0
100
AcDbText
 73
 2
  0
TEXT
  5
30C
100
AcDbEntity
  8
PIN_NUMBERS_TOP
100
AcDbText
 10
28423.272
 20
27397.496
 30
0.0
 40
508.000000
 41
1.000000
  1
A129
  7
COURIER_NEW
 72
 1
 11
29295.0
 21
27620.0
 31
0.0
100
AcDbText
 73
 2
  0
TEXT
  5
30D
100
AcDbEntity
  8
PIN_NUMBERS_TOP
100
AcDbText
 10
27153.272
 20
27397.496
 30
0.0
 40
508.000000
 41
1.000000
  1
A130
  7
COURIER_NEW
 72
 1
 11
28025.0
 21
27620.0
 31
0.0
100
AcDbText
 73
 2
  0
TEXT
  5
30E
100
AcDbEntity
  8
PIN_NUMBERS_TOP
100
AcDbText
 10
26518.272
 20
28667.496
 30
0.0
 40
508.000000
 41
1.000000
  1
A131
  7
COURIER_NEW
 72
 1
 11
27390.0
 21
28890.0
 31
0.0
100
AcDbText
 73
 2
  0
TEXT
  5
30F
100
AcDbEntity
  8
PIN_NUMBERS_TOP
100
AcDbText
 10
25883.272
 20
27397.496
 30
0.0
 40
508.000000
 41
1.000000
  1
A132
  7
COURIER_NEW
 72
 1
 11
26755.0
 21
27620.0
 31
0.0
100
AcDbText
 73
 2
  0
TEXT
  5
310
100
AcDbEntity
  8
PIN_NUMBERS_TOP
100
AcDbText
 10
27788.272
 20
26127.496
 30
0.0
 40
508.000000
 41
1.000000
  1
A133
  7
COURIER_NEW
 72
 1
 11
28660.0
 21
26350.0
 31
0.0
100
AcDbText
 73
 2
  0
TEXT
  5
311
100
AcDbEntity
  8
PIN_NUMBERS_TOP
100
AcDbText
 10
28423.272
 20
24857.496
 30
0.0
 40
508.000000
 41
1.000000
  1
A134
  7
COURIER_NEW
 72
 1
 11
29295.0
 21
25080.0
 31
0.0
100
AcDbText
 73
 2
  0
TEXT
  5
312
100
AcDbEntity
  8
PIN_NUMBERS_TOP
100
AcDbText
 10
27153.272
 20
24857.496
 30
0.0
 40
508.000000
 41
1.000000
  1
A135
  7
COURIER_NEW
 72
 1
 11
28025.0
 21
25080.0
 31
0.0
100
AcDbText
 73
 2
  0
TEXT
  5
313
100
AcDbEntity
  8
PIN_NUMBERS_TOP
100
AcDbText
 10
26518.272
 20
26127.496
 30
0.0
 40
508.000000
 41
1.000000
  1
A136
  7
COURIER_NEW
 72
 1
 11
27390.0
 21
26350.0
 31
0.0
100
AcDbText
 73
 2
  0
TEXT
  5
314
100
AcDbEntity
  8
PIN_NUMBERS_TOP
100
AcDbText
 10
25883.272
 20
24857.496
 30
0.0
 40
508.000000
 41
1.000000
  1
A137
  7
COURIER_NEW
 72
 1
 11
26755.0
 21
25080.0
 31
0.0
100
AcDbText
 73
 2
  0
TEXT
  5
315
100
AcDbEntity
  8
PIN_NUMBERS_TOP
100
AcDbText
 10
27788.272
 20
23587.496
 30
0.0
 40
508.000000
 41
1.000000
  1
A138
  7
COURIER_NEW
 72
 1
 11
28660.0
 21
23810.0
 31
0.0
100
AcDbText
 73
 2
  0
TEXT
  5
316
100
AcDbEntity
  8
PIN_NUMBERS_TOP
100
AcDbText
 10
28423.272
 20
22317.496
 30
0.0
 40
508.000000
 41
1.000000
  1
A139
  7
COURIER_NEW
 72
 1
 11
29295.0
 21
22540.0
 31
0.0
100
AcDbText
 73
 2
  0
TEXT
  5
317
100
AcDbEntity
  8
PIN_NUMBERS_TOP
100
AcDbText
 10
27153.272
 20
22317.496
 30
0.0
 40
508.000000
 41
1.000000
  1
A140
  7
COURIER_NEW
 72
 1
 11
28025.0
 21
22540.0
 31
0.0
100
AcDbText
 73
 2
  0
TEXT
  5
318
100
AcDbEntity
  8
PIN_NUMBERS_TOP
100
AcDbText
 10
26518.272
 20
23587.496
 30
0.0
 40
508.000000
 41
1.000000
  1
A141
  7
COURIER_NEW
 72
 1
 11
27390.0
 21
23810.0
 31
0.0
100
AcDbText
 73
 2
  0
TEXT
  5
319
100
AcDbEntity
  8
PIN_NUMBERS_TOP
100
AcDbText
 10
25883.272
 20
22317.496
 30
0.0
 40
508.000000
 41
1.000000
  1
A142
  7
COURIER_NEW
 72
 1
 11
26755.0
 21
22540.0
 31
0.0
100
AcDbText
 73
 2
  0
TEXT
  5
31A
100
AcDbEntity
  8
PIN_NUMBERS_TOP
100
AcDbText
 10
27788.272
 20
21047.496
 30
0.0
 40
508.000000
 41
1.000000
  1
A143
  7
COURIER_NEW
 72
 1
 11
28660.0
 21
21270.0
 31
0.0
100
AcDbText
 73
 2
  0
TEXT
  5
31B
100
AcDbEntity
  8
PIN_NUMBERS_TOP
100
AcDbText
 10
28423.272
 20
19777.496
 30
0.0
 40
508.000000
 41
1.000000
  1
A144
  7
COURIER_NEW
 72
 1
 11
29295.0
 21
20000.0
 31
0.0
100
AcDbText
 73
 2
  0
TEXT
  5
31C
100
AcDbEntity
  8
PIN_NUMBERS_TOP
100
AcDbText
 10
27153.272
 20
19777.496
 30
0.0
 40
508.000000
 41
1.000000
  1
A145
  7
COURIER_NEW
 72
 1
 11
28025.0
 21
20000.0
 31
0.0
100
AcDbText
 73
 2
  0
TEXT
  5
31D
100
AcDbEntity
  8
PIN_NUMBERS_TOP
100
AcDbText
 10
26518.272
 20
21047.496
 30
0.0
 40
508.000000
 41
1.000000
  1
A146
  7
COURIER_NEW
 72
 1
 11
27390.0
 21
21270.0
 31
0.0
100
AcDbText
 73
 2
  0
TEXT
  5
31E
100
AcDbEntity
  8
PIN_NUMBERS_TOP
100
AcDbText
 10
25883.272
 20
19777.496
 30
0.0
 40
508.000000
 41
1.000000
  1
A147
  7
COURIER_NEW
 72
 1
 11
26755.0
 21
20000.0
 31
0.0
100
AcDbText
 73
 2
  0
TEXT
  5
31F
100
AcDbEntity
  8
PIN_NUMBERS_TOP
100
AcDbText
 10
27788.272
 20
18507.496
 30
0.0
 40
508.000000
 41
1.000000
  1
A148
  7
COURIER_NEW
 72
 1
 11
28660.0
 21
18730.0
 31
0.0
100
AcDbText
 73
 2
  0
TEXT
  5
320
100
AcDbEntity
  8
PIN_NUMBERS_TOP
100
AcDbText
 10
28423.272
 20
17237.496
 30
0.0
 40
508.000000
 41
1.000000
  1
A149
  7
COURIER_NEW
 72
 1
 11
29295.0
 21
17460.0
 31
0.0
100
AcDbText
 73
 2
  0
TEXT
  5
321
100
AcDbEntity
  8
PIN_NUMBERS_TOP
100
AcDbText
 10
27153.272
 20
17237.496
 30
0.0
 40
508.000000
 41
1.000000
  1
A150
  7
COURIER_NEW
 72
 1
 11
28025.0
 21
17460.0
 31
0.0
100
AcDbText
 73
 2
  0
TEXT
  5
322
100
AcDbEntity
  8
PIN_NUMBERS_TOP
100
AcDbText
 10
26518.272
 20
18507.496
 30
0.0
 40
508.000000
 41
1.000000
  1
A151
  7
COURIER_NEW
 72
 1
 11
27390.0
 21
18730.0
 31
0.0
100
AcDbText
 73
 2
  0
TEXT
  5
323
100
AcDbEntity
  8
PIN_NUMBERS_TOP
100
AcDbText
 10
25883.272
 20
17237.496
 30
0.0
 40
508.000000
 41
1.000000
  1
A152
  7
COURIER_NEW
 72
 1
 11
26755.0
 21
17460.0
 31
0.0
100
AcDbText
 73
 2
  0
TEXT
  5
324
100
AcDbEntity
  8
PIN_NUMBERS_TOP
100
AcDbText
 10
27788.272
 20
15967.496
 30
0.0
 40
508.000000
 41
1.000000
  1
A153
  7
COURIER_NEW
 72
 1
 11
28660.0
 21
16190.0
 31
0.0
100
AcDbText
 73
 2
  0
TEXT
  5
325
100
AcDbEntity
  8
PIN_NUMBERS_TOP
100
AcDbText
 10
28423.272
 20
14697.496
 30
0.0
 40
508.000000
 41
1.000000
  1
A154
  7
COURIER_NEW
 72
 1
 11
29295.0
 21
14920.0
 31
0.0
100
AcDbText
 73
 2
  0
TEXT
  5
326
100
AcDbEntity
  8
PIN_NUMBERS_TOP
100
AcDbText
 10
27153.272
 20
14697.496
 30
0.0
 40
508.000000
 41
1.000000
  1
A155
  7
COURIER_NEW
 72
 1
 11
28025.0
 21
14920.0
 31
0.0
100
AcDbText
 73
 2
  0
TEXT
  5
327
100
AcDbEntity
  8
PIN_NUMBERS_TOP
100
AcDbText
 10
26518.272
 20
15967.496
 30
0.0
 40
508.000000
 41
1.000000
  1
A156
  7
COURIER_NEW
 72
 1
 11
27390.0
 21
16190.0
 31
0.0
100
AcDbText
 73
 2
  0
TEXT
  5
328
100
AcDbEntity
  8
PIN_NUMBERS_TOP
100
AcDbText
 10
25883.272
 20
14697.496
 30
0.0
 40
508.000000
 41
1.000000
  1
A157
  7
COURIER_NEW
 72
 1
 11
26755.0
 21
14920.0
 31
0.0
100
AcDbText
 73
 2
  0
TEXT
  5
329
100
AcDbEntity
  8
PIN_NUMBERS_TOP
100
AcDbText
 10
27788.272
 20
13427.496
 30
0.0
 40
508.000000
 41
1.000000
  1
A158
  7
COURIER_NEW
 72
 1
 11
28660.0
 21
13650.0
 31
0.0
100
AcDbText
 73
 2
  0
TEXT
  5
32A
100
AcDbEntity
  8
PIN_NUMBERS_TOP
100
AcDbText
 10
28423.272
 20
12157.496
 30
0.0
 40
508.000000
 41
1.000000
  1
A159
  7
COURIER_NEW
 72
 1
 11
29295.0
 21
12380.0
 31
0.0
100
AcDbText
 73
 2
  0
TEXT
  5
32B
100
AcDbEntity
  8
PIN_NUMBERS_TOP
100
AcDbText
 10
27153.272
 20
12157.496
 30
0.0
 40
508.000000
 41
1.000000
  1
A160
  7
COURIER_NEW
 72
 1
 11
28025.0
 21
12380.0
 31
0.0
100
AcDbText
 73
 2
  0
TEXT
  5
32C
100
AcDbEntity
  8
PIN_NUMBERS_TOP
100
AcDbText
 10
26518.272
 20
13427.496
 30
0.0
 40
508.000000
 41
1.000000
  1
A161
  7
COURIER_NEW
 72
 1
 11
27390.0
 21
13650.0
 31
0.0
100
AcDbText
 73
 2
  0
TEXT
  5
32D
100
AcDbEntity
  8
PIN_NUMBERS_TOP
100
AcDbText
 10
25883.272
 20
12157.496
 30
0.0
 40
508.000000
 41
1.000000
  1
A162
  7
COURIER_NEW
 72
 1
 11
26755.0
 21
12380.0
 31
0.0
100
AcDbText
 73
 2
  0
TEXT
  5
32E
100
AcDbEntity
  8
PIN_NUMBERS_TOP
100
AcDbText
 10
27788.272
 20
10887.496
 30
0.0
 40
508.000000
 41
1.000000
  1
A163
  7
COURIER_NEW
 72
 1
 11
28660.0
 21
11110.0
 31
0.0
100
AcDbText
 73
 2
  0
TEXT
  5
32F
100
AcDbEntity
  8
PIN_NUMBERS_TOP
100
AcDbText
 10
26518.272
 20
10887.496
 30
0.0
 40
508.000000
 41
1.000000
  1
A164
  7
COURIER_NEW
 72
 1
 11
27390.0
 21
11110.0
 31
0.0
100
AcDbText
 73
 2
  0
TEXT
  5
330
100
AcDbEntity
  8
PIN_NUMBERS_TOP
100
AcDbText
 10
33939.136
 20
1997.496
 30
0.0
 40
508.000000
 41
1.000000
  1
B1
  7
COURIER_NEW
 72
 1
 11
34375.0
 21
2220.0
 31
0.0
100
AcDbText
 73
 2
  0
TEXT
  5
331
100
AcDbEntity
  8
PIN_NUMBERS_TOP
100
AcDbText
 10
32669.136
 20
1997.496
 30
0.0
 40
508.000000
 41
1.000000
  1
B2
  7
COURIER_NEW
 72
 1
 11
33105.0
 21
2220.0
 31
0.0
100
AcDbText
 73
 2
  0
TEXT
  5
332
100
AcDbEntity
  8
PIN_NUMBERS_TOP
100
AcDbText
 10
33304.136
 20
3267.496
 30
0.0
 40
508.000000
 41
1.000000
  1
B3
  7
COURIER_NEW
 72
 1
 11
33740.0
 21
3490.0
 31
0.0
100
AcDbText
 73
 2
  0
TEXT
  5
333
100
AcDbEntity
  8
PIN_NUMBERS_TOP
100
AcDbText
 10
31399.136
 20
1997.496
 30
0.0
 40
508.000000
 41
1.000000
  1
B4
  7
COURIER_NEW
 72
 1
 11
31835.0
 21
2220.0
 31
0.0
100
AcDbText
 73
 2
  0
TEXT
  5
334
100
AcDbEntity
  8
PIN_NUMBERS_TOP
100
AcDbText
 10
30129.136
 20
1997.496
 30
0.0
 40
508.000000
 41
1.000000
  1
B5
  7
COURIER_NEW
 72
 1
 11
30565.0
 21
2220.0
 31
0.0
100
AcDbText
 73
 2
  0
TEXT
  5
335
100
AcDbEntity
  8
PIN_NUMBERS_TOP
100
AcDbText
 10
30764.136
 20
3267.496
 30
0.0
 40
508.000000
 41
1.000000
  1
B6
  7
COURIER_NEW
 72
 1
 11
31200.0
 21
3490.0
 31
0.0
100
AcDbText
 73
 2
  0
TEXT
  5
336
100
AcDbEntity
  8
PIN_NUMBERS_TOP
100
AcDbText
 10
28859.136
 20
1997.496
 30
0.0
 40
508.000000
 41
1.000000
  1
B7
  7
COURIER_NEW
 72
 1
 11
29295.0
 21
2220.0
 31
0.0
100
AcDbText
 73
 2
  0
TEXT
  5
337
100
AcDbEntity
  8
PIN_NUMBERS_TOP
100
AcDbText
 10
27589.136
 20
1997.496
 30
0.0
 40
508.000000
 41
1.000000
  1
B8
  7
COURIER_NEW
 72
 1
 11
28025.0
 21
2220.0
 31
0.0
100
AcDbText
 73
 2
  0
TEXT
  5
338
100
AcDbEntity
  8
PIN_NUMBERS_TOP
100
AcDbText
 10
28224.136
 20
3267.496
 30
0.0
 40
508.000000
 41
1.000000
  1
B9
  7
COURIER_NEW
 72
 1
 11
28660.0
 21
3490.0
 31
0.0
100
AcDbText
 73
 2
  0
TEXT
  5
339
100
AcDbEntity
  8
PIN_NUMBERS_TOP
100
AcDbText
 10
26101.204
 20
1997.496
 30
0.0
 40
508.000000
 41
1.000000
  1
B10
  7
COURIER_NEW
 72
 1
 11
26755.0
 21
2220.0
 31
0.0
100
AcDbText
 73
 2
  0
TEXT
  5
33A
100
AcDbEntity
  8
PIN_NUMBERS_TOP
100
AcDbText
 10
24831.204
 20
1997.496
 30
0.0
 40
508.000000
 41
1.000000
  1
B11
  7
COURIER_NEW
 72
 1
 11
25485.0
 21
2220.0
 31
0.0
100
AcDbText
 73
 2
  0
TEXT
  5
33B
100
AcDbEntity
  8
PIN_NUMBERS_TOP
100
AcDbText
 10
25466.204
 20
3267.496
 30
0.0
 40
508.000000
 41
1.000000
  1
B12
  7
COURIER_NEW
 72
 1
 11
26120.0
 21
3490.0
 31
0.0
100
AcDbText
 73
 2
  0
TEXT
  5
33C
100
AcDbEntity
  8
PIN_NUMBERS_TOP
100
AcDbText
 10
26101.204
 20
4537.496
 30
0.0
 40
508.000000
 41
1.000000
  1
B13
  7
COURIER_NEW
 72
 1
 11
26755.0
 21
4760.0
 31
0.0
100
AcDbText
 73
 2
  0
TEXT
  5
33D
100
AcDbEntity
  8
PIN_NUMBERS_TOP
100
AcDbText
 10
24831.204
 20
4537.496
 30
0.0
 40
508.000000
 41
1.000000
  1
B14
  7
COURIER_NEW
 72
 1
 11
25485.0
 21
4760.0
 31
0.0
100
AcDbText
 73
 2
  0
TEXT
  5
33E
100
AcDbEntity
  8
PIN_NUMBERS_TOP
100
AcDbText
 10
23561.204
 20
1997.496
 30
0.0
 40
508.000000
 41
1.000000
  1
B15
  7
COURIER_NEW
 72
 1
 11
24215.0
 21
2220.0
 31
0.0
100
AcDbText
 73
 2
  0
TEXT
  5
33F
100
AcDbEntity
  8
PIN_NUMBERS_TOP
100
AcDbText
 10
22291.204
 20
1997.496
 30
0.0
 40
508.000000
 41
1.000000
  1
B16
  7
COURIER_NEW
 72
 1
 11
22945.0
 21
2220.0
 31
0.0
100
AcDbText
 73
 2
  0
TEXT
  5
340
100
AcDbEntity
  8
PIN_NUMBERS_TOP
100
AcDbText
 10
22926.204
 20
3267.496
 30
0.0
 40
508.000000
 41
1.000000
  1
B17
  7
COURIER_NEW
 72
 1
 11
23580.0
 21
3490.0
 31
0.0
100
AcDbText
 73
 2
  0
TEXT
  5
341
100
AcDbEntity
  8
PIN_NUMBERS_TOP
100
AcDbText
 10
23561.204
 20
4537.496
 30
0.0
 40
508.000000
 41
1.000000
  1
B18
  7
COURIER_NEW
 72
 1
 11
24215.0
 21
4760.0
 31
0.0
100
AcDbText
 73
 2
  0
TEXT
  5
342
100
AcDbEntity
  8
PIN_NUMBERS_TOP
100
AcDbText
 10
22291.204
 20
4537.496
 30
0.0
 40
508.000000
 41
1.000000
  1
B19
  7
COURIER_NEW
 72
 1
 11
22945.0
 21
4760.0
 31
0.0
100
AcDbText
 73
 2
  0
TEXT
  5
343
100
AcDbEntity
  8
PIN_NUMBERS_TOP
100
AcDbText
 10
21021.204
 20
1997.496
 30
0.0
 40
508.000000
 41
1.000000
  1
B20
  7
COURIER_NEW
 72
 1
 11
21675.0
 21
2220.0
 31
0.0
100
AcDbText
 73
 2
  0
TEXT
  5
344
100
AcDbEntity
  8
PIN_NUMBERS_TOP
100
AcDbText
 10
19751.204
 20
1997.496
 30
0.0
 40
508.000000
 41
1.000000
  1
B21
  7
COURIER_NEW
 72
 1
 11
20405.0
 21
2220.0
 31
0.0
100
AcDbText
 73
 2
  0
TEXT
  5
345
100
AcDbEntity
  8
PIN_NUMBERS_TOP
100
AcDbText
 10
20386.204
 20
3267.496
 30
0.0
 40
508.000000
 41
1.000000
  1
B22
  7
COURIER_NEW
 72
 1
 11
21040.0
 21
3490.0
 31
0.0
100
AcDbText
 73
 2
  0
TEXT
  5
346
100
AcDbEntity
  8
PIN_NUMBERS_TOP
100
AcDbText
 10
21021.204
 20
4537.496
 30
0.0
 40
508.000000
 41
1.000000
  1
B23
  7
COURIER_NEW
 72
 1
 11
21675.0
 21
4760.0
 31
0.0
100
AcDbText
 73
 2
  0
TEXT
  5
347
100
AcDbEntity
  8
PIN_NUMBERS_TOP
100
AcDbText
 10
19751.204
 20
4537.496
 30
0.0
 40
508.000000
 41
1.000000
  1
B24
  7
COURIER_NEW
 72
 1
 11
20405.0
 21
4760.0
 31
0.0
100
AcDbText
 73
 2
  0
TEXT
  5
348
100
AcDbEntity
  8
PIN_NUMBERS_TOP
100
AcDbText
 10
18481.204
 20
1997.496
 30
0.0
 40
508.000000
 41
1.000000
  1
B25
  7
COURIER_NEW
 72
 1
 11
19135.0
 21
2220.0
 31
0.0
100
AcDbText
 73
 2
  0
TEXT
  5
349
100
AcDbEntity
  8
PIN_NUMBERS_TOP
100
AcDbText
 10
17211.204
 20
1997.496
 30
0.0
 40
508.000000
 41
1.000000
  1
B26
  7
COURIER_NEW
 72
 1
 11
17865.0
 21
2220.0
 31
0.0
100
AcDbText
 73
 2
  0
TEXT
  5
34A
100
AcDbEntity
  8
PIN_NUMBERS_TOP
100
AcDbText
 10
17846.204
 20
3267.496
 30
0.0
 40
508.000000
 41
1.000000
  1
B27
  7
COURIER_NEW
 72
 1
 11
18500.0
 21
3490.0
 31
0.0
100
AcDbText
 73
 2
  0
TEXT
  5
34B
100
AcDbEntity
  8
PIN_NUMBERS_TOP
100
AcDbText
 10
18481.204
 20
4537.496
 30
0.0
 40
508.000000
 41
1.000000
  1
B28
  7
COURIER_NEW
 72
 1
 11
19135.0
 21
4760.0
 31
0.0
100
AcDbText
 73
 2
  0
TEXT
  5
34C
100
AcDbEntity
  8
PIN_NUMBERS_TOP
100
AcDbText
 10
17211.204
 20
4537.496
 30
0.0
 40
508.000000
 41
1.000000
  1
B29
  7
COURIER_NEW
 72
 1
 11
17865.0
 21
4760.0
 31
0.0
100
AcDbText
 73
 2
  0
TEXT
  5
34D
100
AcDbEntity
  8
PIN_NUMBERS_TOP
100
AcDbText
 10
15941.204
 20
1997.496
 30
0.0
 40
508.000000
 41
1.000000
  1
B30
  7
COURIER_NEW
 72
 1
 11
16595.0
 21
2220.0
 31
0.0
100
AcDbText
 73
 2
  0
TEXT
  5
34E
100
AcDbEntity
  8
PIN_NUMBERS_TOP
100
AcDbText
 10
14671.204
 20
1997.496
 30
0.0
 40
508.000000
 41
1.000000
  1
B31
  7
COURIER_NEW
 72
 1
 11
15325.0
 21
2220.0
 31
0.0
100
AcDbText
 73
 2
  0
TEXT
  5
34F
100
AcDbEntity
  8
PIN_NUMBERS_TOP
100
AcDbText
 10
15306.204
 20
3267.496
 30
0.0
 40
508.000000
 41
1.000000
  1
B32
  7
COURIER_NEW
 72
 1
 11
15960.0
 21
3490.0
 31
0.0
100
AcDbText
 73
 2
  0
TEXT
  5
350
100
AcDbEntity
  8
PIN_NUMBERS_TOP
100
AcDbText
 10
15941.204
 20
4537.496
 30
0.0
 40
508.000000
 41
1.000000
  1
B33
  7
COURIER_NEW
 72
 1
 11
16595.0
 21
4760.0
 31
0.0
100
AcDbText
 73
 2
  0
TEXT
  5
351
100
AcDbEntity
  8
PIN_NUMBERS_TOP
100
AcDbText
 10
14671.204
 20
4537.496
 30
0.0
 40
508.000000
 41
1.000000
  1
B34
  7
COURIER_NEW
 72
 1
 11
15325.0
 21
4760.0
 31
0.0
100
AcDbText
 73
 2
  0
TEXT
  5
352
100
AcDbEntity
  8
PIN_NUMBERS_TOP
100
AcDbText
 10
13401.204
 20
1997.496
 30
0.0
 40
508.000000
 41
1.000000
  1
B35
  7
COURIER_NEW
 72
 1
 11
14055.0
 21
2220.0
 31
0.0
100
AcDbText
 73
 2
  0
TEXT
  5
353
100
AcDbEntity
  8
PIN_NUMBERS_TOP
100
AcDbText
 10
12131.204
 20
1997.496
 30
0.0
 40
508.000000
 41
1.000000
  1
B36
  7
COURIER_NEW
 72
 1
 11
12785.0
 21
2220.0
 31
0.0
100
AcDbText
 73
 2
  0
TEXT
  5
354
100
AcDbEntity
  8
PIN_NUMBERS_TOP
100
AcDbText
 10
12766.204
 20
3267.496
 30
0.0
 40
508.000000
 41
1.000000
  1
B37
  7
COURIER_NEW
 72
 1
 11
13420.0
 21
3490.0
 31
0.0
100
AcDbText
 73
 2
  0
TEXT
  5
355
100
AcDbEntity
  8
PIN_NUMBERS_TOP
100
AcDbText
 10
13401.204
 20
4537.496
 30
0.0
 40
508.000000
 41
1.000000
  1
B38
  7
COURIER_NEW
 72
 1
 11
14055.0
 21
4760.0
 31
0.0
100
AcDbText
 73
 2
  0
TEXT
  5
356
100
AcDbEntity
  8
PIN_NUMBERS_TOP
100
AcDbText
 10
12131.204
 20
4537.496
 30
0.0
 40
508.000000
 41
1.000000
  1
B39
  7
COURIER_NEW
 72
 1
 11
12785.0
 21
4760.0
 31
0.0
100
AcDbText
 73
 2
  0
TEXT
  5
357
100
AcDbEntity
  8
PIN_NUMBERS_TOP
100
AcDbText
 10
10861.204
 20
1997.496
 30
0.0
 40
508.000000
 41
1.000000
  1
B40
  7
COURIER_NEW
 72
 1
 11
11515.0
 21
2220.0
 31
0.0
100
AcDbText
 73
 2
  0
TEXT
  5
358
100
AcDbEntity
  8
PIN_NUMBERS_TOP
100
AcDbText
 10
9591.204
 20
1997.496
 30
0.0
 40
508.000000
 41
1.000000
  1
B41
  7
COURIER_NEW
 72
 1
 11
10245.0
 21
2220.0
 31
0.0
100
AcDbText
 73
 2
  0
TEXT
  5
359
100
AcDbEntity
  8
PIN_NUMBERS_TOP
100
AcDbText
 10
10226.204
 20
3267.496
 30
0.0
 40
508.000000
 41
1.000000
  1
B42
  7
COURIER_NEW
 72
 1
 11
10880.0
 21
3490.0
 31
0.0
100
AcDbText
 73
 2
  0
TEXT
  5
35A
100
AcDbEntity
  8
PIN_NUMBERS_TOP
100
AcDbText
 10
10861.204
 20
4537.496
 30
0.0
 40
508.000000
 41
1.000000
  1
B43
  7
COURIER_NEW
 72
 1
 11
11515.0
 21
4760.0
 31
0.0
100
AcDbText
 73
 2
  0
TEXT
  5
35B
100
AcDbEntity
  8
PIN_NUMBERS_TOP
100
AcDbText
 10
9591.204
 20
4537.496
 30
0.0
 40
508.000000
 41
1.000000
  1
B44
  7
COURIER_NEW
 72
 1
 11
10245.0
 21
4760.0
 31
0.0
100
AcDbText
 73
 2
  0
TEXT
  5
35C
100
AcDbEntity
  8
PIN_NUMBERS_TOP
100
AcDbText
 10
8321.204
 20
1997.496
 30
0.0
 40
508.000000
 41
1.000000
  1
B45
  7
COURIER_NEW
 72
 1
 11
8975.0
 21
2220.0
 31
0.0
100
AcDbText
 73
 2
  0
TEXT
  5
35D
100
AcDbEntity
  8
PIN_NUMBERS_TOP
100
AcDbText
 10
7051.204
 20
1997.496
 30
0.0
 40
508.000000
 41
1.000000
  1
B46
  7
COURIER_NEW
 72
 1
 11
7705.0
 21
2220.0
 31
0.0
100
AcDbText
 73
 2
  0
TEXT
  5
35E
100
AcDbEntity
  8
PIN_NUMBERS_TOP
100
AcDbText
 10
7686.204
 20
3267.496
 30
0.0
 40
508.000000
 41
1.000000
  1
B47
  7
COURIER_NEW
 72
 1
 11
8340.0
 21
3490.0
 31
0.0
100
AcDbText
 73
 2
  0
TEXT
  5
35F
100
AcDbEntity
  8
PIN_NUMBERS_TOP
100
AcDbText
 10
5781.204
 20
1997.496
 30
0.0
 40
508.000000
 41
1.000000
  1
B48
  7
COURIER_NEW
 72
 1
 11
6435.0
 21
2220.0
 31
0.0
100
AcDbText
 73
 2
  0
TEXT
  5
360
100
AcDbEntity
  8
PIN_NUMBERS_TOP
100
AcDbText
 10
4511.204
 20
1997.496
 30
0.0
 40
508.000000
 41
1.000000
  1
B49
  7
COURIER_NEW
 72
 1
 11
5165.0
 21
2220.0
 31
0.0
100
AcDbText
 73
 2
  0
TEXT
  5
361
100
AcDbEntity
  8
PIN_NUMBERS_TOP
100
AcDbText
 10
5146.204
 20
3267.496
 30
0.0
 40
508.000000
 41
1.000000
  1
B50
  7
COURIER_NEW
 72
 1
 11
5800.0
 21
3490.0
 31
0.0
100
AcDbText
 73
 2
  0
TEXT
  5
362
100
AcDbEntity
  8
PIN_NUMBERS_TOP
100
AcDbText
 10
3241.204
 20
1997.496
 30
0.0
 40
508.000000
 41
1.000000
  1
B51
  7
COURIER_NEW
 72
 1
 11
3895.0
 21
2220.0
 31
0.0
100
AcDbText
 73
 2
  0
TEXT
  5
363
100
AcDbEntity
  8
PIN_NUMBERS_TOP
100
AcDbText
 10
1971.204
 20
1997.496
 30
0.0
 40
508.000000
 41
1.000000
  1
B52
  7
COURIER_NEW
 72
 1
 11
2625.0
 21
2220.0
 31
0.0
100
AcDbText
 73
 2
  0
TEXT
  5
364
100
AcDbEntity
  8
PIN_NUMBERS_TOP
100
AcDbText
 10
2606.204
 20
3267.496
 30
0.0
 40
508.000000
 41
1.000000
  1
B53
  7
COURIER_NEW
 72
 1
 11
3260.0
 21
3490.0
 31
0.0
100
AcDbText
 73
 2
  0
TEXT
  5
365
100
AcDbEntity
  8
PIN_NUMBERS_TOP
100
AcDbText
 10
1971.204
 20
4537.496
 30
0.0
 40
508.000000
 41
1.000000
  1
B54
  7
COURIER_NEW
 72
 1
 11
2625.0
 21
4760.0
 31
0.0
100
AcDbText
 73
 2
  0
TEXT
  5
366
100
AcDbEntity
  8
PIN_NUMBERS_TOP
100
AcDbText
 10
1336.204
 20
5807.496
 30
0.0
 40
508.000000
 41
1.000000
  1
B55
  7
COURIER_NEW
 72
 1
 11
1990.0
 21
6030.0
 31
0.0
100
AcDbText
 73
 2
  0
TEXT
  5
367
100
AcDbEntity
  8
PIN_NUMBERS_TOP
100
AcDbText
 10
2606.204
 20
5807.496
 30
0.0
 40
508.000000
 41
1.000000
  1
B56
  7
COURIER_NEW
 72
 1
 11
3260.0
 21
6030.0
 31
0.0
100
AcDbText
 73
 2
  0
TEXT
  5
368
100
AcDbEntity
  8
PIN_NUMBERS_TOP
100
AcDbText
 10
3241.204
 20
4537.496
 30
0.0
 40
508.000000
 41
1.000000
  1
B57
  7
COURIER_NEW
 72
 1
 11
3895.0
 21
4760.0
 31
0.0
100
AcDbText
 73
 2
  0
TEXT
  5
369
100
AcDbEntity
  8
PIN_NUMBERS_TOP
100
AcDbText
 10
3876.204
 20
5807.496
 30
0.0
 40
508.000000
 41
1.000000
  1
B58
  7
COURIER_NEW
 72
 1
 11
4530.0
 21
6030.0
 31
0.0
100
AcDbText
 73
 2
  0
TEXT
  5
36A
100
AcDbEntity
  8
PIN_NUMBERS_TOP
100
AcDbText
 10
1971.204
 20
7077.496
 30
0.0
 40
508.000000
 41
1.000000
  1
B59
  7
COURIER_NEW
 72
 1
 11
2625.0
 21
7300.0
 31
0.0
100
AcDbText
 73
 2
  0
TEXT
  5
36B
100
AcDbEntity
  8
PIN_NUMBERS_TOP
100
AcDbText
 10
1336.204
 20
8347.496
 30
0.0
 40
508.000000
 41
1.000000
  1
B60
  7
COURIER_NEW
 72
 1
 11
1990.0
 21
8570.0
 31
0.0
100
AcDbText
 73
 2
  0
TEXT
  5
36C
100
AcDbEntity
  8
PIN_NUMBERS_TOP
100
AcDbText
 10
2606.204
 20
8347.496
 30
0.0
 40
508.000000
 41
1.000000
  1
B61
  7
COURIER_NEW
 72
 1
 11
3260.0
 21
8570.0
 31
0.0
100
AcDbText
 73
 2
  0
TEXT
  5
36D
100
AcDbEntity
  8
PIN_NUMBERS_TOP
100
AcDbText
 10
3241.204
 20
7077.496
 30
0.0
 40
508.000000
 41
1.000000
  1
B62
  7
COURIER_NEW
 72
 1
 11
3895.0
 21
7300.0
 31
0.0
100
AcDbText
 73
 2
  0
TEXT
  5
36E
100
AcDbEntity
  8
PIN_NUMBERS_TOP
100
AcDbText
 10
3876.204
 20
8347.496
 30
0.0
 40
508.000000
 41
1.000000
  1
B63
  7
COURIER_NEW
 72
 1
 11
4530.0
 21
8570.0
 31
0.0
100
AcDbText
 73
 2
  0
TEXT
  5
36F
100
AcDbEntity
  8
PIN_NUMBERS_TOP
100
AcDbText
 10
1971.204
 20
9617.496
 30
0.0
 40
508.000000
 41
1.000000
  1
B64
  7
COURIER_NEW
 72
 1
 11
2625.0
 21
9840.0
 31
0.0
100
AcDbText
 73
 2
  0
TEXT
  5
370
100
AcDbEntity
  8
PIN_NUMBERS_TOP
100
AcDbText
 10
1336.204
 20
10887.496
 30
0.0
 40
508.000000
 41
1.000000
  1
B65
  7
COURIER_NEW
 72
 1
 11
1990.0
 21
11110.0
 31
0.0
100
AcDbText
 73
 2
  0
TEXT
  5
371
100
AcDbEntity
  8
PIN_NUMBERS_TOP
100
AcDbText
 10
2606.204
 20
10887.496
 30
0.0
 40
508.000000
 41
1.000000
  1
B66
  7
COURIER_NEW
 72
 1
 11
3260.0
 21
11110.0
 31
0.0
100
AcDbText
 73
 2
  0
TEXT
  5
372
100
AcDbEntity
  8
PIN_NUMBERS_TOP
100
AcDbText
 10
3241.204
 20
9617.496
 30
0.0
 40
508.000000
 41
1.000000
  1
B67
  7
COURIER_NEW
 72
 1
 11
3895.0
 21
9840.0
 31
0.0
100
AcDbText
 73
 2
  0
TEXT
  5
373
100
AcDbEntity
  8
PIN_NUMBERS_TOP
100
AcDbText
 10
3876.204
 20
10887.496
 30
0.0
 40
508.000000
 41
1.000000
  1
B68
  7
COURIER_NEW
 72
 1
 11
4530.0
 21
11110.0
 31
0.0
100
AcDbText
 73
 2
  0
TEXT
  5
374
100
AcDbEntity
  8
PIN_NUMBERS_TOP
100
AcDbText
 10
1971.204
 20
12157.496
 30
0.0
 40
508.000000
 41
1.000000
  1
B69
  7
COURIER_NEW
 72
 1
 11
2625.0
 21
12380.0
 31
0.0
100
AcDbText
 73
 2
  0
TEXT
  5
375
100
AcDbEntity
  8
PIN_NUMBERS_TOP
100
AcDbText
 10
1336.204
 20
13427.496
 30
0.0
 40
508.000000
 41
1.000000
  1
B70
  7
COURIER_NEW
 72
 1
 11
1990.0
 21
13650.0
 31
0.0
100
AcDbText
 73
 2
  0
TEXT
  5
376
100
AcDbEntity
  8
PIN_NUMBERS_TOP
100
AcDbText
 10
2606.204
 20
13427.496
 30
0.0
 40
508.000000
 41
1.000000
  1
B71
  7
COURIER_NEW
 72
 1
 11
3260.0
 21
13650.0
 31
0.0
100
AcDbText
 73
 2
  0
TEXT
  5
377
100
AcDbEntity
  8
PIN_NUMBERS_TOP
100
AcDbText
 10
3241.204
 20
12157.496
 30
0.0
 40
508.000000
 41
1.000000
  1
B72
  7
COURIER_NEW
 72
 1
 11
3895.0
 21
12380.0
 31
0.0
100
AcDbText
 73
 2
  0
TEXT
  5
378
100
AcDbEntity
  8
PIN_NUMBERS_TOP
100
AcDbText
 10
3876.204
 20
13427.496
 30
0.0
 40
508.000000
 41
1.000000
  1
B73
  7
COURIER_NEW
 72
 1
 11
4530.0
 21
13650.0
 31
0.0
100
AcDbText
 73
 2
  0
TEXT
  5
379
100
AcDbEntity
  8
PIN_NUMBERS_TOP
100
AcDbText
 10
1971.204
 20
14697.496
 30
0.0
 40
508.000000
 41
1.000000
  1
B74
  7
COURIER_NEW
 72
 1
 11
2625.0
 21
14920.0
 31
0.0
100
AcDbText
 73
 2
  0
TEXT
  5
37A
100
AcDbEntity
  8
PIN_NUMBERS_TOP
100
AcDbText
 10
1336.204
 20
15967.496
 30
0.0
 40
508.000000
 41
1.000000
  1
B75
  7
COURIER_NEW
 72
 1
 11
1990.0
 21
16190.0
 31
0.0
100
AcDbText
 73
 2
  0
TEXT
  5
37B
100
AcDbEntity
  8
PIN_NUMBERS_TOP
100
AcDbText
 10
2606.204
 20
15967.496
 30
0.0
 40
508.000000
 41
1.000000
  1
B76
  7
COURIER_NEW
 72
 1
 11
3260.0
 21
16190.0
 31
0.0
100
AcDbText
 73
 2
  0
TEXT
  5
37C
100
AcDbEntity
  8
PIN_NUMBERS_TOP
100
AcDbText
 10
3241.204
 20
14697.496
 30
0.0
 40
508.000000
 41
1.000000
  1
B77
  7
COURIER_NEW
 72
 1
 11
3895.0
 21
14920.0
 31
0.0
100
AcDbText
 73
 2
  0
TEXT
  5
37D
100
AcDbEntity
  8
PIN_NUMBERS_TOP
100
AcDbText
 10
3876.204
 20
15967.496
 30
0.0
 40
508.000000
 41
1.000000
  1
B78
  7
COURIER_NEW
 72
 1
 11
4530.0
 21
16190.0
 31
0.0
100
AcDbText
 73
 2
  0
TEXT
  5
37E
100
AcDbEntity
  8
PIN_NUMBERS_TOP
100
AcDbText
 10
1971.204
 20
17237.496
 30
0.0
 40
508.000000
 41
1.000000
  1
B79
  7
COURIER_NEW
 72
 1
 11
2625.0
 21
17460.0
 31
0.0
100
AcDbText
 73
 2
  0
TEXT
  5
37F
100
AcDbEntity
  8
PIN_NUMBERS_TOP
100
AcDbText
 10
1336.204
 20
18507.496
 30
0.0
 40
508.000000
 41
1.000000
  1
B80
  7
COURIER_NEW
 72
 1
 11
1990.0
 21
18730.0
 31
0.0
100
AcDbText
 73
 2
  0
TEXT
  5
380
100
AcDbEntity
  8
PIN_NUMBERS_TOP
100
AcDbText
 10
2606.204
 20
18507.496
 30
0.0
 40
508.000000
 41
1.000000
  1
B81
  7
COURIER_NEW
 72
 1
 11
3260.0
 21
18730.0
 31
0.0
100
AcDbText
 73
 2
  0
TEXT
  5
381
100
AcDbEntity
  8
PIN_NUMBERS_TOP
100
AcDbText
 10
3241.204
 20
17237.496
 30
0.0
 40
508.000000
 41
1.000000
  1
B82
  7
COURIER_NEW
 72
 1
 11
3895.0
 21
17460.0
 31
0.0
100
AcDbText
 73
 2
  0
TEXT
  5
382
100
AcDbEntity
  8
PIN_NUMBERS_TOP
100
AcDbText
 10
3876.204
 20
18507.496
 30
0.0
 40
508.000000
 41
1.000000
  1
B83
  7
COURIER_NEW
 72
 1
 11
4530.0
 21
18730.0
 31
0.0
100
AcDbText
 73
 2
  0
TEXT
  5
383
100
AcDbEntity
  8
PIN_NUMBERS_TOP
100
AcDbText
 10
1971.204
 20
19777.496
 30
0.0
 40
508.000000
 41
1.000000
  1
B84
  7
COURIER_NEW
 72
 1
 11
2625.0
 21
20000.0
 31
0.0
100
AcDbText
 73
 2
  0
TEXT
  5
384
100
AcDbEntity
  8
PIN_NUMBERS_TOP
100
AcDbText
 10
1336.204
 20
21047.496
 30
0.0
 40
508.000000
 41
1.000000
  1
B85
  7
COURIER_NEW
 72
 1
 11
1990.0
 21
21270.0
 31
0.0
100
AcDbText
 73
 2
  0
TEXT
  5
385
100
AcDbEntity
  8
PIN_NUMBERS_TOP
100
AcDbText
 10
2606.204
 20
21047.496
 30
0.0
 40
508.000000
 41
1.000000
  1
B86
  7
COURIER_NEW
 72
 1
 11
3260.0
 21
21270.0
 31
0.0
100
AcDbText
 73
 2
  0
TEXT
  5
386
100
AcDbEntity
  8
PIN_NUMBERS_TOP
100
AcDbText
 10
3241.204
 20
19777.496
 30
0.0
 40
508.000000
 41
1.000000
  1
B87
  7
COURIER_NEW
 72
 1
 11
3895.0
 21
20000.0
 31
0.0
100
AcDbText
 73
 2
  0
TEXT
  5
387
100
AcDbEntity
  8
PIN_NUMBERS_TOP
100
AcDbText
 10
3876.204
 20
21047.496
 30
0.0
 40
508.000000
 41
1.000000
  1
B88
  7
COURIER_NEW
 72
 1
 11
4530.0
 21
21270.0
 31
0.0
100
AcDbText
 73
 2
  0
TEXT
  5
388
100
AcDbEntity
  8
PIN_NUMBERS_TOP
100
AcDbText
 10
1971.204
 20
22317.496
 30
0.0
 40
508.000000
 41
1.000000
  1
B89
  7
COURIER_NEW
 72
 1
 11
2625.0
 21
22540.0
 31
0.0
100
AcDbText
 73
 2
  0
TEXT
  5
389
100
AcDbEntity
  8
PIN_NUMBERS_TOP
100
AcDbText
 10
1336.204
 20
23587.496
 30
0.0
 40
508.000000
 41
1.000000
  1
B90
  7
COURIER_NEW
 72
 1
 11
1990.0
 21
23810.0
 31
0.0
100
AcDbText
 73
 2
  0
TEXT
  5
38A
100
AcDbEntity
  8
PIN_NUMBERS_TOP
100
AcDbText
 10
2606.204
 20
23587.496
 30
0.0
 40
508.000000
 41
1.000000
  1
B91
  7
COURIER_NEW
 72
 1
 11
3260.0
 21
23810.0
 31
0.0
100
AcDbText
 73
 2
  0
TEXT
  5
38B
100
AcDbEntity
  8
PIN_NUMBERS_TOP
100
AcDbText
 10
3241.204
 20
22317.496
 30
0.0
 40
508.000000
 41
1.000000
  1
B92
  7
COURIER_NEW
 72
 1
 11
3895.0
 21
22540.0
 31
0.0
100
AcDbText
 73
 2
  0
TEXT
  5
38C
100
AcDbEntity
  8
PIN_NUMBERS_TOP
100
AcDbText
 10
3876.204
 20
23587.496
 30
0.0
 40
508.000000
 41
1.000000
  1
B93
  7
COURIER_NEW
 72
 1
 11
4530.0
 21
23810.0
 31
0.0
100
AcDbText
 73
 2
  0
TEXT
  5
38D
100
AcDbEntity
  8
PIN_NUMBERS_TOP
100
AcDbText
 10
1971.204
 20
24857.496
 30
0.0
 40
508.000000
 41
1.000000
  1
B94
  7
COURIER_NEW
 72
 1
 11
2625.0
 21
25080.0
 31
0.0
100
AcDbText
 73
 2
  0
TEXT
  5
38E
100
AcDbEntity
  8
PIN_NUMBERS_TOP
100
AcDbText
 10
1336.204
 20
26127.496
 30
0.0
 40
508.000000
 41
1.000000
  1
B95
  7
COURIER_NEW
 72
 1
 11
1990.0
 21
26350.0
 31
0.0
100
AcDbText
 73
 2
  0
TEXT
  5
38F
100
AcDbEntity
  8
PIN_NUMBERS_TOP
100
AcDbText
 10
2606.204
 20
26127.496
 30
0.0
 40
508.000000
 41
1.000000
  1
B96
  7
COURIER_NEW
 72
 1
 11
3260.0
 21
26350.0
 31
0.0
100
AcDbText
 73
 2
  0
TEXT
  5
390
100
AcDbEntity
  8
PIN_NUMBERS_TOP
100
AcDbText
 10
3241.204
 20
24857.496
 30
0.0
 40
508.000000
 41
1.000000
  1
B97
  7
COURIER_NEW
 72
 1
 11
3895.0
 21
25080.0
 31
0.0
100
AcDbText
 73
 2
  0
TEXT
  5
391
100
AcDbEntity
  8
PIN_NUMBERS_TOP
100
AcDbText
 10
3876.204
 20
26127.496
 30
0.0
 40
508.000000
 41
1.000000
  1
B98
  7
COURIER_NEW
 72
 1
 11
4530.0
 21
26350.0
 31
0.0
100
AcDbText
 73
 2
  0
TEXT
  5
392
100
AcDbEntity
  8
PIN_NUMBERS_TOP
100
AcDbText
 10
1971.204
 20
27397.496
 30
0.0
 40
508.000000
 41
1.000000
  1
B99
  7
COURIER_NEW
 72
 1
 11
2625.0
 21
27620.0
 31
0.0
100
AcDbText
 73
 2
  0
TEXT
  5
393
100
AcDbEntity
  8
PIN_NUMBERS_TOP
100
AcDbText
 10
1118.272
 20
28667.496
 30
0.0
 40
508.000000
 41
1.000000
  1
B100
  7
COURIER_NEW
 72
 1
 11
1990.0
 21
28890.0
 31
0.0
100
AcDbText
 73
 2
  0
TEXT
  5
394
100
AcDbEntity
  8
PIN_NUMBERS_TOP
100
AcDbText
 10
2388.272
 20
28667.496
 30
0.0
 40
508.000000
 41
1.000000
  1
B101
  7
COURIER_NEW
 72
 1
 11
3260.0
 21
28890.0
 31
0.0
100
AcDbText
 73
 2
  0
TEXT
  5
395
100
AcDbEntity
  8
PIN_NUMBERS_TOP
100
AcDbText
 10
3023.272
 20
27397.496
 30
0.0
 40
508.000000
 41
1.000000
  1
B102
  7
COURIER_NEW
 72
 1
 11
3895.0
 21
27620.0
 31
0.0
100
AcDbText
 73
 2
  0
TEXT
  5
396
100
AcDbEntity
  8
PIN_NUMBERS_TOP
100
AcDbText
 10
3658.272
 20
28667.496
 30
0.0
 40
508.000000
 41
1.000000
  1
B103
  7
COURIER_NEW
 72
 1
 11
4530.0
 21
28890.0
 31
0.0
100
AcDbText
 73
 2
  0
TEXT
  5
397
100
AcDbEntity
  8
PIN_NUMBERS_TOP
100
AcDbText
 10
1753.272
 20
29937.496
 30
0.0
 40
508.000000
 41
1.000000
  1
B104
  7
COURIER_NEW
 72
 1
 11
2625.0
 21
30160.0
 31
0.0
100
AcDbText
 73
 2
  0
TEXT
  5
398
100
AcDbEntity
  8
PIN_NUMBERS_TOP
100
AcDbText
 10
1118.272
 20
31207.496
 30
0.0
 40
508.000000
 41
1.000000
  1
B105
  7
COURIER_NEW
 72
 1
 11
1990.0
 21
31430.0
 31
0.0
100
AcDbText
 73
 2
  0
TEXT
  5
399
100
AcDbEntity
  8
PIN_NUMBERS_TOP
100
AcDbText
 10
2388.272
 20
31207.496
 30
0.0
 40
508.000000
 41
1.000000
  1
B106
  7
COURIER_NEW
 72
 1
 11
3260.0
 21
31430.0
 31
0.0
100
AcDbText
 73
 2
  0
TEXT
  5
39A
100
AcDbEntity
  8
PIN_NUMBERS_TOP
100
AcDbText
 10
3023.272
 20
29937.496
 30
0.0
 40
508.000000
 41
1.000000
  1
B107
  7
COURIER_NEW
 72
 1
 11
3895.0
 21
30160.0
 31
0.0
100
AcDbText
 73
 2
  0
TEXT
  5
39B
100
AcDbEntity
  8
PIN_NUMBERS_TOP
100
AcDbText
 10
3658.272
 20
31207.496
 30
0.0
 40
508.000000
 41
1.000000
  1
B108
  7
COURIER_NEW
 72
 1
 11
4530.0
 21
31430.0
 31
0.0
100
AcDbText
 73
 2
  0
TEXT
  5
39C
100
AcDbEntity
  8
PIN_NUMBERS_TOP
100
AcDbText
 10
1753.272
 20
32477.496
 30
0.0
 40
508.000000
 41
1.000000
  1
B109
  7
COURIER_NEW
 72
 1
 11
2625.0
 21
32700.0
 31
0.0
100
AcDbText
 73
 2
  0
TEXT
  5
39D
100
AcDbEntity
  8
PIN_NUMBERS_TOP
100
AcDbText
 10
1118.272
 20
33747.496
 30
0.0
 40
508.000000
 41
1.000000
  1
B110
  7
COURIER_NEW
 72
 1
 11
1990.0
 21
33970.0
 31
0.0
100
AcDbText
 73
 2
  0
TEXT
  5
39E
100
AcDbEntity
  8
PIN_NUMBERS_TOP
100
AcDbText
 10
2388.272
 20
33747.496
 30
0.0
 40
508.000000
 41
1.000000
  1
B111
  7
COURIER_NEW
 72
 1
 11
3260.0
 21
33970.0
 31
0.0
100
AcDbText
 73
 2
  0
TEXT
  5
39F
100
AcDbEntity
  8
PIN_NUMBERS_TOP
100
AcDbText
 10
3023.272
 20
32477.496
 30
0.0
 40
508.000000
 41
1.000000
  1
B112
  7
COURIER_NEW
 72
 1
 11
3895.0
 21
32700.0
 31
0.0
100
AcDbText
 73
 2
  0
TEXT
  5
3A0
100
AcDbEntity
  8
PIN_NUMBERS_TOP
100
AcDbText
 10
3658.272
 20
33747.496
 30
0.0
 40
508.000000
 41
1.000000
  1
B113
  7
COURIER_NEW
 72
 1
 11
4530.0
 21
33970.0
 31
0.0
100
AcDbText
 73
 2
  0
TEXT
  5
3A1
100
AcDbEntity
  8
PIN_NUMBERS_TOP
100
AcDbText
 10
1753.272
 20
35017.496
 30
0.0
 40
508.000000
 41
1.000000
  1
B114
  7
COURIER_NEW
 72
 1
 11
2625.0
 21
35240.0
 31
0.0
100
AcDbText
 73
 2
  0
TEXT
  5
3A2
100
AcDbEntity
  8
PIN_NUMBERS_TOP
100
AcDbText
 10
3023.272
 20
35017.496
 30
0.0
 40
508.000000
 41
1.000000
  1
B115
  7
COURIER_NEW
 72
 1
 11
3895.0
 21
35240.0
 31
0.0
100
AcDbText
 73
 2
  0
TEXT
  5
3A3
100
AcDbEntity
  8
PIN_NUMBERS_TOP
100
AcDbText
 10
1753.272
 20
37557.496
 30
0.0
 40
508.000000
 41
1.000000
  1
B116
  7
COURIER_NEW
 72
 1
 11
2625.0
 21
37780.0
 31
0.0
100
AcDbText
 73
 2
  0
TEXT
  5
3A4
100
AcDbEntity
  8
PIN_NUMBERS_TOP
100
AcDbText
 10
3023.272
 20
37557.496
 30
0.0
 40
508.000000
 41
1.000000
  1
B117
  7
COURIER_NEW
 72
 1
 11
3895.0
 21
37780.0
 31
0.0
100
AcDbText
 73
 2
  0
TEXT
  5
3A5
100
AcDbEntity
  8
PIN_NUMBERS_TOP
100
AcDbText
 10
2388.272
 20
36287.496
 30
0.0
 40
508.000000
 41
1.000000
  1
B118
  7
COURIER_NEW
 72
 1
 11
3260.0
 21
36510.0
 31
0.0
100
AcDbText
 73
 2
  0
TEXT
  5
3A6
100
AcDbEntity
  8
PIN_NUMBERS_TOP
100
AcDbText
 10
4293.272
 20
37557.496
 30
0.0
 40
508.000000
 41
1.000000
  1
B119
  7
COURIER_NEW
 72
 1
 11
5165.0
 21
37780.0
 31
0.0
100
AcDbText
 73
 2
  0
TEXT
  5
3A7
100
AcDbEntity
  8
PIN_NUMBERS_TOP
100
AcDbText
 10
5563.272
 20
37557.496
 30
0.0
 40
508.000000
 41
1.000000
  1
B120
  7
COURIER_NEW
 72
 1
 11
6435.0
 21
37780.0
 31
0.0
100
AcDbText
 73
 2
  0
TEXT
  5
3A8
100
AcDbEntity
  8
PIN_NUMBERS_TOP
100
AcDbText
 10
4928.272
 20
36287.496
 30
0.0
 40
508.000000
 41
1.000000
  1
B121
  7
COURIER_NEW
 72
 1
 11
5800.0
 21
36510.0
 31
0.0
100
AcDbText
 73
 2
  0
TEXT
  5
3A9
100
AcDbEntity
  8
PIN_NUMBERS_TOP
100
AcDbText
 10
6833.272
 20
37557.496
 30
0.0
 40
508.000000
 41
1.000000
  1
B122
  7
COURIER_NEW
 72
 1
 11
7705.0
 21
37780.0
 31
0.0
100
AcDbText
 73
 2
  0
TEXT
  5
3AA
100
AcDbEntity
  8
PIN_NUMBERS_TOP
100
AcDbText
 10
8103.272
 20
37557.496
 30
0.0
 40
508.000000
 41
1.000000
  1
B123
  7
COURIER_NEW
 72
 1
 11
8975.0
 21
37780.0
 31
0.0
100
AcDbText
 73
 2
  0
TEXT
  5
3AB
100
AcDbEntity
  8
PIN_NUMBERS_TOP
100
AcDbText
 10
7468.272
 20
36287.496
 30
0.0
 40
508.000000
 41
1.000000
  1
B124
  7
COURIER_NEW
 72
 1
 11
8340.0
 21
36510.0
 31
0.0
100
AcDbText
 73
 2
  0
TEXT
  5
3AC
100
AcDbEntity
  8
PIN_NUMBERS_TOP
100
AcDbText
 10
9373.272
 20
37557.496
 30
0.0
 40
508.000000
 41
1.000000
  1
B125
  7
COURIER_NEW
 72
 1
 11
10245.0
 21
37780.0
 31
0.0
100
AcDbText
 73
 2
  0
TEXT
  5
3AD
100
AcDbEntity
  8
PIN_NUMBERS_TOP
100
AcDbText
 10
10643.272
 20
37557.496
 30
0.0
 40
508.000000
 41
1.000000
  1
B126
  7
COURIER_NEW
 72
 1
 11
11515.0
 21
37780.0
 31
0.0
100
AcDbText
 73
 2
  0
TEXT
  5
3AE
100
AcDbEntity
  8
PIN_NUMBERS_TOP
100
AcDbText
 10
10008.272
 20
36287.496
 30
0.0
 40
508.000000
 41
1.000000
  1
B127
  7
COURIER_NEW
 72
 1
 11
10880.0
 21
36510.0
 31
0.0
100
AcDbText
 73
 2
  0
TEXT
  5
3AF
100
AcDbEntity
  8
PIN_NUMBERS_TOP
100
AcDbText
 10
9373.272
 20
35017.496
 30
0.0
 40
508.000000
 41
1.000000
  1
B128
  7
COURIER_NEW
 72
 1
 11
10245.0
 21
35240.0
 31
0.0
100
AcDbText
 73
 2
  0
TEXT
  5
3B0
100
AcDbEntity
  8
PIN_NUMBERS_TOP
100
AcDbText
 10
10643.272
 20
35017.496
 30
0.0
 40
508.000000
 41
1.000000
  1
B129
  7
COURIER_NEW
 72
 1
 11
11515.0
 21
35240.0
 31
0.0
100
AcDbText
 73
 2
  0
TEXT
  5
3B1
100
AcDbEntity
  8
PIN_NUMBERS_TOP
100
AcDbText
 10
11913.272
 20
37557.496
 30
0.0
 40
508.000000
 41
1.000000
  1
B130
  7
COURIER_NEW
 72
 1
 11
12785.0
 21
37780.0
 31
0.0
100
AcDbText
 73
 2
  0
TEXT
  5
3B2
100
AcDbEntity
  8
PIN_NUMBERS_TOP
100
AcDbText
 10
13183.272
 20
37557.496
 30
0.0
 40
508.000000
 41
1.000000
  1
B131
  7
COURIER_NEW
 72
 1
 11
14055.0
 21
37780.0
 31
0.0
100
AcDbText
 73
 2
  0
TEXT
  5
3B3
100
AcDbEntity
  8
PIN_NUMBERS_TOP
100
AcDbText
 10
12548.272
 20
36287.496
 30
0.0
 40
508.000000
 41
1.000000
  1
B132
  7
COURIER_NEW
 72
 1
 11
13420.0
 21
36510.0
 31
0.0
100
AcDbText
 73
 2
  0
TEXT
  5
3B4
100
AcDbEntity
  8
PIN_NUMBERS_TOP
100
AcDbText
 10
11913.272
 20
35017.496
 30
0.0
 40
508.000000
 41
1.000000
  1
B133
  7
COURIER_NEW
 72
 1
 11
12785.0
 21
35240.0
 31
0.0
100
AcDbText
 73
 2
  0
TEXT
  5
3B5
100
AcDbEntity
  8
PIN_NUMBERS_TOP
100
AcDbText
 10
13183.272
 20
35017.496
 30
0.0
 40
508.000000
 41
1.000000
  1
B134
  7
COURIER_NEW
 72
 1
 11
14055.0
 21
35240.0
 31
0.0
100
AcDbText
 73
 2
  0
TEXT
  5
3B6
100
AcDbEntity
  8
PIN_NUMBERS_TOP
100
AcDbText
 10
14453.272
 20
37557.496
 30
0.0
 40
508.000000
 41
1.000000
  1
B135
  7
COURIER_NEW
 72
 1
 11
15325.0
 21
37780.0
 31
0.0
100
AcDbText
 73
 2
  0
TEXT
  5
3B7
100
AcDbEntity
  8
PIN_NUMBERS_TOP
100
AcDbText
 10
15723.272
 20
37557.496
 30
0.0
 40
508.000000
 41
1.000000
  1
B136
  7
COURIER_NEW
 72
 1
 11
16595.0
 21
37780.0
 31
0.0
100
AcDbText
 73
 2
  0
TEXT
  5
3B8
100
AcDbEntity
  8
PIN_NUMBERS_TOP
100
AcDbText
 10
15088.272
 20
36287.496
 30
0.0
 40
508.000000
 41
1.000000
  1
B137
  7
COURIER_NEW
 72
 1
 11
15960.0
 21
36510.0
 31
0.0
100
AcDbText
 73
 2
  0
TEXT
  5
3B9
100
AcDbEntity
  8
PIN_NUMBERS_TOP
100
AcDbText
 10
14453.272
 20
35017.496
 30
0.0
 40
508.000000
 41
1.000000
  1
B138
  7
COURIER_NEW
 72
 1
 11
15325.0
 21
35240.0
 31
0.0
100
AcDbText
 73
 2
  0
TEXT
  5
3BA
100
AcDbEntity
  8
PIN_NUMBERS_TOP
100
AcDbText
 10
15723.272
 20
35017.496
 30
0.0
 40
508.000000
 41
1.000000
  1
B139
  7
COURIER_NEW
 72
 1
 11
16595.0
 21
35240.0
 31
0.0
100
AcDbText
 73
 2
  0
TEXT
  5
3BB
100
AcDbEntity
  8
PIN_NUMBERS_TOP
100
AcDbText
 10
16993.272
 20
37557.496
 30
0.0
 40
508.000000
 41
1.000000
  1
B140
  7
COURIER_NEW
 72
 1
 11
17865.0
 21
37780.0
 31
0.0
100
AcDbText
 73
 2
  0
TEXT
  5
3BC
100
AcDbEntity
  8
PIN_NUMBERS_TOP
100
AcDbText
 10
18263.272
 20
37557.496
 30
0.0
 40
508.000000
 41
1.000000
  1
B141
  7
COURIER_NEW
 72
 1
 11
19135.0
 21
37780.0
 31
0.0
100
AcDbText
 73
 2
  0
TEXT
  5
3BD
100
AcDbEntity
  8
PIN_NUMBERS_TOP
100
AcDbText
 10
17628.272
 20
36287.496
 30
0.0
 40
508.000000
 41
1.000000
  1
B142
  7
COURIER_NEW
 72
 1
 11
18500.0
 21
36510.0
 31
0.0
100
AcDbText
 73
 2
  0
TEXT
  5
3BE
100
AcDbEntity
  8
PIN_NUMBERS_TOP
100
AcDbText
 10
16993.272
 20
35017.496
 30
0.0
 40
508.000000
 41
1.000000
  1
B143
  7
COURIER_NEW
 72
 1
 11
17865.0
 21
35240.0
 31
0.0
100
AcDbText
 73
 2
  0
TEXT
  5
3BF
100
AcDbEntity
  8
PIN_NUMBERS_TOP
100
AcDbText
 10
18263.272
 20
35017.496
 30
0.0
 40
508.000000
 41
1.000000
  1
B144
  7
COURIER_NEW
 72
 1
 11
19135.0
 21
35240.0
 31
0.0
100
AcDbText
 73
 2
  0
TEXT
  5
3C0
100
AcDbEntity
  8
PIN_NUMBERS_TOP
100
AcDbText
 10
19533.272
 20
37557.496
 30
0.0
 40
508.000000
 41
1.000000
  1
B145
  7
COURIER_NEW
 72
 1
 11
20405.0
 21
37780.0
 31
0.0
100
AcDbText
 73
 2
  0
TEXT
  5
3C1
100
AcDbEntity
  8
PIN_NUMBERS_TOP
100
AcDbText
 10
20803.272
 20
37557.496
 30
0.0
 40
508.000000
 41
1.000000
  1
B146
  7
COURIER_NEW
 72
 1
 11
21675.0
 21
37780.0
 31
0.0
100
AcDbText
 73
 2
  0
TEXT
  5
3C2
100
AcDbEntity
  8
PIN_NUMBERS_TOP
100
AcDbText
 10
20168.272
 20
36287.496
 30
0.0
 40
508.000000
 41
1.000000
  1
B147
  7
COURIER_NEW
 72
 1
 11
21040.0
 21
36510.0
 31
0.0
100
AcDbText
 73
 2
  0
TEXT
  5
3C3
100
AcDbEntity
  8
PIN_NUMBERS_TOP
100
AcDbText
 10
19533.272
 20
35017.496
 30
0.0
 40
508.000000
 41
1.000000
  1
B148
  7
COURIER_NEW
 72
 1
 11
20405.0
 21
35240.0
 31
0.0
100
AcDbText
 73
 2
  0
TEXT
  5
3C4
100
AcDbEntity
  8
PIN_NUMBERS_TOP
100
AcDbText
 10
20803.272
 20
35017.496
 30
0.0
 40
508.000000
 41
1.000000
  1
B149
  7
COURIER_NEW
 72
 1
 11
21675.0
 21
35240.0
 31
0.0
100
AcDbText
 73
 2
  0
TEXT
  5
3C5
100
AcDbEntity
  8
PIN_NUMBERS_TOP
100
AcDbText
 10
22073.272
 20
37557.496
 30
0.0
 40
508.000000
 41
1.000000
  1
B150
  7
COURIER_NEW
 72
 1
 11
22945.0
 21
37780.0
 31
0.0
100
AcDbText
 73
 2
  0
TEXT
  5
3C6
100
AcDbEntity
  8
PIN_NUMBERS_TOP
100
AcDbText
 10
23343.272
 20
37557.496
 30
0.0
 40
508.000000
 41
1.000000
  1
B151
  7
COURIER_NEW
 72
 1
 11
24215.0
 21
37780.0
 31
0.0
100
AcDbText
 73
 2
  0
TEXT
  5
3C7
100
AcDbEntity
  8
PIN_NUMBERS_TOP
100
AcDbText
 10
22708.272
 20
36287.496
 30
0.0
 40
508.000000
 41
1.000000
  1
B152
  7
COURIER_NEW
 72
 1
 11
23580.0
 21
36510.0
 31
0.0
100
AcDbText
 73
 2
  0
TEXT
  5
3C8
100
AcDbEntity
  8
PIN_NUMBERS_TOP
100
AcDbText
 10
22073.272
 20
35017.496
 30
0.0
 40
508.000000
 41
1.000000
  1
B153
  7
COURIER_NEW
 72
 1
 11
22945.0
 21
35240.0
 31
0.0
100
AcDbText
 73
 2
  0
TEXT
  5
3C9
100
AcDbEntity
  8
PIN_NUMBERS_TOP
100
AcDbText
 10
23343.272
 20
35017.496
 30
0.0
 40
508.000000
 41
1.000000
  1
B154
  7
COURIER_NEW
 72
 1
 11
24215.0
 21
35240.0
 31
0.0
100
AcDbText
 73
 2
  0
TEXT
  5
3CA
100
AcDbEntity
  8
PIN_NUMBERS_TOP
100
AcDbText
 10
24613.272
 20
37557.496
 30
0.0
 40
508.000000
 41
1.000000
  1
B155
  7
COURIER_NEW
 72
 1
 11
25485.0
 21
37780.0
 31
0.0
100
AcDbText
 73
 2
  0
TEXT
  5
3CB
100
AcDbEntity
  8
PIN_NUMBERS_TOP
100
AcDbText
 10
25883.272
 20
37557.496
 30
0.0
 40
508.000000
 41
1.000000
  1
B156
  7
COURIER_NEW
 72
 1
 11
26755.0
 21
37780.0
 31
0.0
100
AcDbText
 73
 2
  0
TEXT
  5
3CC
100
AcDbEntity
  8
PIN_NUMBERS_TOP
100
AcDbText
 10
25248.272
 20
36287.496
 30
0.0
 40
508.000000
 41
1.000000
  1
B157
  7
COURIER_NEW
 72
 1
 11
26120.0
 21
36510.0
 31
0.0
100
AcDbText
 73
 2
  0
TEXT
  5
3CD
100
AcDbEntity
  8
PIN_NUMBERS_TOP
100
AcDbText
 10
24613.272
 20
35017.496
 30
0.0
 40
508.000000
 41
1.000000
  1
B158
  7
COURIER_NEW
 72
 1
 11
25485.0
 21
35240.0
 31
0.0
100
AcDbText
 73
 2
  0
TEXT
  5
3CE
100
AcDbEntity
  8
PIN_NUMBERS_TOP
100
AcDbText
 10
25883.272
 20
35017.496
 30
0.0
 40
508.000000
 41
1.000000
  1
B159
  7
COURIER_NEW
 72
 1
 11
26755.0
 21
35240.0
 31
0.0
100
AcDbText
 73
 2
  0
TEXT
  5
3CF
100
AcDbEntity
  8
PIN_NUMBERS_TOP
100
AcDbText
 10
27153.272
 20
37557.496
 30
0.0
 40
508.000000
 41
1.000000
  1
B160
  7
COURIER_NEW
 72
 1
 11
28025.0
 21
37780.0
 31
0.0
100
AcDbText
 73
 2
  0
TEXT
  5
3D0
100
AcDbEntity
  8
PIN_NUMBERS_TOP
100
AcDbText
 10
28423.272
 20
37557.496
 30
0.0
 40
508.000000
 41
1.000000
  1
B161
  7
COURIER_NEW
 72
 1
 11
29295.0
 21
37780.0
 31
0.0
100
AcDbText
 73
 2
  0
TEXT
  5
3D1
100
AcDbEntity
  8
PIN_NUMBERS_TOP
100
AcDbText
 10
27788.272
 20
36287.496
 30
0.0
 40
508.000000
 41
1.000000
  1
B162
  7
COURIER_NEW
 72
 1
 11
28660.0
 21
36510.0
 31
0.0
100
AcDbText
 73
 2
  0
TEXT
  5
3D2
100
AcDbEntity
  8
PIN_NUMBERS_TOP
100
AcDbText
 10
29693.272
 20
37557.496
 30
0.0
 40
508.000000
 41
1.000000
  1
B163
  7
COURIER_NEW
 72
 1
 11
30565.0
 21
37780.0
 31
0.0
100
AcDbText
 73
 2
  0
TEXT
  5
3D3
100
AcDbEntity
  8
PIN_NUMBERS_TOP
100
AcDbText
 10
30963.272
 20
37557.496
 30
0.0
 40
508.000000
 41
1.000000
  1
B164
  7
COURIER_NEW
 72
 1
 11
31835.0
 21
37780.0
 31
0.0
100
AcDbText
 73
 2
  0
TEXT
  5
3D4
100
AcDbEntity
  8
PIN_NUMBERS_TOP
100
AcDbText
 10
30328.272
 20
36287.496
 30
0.0
 40
508.000000
 41
1.000000
  1
B165
  7
COURIER_NEW
 72
 1
 11
31200.0
 21
36510.0
 31
0.0
100
AcDbText
 73
 2
  0
TEXT
  5
3D5
100
AcDbEntity
  8
PIN_NUMBERS_TOP
100
AcDbText
 10
32233.272
 20
37557.496
 30
0.0
 40
508.000000
 41
1.000000
  1
B166
  7
COURIER_NEW
 72
 1
 11
33105.0
 21
37780.0
 31
0.0
100
AcDbText
 73
 2
  0
TEXT
  5
3D6
100
AcDbEntity
  8
PIN_NUMBERS_TOP
100
AcDbText
 10
33503.272
 20
37557.496
 30
0.0
 40
508.000000
 41
1.000000
  1
B167
  7
COURIER_NEW
 72
 1
 11
34375.0
 21
37780.0
 31
0.0
100
AcDbText
 73
 2
  0
TEXT
  5
3D7
100
AcDbEntity
  8
PIN_NUMBERS_TOP
100
AcDbText
 10
32868.272
 20
36287.496
 30
0.0
 40
508.000000
 41
1.000000
  1
B168
  7
COURIER_NEW
 72
 1
 11
33740.0
 21
36510.0
 31
0.0
100
AcDbText
 73
 2
  0
TEXT
  5
3D8
100
AcDbEntity
  8
PIN_NUMBERS_TOP
100
AcDbText
 10
33503.272
 20
35017.496
 30
0.0
 40
508.000000
 41
1.000000
  1
B169
  7
COURIER_NEW
 72
 1
 11
34375.0
 21
35240.0
 31
0.0
100
AcDbText
 73
 2
  0
TEXT
  5
3D9
100
AcDbEntity
  8
PIN_NUMBERS_TOP
100
AcDbText
 10
34138.272
 20
33747.496
 30
0.0
 40
508.000000
 41
1.000000
  1
B170
  7
COURIER_NEW
 72
 1
 11
35010.0
 21
33970.0
 31
0.0
100
AcDbText
 73
 2
  0
TEXT
  5
3DA
100
AcDbEntity
  8
PIN_NUMBERS_TOP
100
AcDbText
 10
32868.272
 20
33747.496
 30
0.0
 40
508.000000
 41
1.000000
  1
B171
  7
COURIER_NEW
 72
 1
 11
33740.0
 21
33970.0
 31
0.0
100
AcDbText
 73
 2
  0
TEXT
  5
3DB
100
AcDbEntity
  8
PIN_NUMBERS_TOP
100
AcDbText
 10
32233.272
 20
35017.496
 30
0.0
 40
508.000000
 41
1.000000
  1
B172
  7
COURIER_NEW
 72
 1
 11
33105.0
 21
35240.0
 31
0.0
100
AcDbText
 73
 2
  0
TEXT
  5
3DC
100
AcDbEntity
  8
PIN_NUMBERS_TOP
100
AcDbText
 10
31598.272
 20
33747.496
 30
0.0
 40
508.000000
 41
1.000000
  1
B173
  7
COURIER_NEW
 72
 1
 11
32470.0
 21
33970.0
 31
0.0
100
AcDbText
 73
 2
  0
TEXT
  5
3DD
100
AcDbEntity
  8
PIN_NUMBERS_TOP
100
AcDbText
 10
33503.272
 20
32477.496
 30
0.0
 40
508.000000
 41
1.000000
  1
B174
  7
COURIER_NEW
 72
 1
 11
34375.0
 21
32700.0
 31
0.0
100
AcDbText
 73
 2
  0
TEXT
  5
3DE
100
AcDbEntity
  8
PIN_NUMBERS_TOP
100
AcDbText
 10
34138.272
 20
31207.496
 30
0.0
 40
508.000000
 41
1.000000
  1
B175
  7
COURIER_NEW
 72
 1
 11
35010.0
 21
31430.0
 31
0.0
100
AcDbText
 73
 2
  0
TEXT
  5
3DF
100
AcDbEntity
  8
PIN_NUMBERS_TOP
100
AcDbText
 10
32868.272
 20
31207.496
 30
0.0
 40
508.000000
 41
1.000000
  1
B176
  7
COURIER_NEW
 72
 1
 11
33740.0
 21
31430.0
 31
0.0
100
AcDbText
 73
 2
  0
TEXT
  5
3E0
100
AcDbEntity
  8
PIN_NUMBERS_TOP
100
AcDbText
 10
32233.272
 20
32477.496
 30
0.0
 40
508.000000
 41
1.000000
  1
B177
  7
COURIER_NEW
 72
 1
 11
33105.0
 21
32700.0
 31
0.0
100
AcDbText
 73
 2
  0
TEXT
  5
3E1
100
AcDbEntity
  8
PIN_NUMBERS_TOP
100
AcDbText
 10
31598.272
 20
31207.496
 30
0.0
 40
508.000000
 41
1.000000
  1
B178
  7
COURIER_NEW
 72
 1
 11
32470.0
 21
31430.0
 31
0.0
100
AcDbText
 73
 2
  0
TEXT
  5
3E2
100
AcDbEntity
  8
PIN_NUMBERS_TOP
100
AcDbText
 10
33503.272
 20
29937.496
 30
0.0
 40
508.000000
 41
1.000000
  1
B179
  7
COURIER_NEW
 72
 1
 11
34375.0
 21
30160.0
 31
0.0
100
AcDbText
 73
 2
  0
TEXT
  5
3E3
100
AcDbEntity
  8
PIN_NUMBERS_TOP
100
AcDbText
 10
34138.272
 20
28667.496
 30
0.0
 40
508.000000
 41
1.000000
  1
B180
  7
COURIER_NEW
 72
 1
 11
35010.0
 21
28890.0
 31
0.0
100
AcDbText
 73
 2
  0
TEXT
  5
3E4
100
AcDbEntity
  8
PIN_NUMBERS_TOP
100
AcDbText
 10
32868.272
 20
28667.496
 30
0.0
 40
508.000000
 41
1.000000
  1
B181
  7
COURIER_NEW
 72
 1
 11
33740.0
 21
28890.0
 31
0.0
100
AcDbText
 73
 2
  0
TEXT
  5
3E5
100
AcDbEntity
  8
PIN_NUMBERS_TOP
100
AcDbText
 10
32233.272
 20
29937.496
 30
0.0
 40
508.000000
 41
1.000000
  1
B182
  7
COURIER_NEW
 72
 1
 11
33105.0
 21
30160.0
 31
0.0
100
AcDbText
 73
 2
  0
TEXT
  5
3E6
100
AcDbEntity
  8
PIN_NUMBERS_TOP
100
AcDbText
 10
31598.272
 20
28667.496
 30
0.0
 40
508.000000
 41
1.000000
  1
B183
  7
COURIER_NEW
 72
 1
 11
32470.0
 21
28890.0
 31
0.0
100
AcDbText
 73
 2
  0
TEXT
  5
3E7
100
AcDbEntity
  8
PIN_NUMBERS_TOP
100
AcDbText
 10
33503.272
 20
27397.496
 30
0.0
 40
508.000000
 41
1.000000
  1
B184
  7
COURIER_NEW
 72
 1
 11
34375.0
 21
27620.0
 31
0.0
100
AcDbText
 73
 2
  0
TEXT
  5
3E8
100
AcDbEntity
  8
PIN_NUMBERS_TOP
100
AcDbText
 10
34138.272
 20
26127.496
 30
0.0
 40
508.000000
 41
1.000000
  1
B185
  7
COURIER_NEW
 72
 1
 11
35010.0
 21
26350.0
 31
0.0
100
AcDbText
 73
 2
  0
TEXT
  5
3E9
100
AcDbEntity
  8
PIN_NUMBERS_TOP
100
AcDbText
 10
32868.272
 20
26127.496
 30
0.0
 40
508.000000
 41
1.000000
  1
B186
  7
COURIER_NEW
 72
 1
 11
33740.0
 21
26350.0
 31
0.0
100
AcDbText
 73
 2
  0
TEXT
  5
3EA
100
AcDbEntity
  8
PIN_NUMBERS_TOP
100
AcDbText
 10
32233.272
 20
27397.496
 30
0.0
 40
508.000000
 41
1.000000
  1
B187
  7
COURIER_NEW
 72
 1
 11
33105.0
 21
27620.0
 31
0.0
100
AcDbText
 73
 2
  0
TEXT
  5
3EB
100
AcDbEntity
  8
PIN_NUMBERS_TOP
100
AcDbText
 10
31598.272
 20
26127.496
 30
0.0
 40
508.000000
 41
1.000000
  1
B188
  7
COURIER_NEW
 72
 1
 11
32470.0
 21
26350.0
 31
0.0
100
AcDbText
 73
 2
  0
TEXT
  5
3EC
100
AcDbEntity
  8
PIN_NUMBERS_TOP
100
AcDbText
 10
33503.272
 20
24857.496
 30
0.0
 40
508.000000
 41
1.000000
  1
B189
  7
COURIER_NEW
 72
 1
 11
34375.0
 21
25080.0
 31
0.0
100
AcDbText
 73
 2
  0
TEXT
  5
3ED
100
AcDbEntity
  8
PIN_NUMBERS_TOP
100
AcDbText
 10
34138.272
 20
23587.496
 30
0.0
 40
508.000000
 41
1.000000
  1
B190
  7
COURIER_NEW
 72
 1
 11
35010.0
 21
23810.0
 31
0.0
100
AcDbText
 73
 2
  0
TEXT
  5
3EE
100
AcDbEntity
  8
PIN_NUMBERS_TOP
100
AcDbText
 10
32868.272
 20
23587.496
 30
0.0
 40
508.000000
 41
1.000000
  1
B191
  7
COURIER_NEW
 72
 1
 11
33740.0
 21
23810.0
 31
0.0
100
AcDbText
 73
 2
  0
TEXT
  5
3EF
100
AcDbEntity
  8
PIN_NUMBERS_TOP
100
AcDbText
 10
32233.272
 20
24857.496
 30
0.0
 40
508.000000
 41
1.000000
  1
B192
  7
COURIER_NEW
 72
 1
 11
33105.0
 21
25080.0
 31
0.0
100
AcDbText
 73
 2
  0
TEXT
  5
3F0
100
AcDbEntity
  8
PIN_NUMBERS_TOP
100
AcDbText
 10
31598.272
 20
23587.496
 30
0.0
 40
508.000000
 41
1.000000
  1
B193
  7
COURIER_NEW
 72
 1
 11
32470.0
 21
23810.0
 31
0.0
100
AcDbText
 73
 2
  0
TEXT
  5
3F1
100
AcDbEntity
  8
PIN_NUMBERS_TOP
100
AcDbText
 10
33503.272
 20
22317.496
 30
0.0
 40
508.000000
 41
1.000000
  1
B194
  7
COURIER_NEW
 72
 1
 11
34375.0
 21
22540.0
 31
0.0
100
AcDbText
 73
 2
  0
TEXT
  5
3F2
100
AcDbEntity
  8
PIN_NUMBERS_TOP
100
AcDbText
 10
34138.272
 20
21047.496
 30
0.0
 40
508.000000
 41
1.000000
  1
B195
  7
COURIER_NEW
 72
 1
 11
35010.0
 21
21270.0
 31
0.0
100
AcDbText
 73
 2
  0
TEXT
  5
3F3
100
AcDbEntity
  8
PIN_NUMBERS_TOP
100
AcDbText
 10
32868.272
 20
21047.496
 30
0.0
 40
508.000000
 41
1.000000
  1
B196
  7
COURIER_NEW
 72
 1
 11
33740.0
 21
21270.0
 31
0.0
100
AcDbText
 73
 2
  0
TEXT
  5
3F4
100
AcDbEntity
  8
PIN_NUMBERS_TOP
100
AcDbText
 10
32233.272
 20
22317.496
 30
0.0
 40
508.000000
 41
1.000000
  1
B197
  7
COURIER_NEW
 72
 1
 11
33105.0
 21
22540.0
 31
0.0
100
AcDbText
 73
 2
  0
TEXT
  5
3F5
100
AcDbEntity
  8
PIN_NUMBERS_TOP
100
AcDbText
 10
31598.272
 20
21047.496
 30
0.0
 40
508.000000
 41
1.000000
  1
B198
  7
COURIER_NEW
 72
 1
 11
32470.0
 21
21270.0
 31
0.0
100
AcDbText
 73
 2
  0
TEXT
  5
3F6
100
AcDbEntity
  8
PIN_NUMBERS_TOP
100
AcDbText
 10
33503.272
 20
19777.496
 30
0.0
 40
508.000000
 41
1.000000
  1
B199
  7
COURIER_NEW
 72
 1
 11
34375.0
 21
20000.0
 31
0.0
100
AcDbText
 73
 2
  0
TEXT
  5
3F7
100
AcDbEntity
  8
PIN_NUMBERS_TOP
100
AcDbText
 10
34138.272
 20
18507.496
 30
0.0
 40
508.000000
 41
1.000000
  1
B200
  7
COURIER_NEW
 72
 1
 11
35010.0
 21
18730.0
 31
0.0
100
AcDbText
 73
 2
  0
TEXT
  5
3F8
100
AcDbEntity
  8
PIN_NUMBERS_TOP
100
AcDbText
 10
32868.272
 20
18507.496
 30
0.0
 40
508.000000
 41
1.000000
  1
B201
  7
COURIER_NEW
 72
 1
 11
33740.0
 21
18730.0
 31
0.0
100
AcDbText
 73
 2
  0
TEXT
  5
3F9
100
AcDbEntity
  8
PIN_NUMBERS_TOP
100
AcDbText
 10
32233.272
 20
19777.496
 30
0.0
 40
508.000000
 41
1.000000
  1
B202
  7
COURIER_NEW
 72
 1
 11
33105.0
 21
20000.0
 31
0.0
100
AcDbText
 73
 2
  0
TEXT
  5
3FA
100
AcDbEntity
  8
PIN_NUMBERS_TOP
100
AcDbText
 10
31598.272
 20
18507.496
 30
0.0
 40
508.000000
 41
1.000000
  1
B203
  7
COURIER_NEW
 72
 1
 11
32470.0
 21
18730.0
 31
0.0
100
AcDbText
 73
 2
  0
TEXT
  5
3FB
100
AcDbEntity
  8
PIN_NUMBERS_TOP
100
AcDbText
 10
33503.272
 20
17237.496
 30
0.0
 40
508.000000
 41
1.000000
  1
B204
  7
COURIER_NEW
 72
 1
 11
34375.0
 21
17460.0
 31
0.0
100
AcDbText
 73
 2
  0
TEXT
  5
3FC
100
AcDbEntity
  8
PIN_NUMBERS_TOP
100
AcDbText
 10
34138.272
 20
15967.496
 30
0.0
 40
508.000000
 41
1.000000
  1
B205
  7
COURIER_NEW
 72
 1
 11
35010.0
 21
16190.0
 31
0.0
100
AcDbText
 73
 2
  0
TEXT
  5
3FD
100
AcDbEntity
  8
PIN_NUMBERS_TOP
100
AcDbText
 10
32868.272
 20
15967.496
 30
0.0
 40
508.000000
 41
1.000000
  1
B206
  7
COURIER_NEW
 72
 1
 11
33740.0
 21
16190.0
 31
0.0
100
AcDbText
 73
 2
  0
TEXT
  5
3FE
100
AcDbEntity
  8
PIN_NUMBERS_TOP
100
AcDbText
 10
32233.272
 20
17237.496
 30
0.0
 40
508.000000
 41
1.000000
  1
B207
  7
COURIER_NEW
 72
 1
 11
33105.0
 21
17460.0
 31
0.0
100
AcDbText
 73
 2
  0
TEXT
  5
3FF
100
AcDbEntity
  8
PIN_NUMBERS_TOP
100
AcDbText
 10
31598.272
 20
15967.496
 30
0.0
 40
508.000000
 41
1.000000
  1
B208
  7
COURIER_NEW
 72
 1
 11
32470.0
 21
16190.0
 31
0.0
100
AcDbText
 73
 2
  0
TEXT
  5
400
100
AcDbEntity
  8
PIN_NUMBERS_TOP
100
AcDbText
 10
33503.272
 20
14697.496
 30
0.0
 40
508.000000
 41
1.000000
  1
B209
  7
COURIER_NEW
 72
 1
 11
34375.0
 21
14920.0
 31
0.0
100
AcDbText
 73
 2
  0
TEXT
  5
401
100
AcDbEntity
  8
PIN_NUMBERS_TOP
100
AcDbText
 10
34138.272
 20
13427.496
 30
0.0
 40
508.000000
 41
1.000000
  1
B210
  7
COURIER_NEW
 72
 1
 11
35010.0
 21
13650.0
 31
0.0
100
AcDbText
 73
 2
  0
TEXT
  5
402
100
AcDbEntity
  8
PIN_NUMBERS_TOP
100
AcDbText
 10
32868.272
 20
13427.496
 30
0.0
 40
508.000000
 41
1.000000
  1
B211
  7
COURIER_NEW
 72
 1
 11
33740.0
 21
13650.0
 31
0.0
100
AcDbText
 73
 2
  0
TEXT
  5
403
100
AcDbEntity
  8
PIN_NUMBERS_TOP
100
AcDbText
 10
32233.272
 20
14697.496
 30
0.0
 40
508.000000
 41
1.000000
  1
B212
  7
COURIER_NEW
 72
 1
 11
33105.0
 21
14920.0
 31
0.0
100
AcDbText
 73
 2
  0
TEXT
  5
404
100
AcDbEntity
  8
PIN_NUMBERS_TOP
100
AcDbText
 10
31598.272
 20
13427.496
 30
0.0
 40
508.000000
 41
1.000000
  1
B213
  7
COURIER_NEW
 72
 1
 11
32470.0
 21
13650.0
 31
0.0
100
AcDbText
 73
 2
  0
TEXT
  5
405
100
AcDbEntity
  8
PIN_NUMBERS_TOP
100
AcDbText
 10
33503.272
 20
12157.496
 30
0.0
 40
508.000000
 41
1.000000
  1
B214
  7
COURIER_NEW
 72
 1
 11
34375.0
 21
12380.0
 31
0.0
100
AcDbText
 73
 2
  0
TEXT
  5
406
100
AcDbEntity
  8
PIN_NUMBERS_TOP
100
AcDbText
 10
34138.272
 20
10887.496
 30
0.0
 40
508.000000
 41
1.000000
  1
B215
  7
COURIER_NEW
 72
 1
 11
35010.0
 21
11110.0
 31
0.0
100
AcDbText
 73
 2
  0
TEXT
  5
407
100
AcDbEntity
  8
PIN_NUMBERS_TOP
100
AcDbText
 10
32868.272
 20
10887.496
 30
0.0
 40
508.000000
 41
1.000000
  1
B216
  7
COURIER_NEW
 72
 1
 11
33740.0
 21
11110.0
 31
0.0
100
AcDbText
 73
 2
  0
TEXT
  5
408
100
AcDbEntity
  8
PIN_NUMBERS_TOP
100
AcDbText
 10
32233.272
 20
12157.496
 30
0.0
 40
508.000000
 41
1.000000
  1
B217
  7
COURIER_NEW
 72
 1
 11
33105.0
 21
12380.0
 31
0.0
100
AcDbText
 73
 2
  0
TEXT
  5
409
100
AcDbEntity
  8
PIN_NUMBERS_TOP
100
AcDbText
 10
31598.272
 20
10887.496
 30
0.0
 40
508.000000
 41
1.000000
  1
B218
  7
COURIER_NEW
 72
 1
 11
32470.0
 21
11110.0
 31
0.0
100
AcDbText
 73
 2
  0
TEXT
  5
40A
100
AcDbEntity
  8
PIN_NUMBERS_TOP
100
AcDbText
 10
33503.272
 20
9617.496
 30
0.0
 40
508.000000
 41
1.000000
  1
B219
  7
COURIER_NEW
 72
 1
 11
34375.0
 21
9840.0
 31
0.0
100
AcDbText
 73
 2
  0
TEXT
  5
40B
100
AcDbEntity
  8
PIN_NUMBERS_TOP
100
AcDbText
 10
34138.272
 20
8347.496
 30
0.0
 40
508.000000
 41
1.000000
  1
B220
  7
COURIER_NEW
 72
 1
 11
35010.0
 21
8570.0
 31
0.0
100
AcDbText
 73
 2
  0
TEXT
  5
40C
100
AcDbEntity
  8
PIN_NUMBERS_TOP
100
AcDbText
 10
32868.272
 20
8347.496
 30
0.0
 40
508.000000
 41
1.000000
  1
B221
  7
COURIER_NEW
 72
 1
 11
33740.0
 21
8570.0
 31
0.0
100
AcDbText
 73
 2
  0
TEXT
  5
40D
100
AcDbEntity
  8
PIN_NUMBERS_TOP
100
AcDbText
 10
32233.272
 20
9617.496
 30
0.0
 40
508.000000
 41
1.000000
  1
B222
  7
COURIER_NEW
 72
 1
 11
33105.0
 21
9840.0
 31
0.0
100
AcDbText
 73
 2
  0
TEXT
  5
40E
100
AcDbEntity
  8
PIN_NUMBERS_TOP
100
AcDbText
 10
31598.272
 20
8347.496
 30
0.0
 40
508.000000
 41
1.000000
  1
B223
  7
COURIER_NEW
 72
 1
 11
32470.0
 21
8570.0
 31
0.0
100
AcDbText
 73
 2
  0
TEXT
  5
40F
100
AcDbEntity
  8
PIN_NUMBERS_TOP
100
AcDbText
 10
33503.272
 20
7077.496
 30
0.0
 40
508.000000
 41
1.000000
  1
B224
  7
COURIER_NEW
 72
 1
 11
34375.0
 21
7300.0
 31
0.0
100
AcDbText
 73
 2
  0
TEXT
  5
410
100
AcDbEntity
  8
PIN_NUMBERS_TOP
100
AcDbText
 10
34138.272
 20
5807.496
 30
0.0
 40
508.000000
 41
1.000000
  1
B225
  7
COURIER_NEW
 72
 1
 11
35010.0
 21
6030.0
 31
0.0
100
AcDbText
 73
 2
  0
TEXT
  5
411
100
AcDbEntity
  8
PIN_NUMBERS_TOP
100
AcDbText
 10
32868.272
 20
5807.496
 30
0.0
 40
508.000000
 41
1.000000
  1
B226
  7
COURIER_NEW
 72
 1
 11
33740.0
 21
6030.0
 31
0.0
100
AcDbText
 73
 2
  0
TEXT
  5
412
100
AcDbEntity
  8
PIN_NUMBERS_TOP
100
AcDbText
 10
32233.272
 20
7077.496
 30
0.0
 40
508.000000
 41
1.000000
  1
B227
  7
COURIER_NEW
 72
 1
 11
33105.0
 21
7300.0
 31
0.0
100
AcDbText
 73
 2
  0
TEXT
  5
413
100
AcDbEntity
  8
PIN_NUMBERS_TOP
100
AcDbText
 10
31598.272
 20
5807.496
 30
0.0
 40
508.000000
 41
1.000000
  1
B228
  7
COURIER_NEW
 72
 1
 11
32470.0
 21
6030.0
 31
0.0
100
AcDbText
 73
 2
  0
TEXT
  5
414
100
AcDbEntity
  8
PIN_NUMBERS_TOP
100
AcDbText
 10
33503.272
 20
4537.496
 30
0.0
 40
508.000000
 41
1.000000
  1
B229
  7
COURIER_NEW
 72
 1
 11
34375.0
 21
4760.0
 31
0.0
100
AcDbText
 73
 2
  0
TEXT
  5
415
100
AcDbEntity
  8
PIN_NUMBERS_TOP
100
AcDbText
 10
32233.272
 20
4537.496
 30
0.0
 40
508.000000
 41
1.000000
  1
B230
  7
COURIER_NEW
 72
 1
 11
33105.0
 21
4760.0
 31
0.0
100
AcDbText
 73
 2
  0
TEXT
  5
416
100
AcDbEntity
  8
PIN_NUMBERS_TOP
100
AcDbText
 10
36027.068
 20
527.496
 30
0.0
 40
508.000000
 41
1.000000
  1
1
  7
COURIER_NEW
 72
 1
 11
36245.0
 21
750.0
 31
0.0
100
AcDbText
 73
 2
  0
TEXT
  5
417
100
AcDbEntity
  8
PIN_NUMBERS_TOP
100
AcDbText
 10
282.068
 20
39277.496
 30
0.0
 40
508.000000
 41
1.000000
  1
3
  7
COURIER_NEW
 72
 1
 11
500.0
 21
39500.0
 31
0.0
100
AcDbText
 73
 2
  0
TEXT
  5
418
100
AcDbEntity
  8
PIN_NUMBERS_TOP
100
AcDbText
 10
282.068
 20
277.496
 30
0.0
 40
508.000000
 41
1.000000
  1
2
  7
COURIER_NEW
 72
 1
 11
500.0
 21
500.0
 31
0.0
100
AcDbText
 73
 2
  0
TEXT
  5
419
100
AcDbEntity
  8
PIN_NUMBERS_TOP
100
AcDbText
 10
36282.068
 20
39277.496
 30
0.0
 40
508.000000
 41
1.000000
  1
4
  7
COURIER_NEW
 72
 1
 11
36500.0
 21
39500.0
 31
0.0
100
AcDbText
 73
 2
  0
CIRCLE
  5
41A
100
AcDbEntity
  8
SOLDERMASK_PADS_TOP
100
AcDbCircle
 10
29295.0
 20
7300.0
 30
0.0
 40
325.0
  0
CIRCLE
  5
41B
100
AcDbEntity
  8
SOLDERMASK_PADS_TOP
100
AcDbCircle
 10
28025.0
 20
7300.0
 30
0.0
 40
325.0
  0
CIRCLE
  5
41C
100
AcDbEntity
  8
SOLDERMASK_PADS_TOP
100
AcDbCircle
 10
28660.0
 20
8570.0
 30
0.0
 40
325.0
  0
CIRCLE
  5
41D
100
AcDbEntity
  8
SOLDERMASK_PADS_TOP
100
AcDbCircle
 10
29295.0
 20
9840.0
 30
0.0
 40
325.0
  0
CIRCLE
  5
41E
100
AcDbEntity
  8
SOLDERMASK_PADS_TOP
100
AcDbCircle
 10
28025.0
 20
9840.0
 30
0.0
 40
325.0
  0
CIRCLE
  5
41F
100
AcDbEntity
  8
SOLDERMASK_PADS_TOP
100
AcDbCircle
 10
26755.0
 20
7300.0
 30
0.0
 40
325.0
  0
CIRCLE
  5
420
100
AcDbEntity
  8
SOLDERMASK_PADS_TOP
100
AcDbCircle
 10
25485.0
 20
7300.0
 30
0.0
 40
325.0
  0
CIRCLE
  5
421
100
AcDbEntity
  8
SOLDERMASK_PADS_TOP
100
AcDbCircle
 10
26120.0
 20
8570.0
 30
0.0
 40
325.0
  0
CIRCLE
  5
422
100
AcDbEntity
  8
SOLDERMASK_PADS_TOP
100
AcDbCircle
 10
26755.0
 20
9840.0
 30
0.0
 40
325.0
  0
CIRCLE
  5
423
100
AcDbEntity
  8
SOLDERMASK_PADS_TOP
100
AcDbCircle
 10
25485.0
 20
9840.0
 30
0.0
 40
325.0
  0
CIRCLE
  5
424
100
AcDbEntity
  8
SOLDERMASK_PADS_TOP
100
AcDbCircle
 10
24215.0
 20
7300.0
 30
0.0
 40
325.0
  0
CIRCLE
  5
425
100
AcDbEntity
  8
SOLDERMASK_PADS_TOP
100
AcDbCircle
 10
22945.0
 20
7300.0
 30
0.0
 40
325.0
  0
CIRCLE
  5
426
100
AcDbEntity
  8
SOLDERMASK_PADS_TOP
100
AcDbCircle
 10
23580.0
 20
8570.0
 30
0.0
 40
325.0
  0
CIRCLE
  5
427
100
AcDbEntity
  8
SOLDERMASK_PADS_TOP
100
AcDbCircle
 10
24215.0
 20
9840.0
 30
0.0
 40
325.0
  0
CIRCLE
  5
428
100
AcDbEntity
  8
SOLDERMASK_PADS_TOP
100
AcDbCircle
 10
22945.0
 20
9840.0
 30
0.0
 40
325.0
  0
CIRCLE
  5
429
100
AcDbEntity
  8
SOLDERMASK_PADS_TOP
100
AcDbCircle
 10
21675.0
 20
7300.0
 30
0.0
 40
325.0
  0
CIRCLE
  5
42A
100
AcDbEntity
  8
SOLDERMASK_PADS_TOP
100
AcDbCircle
 10
20405.0
 20
7300.0
 30
0.0
 40
325.0
  0
CIRCLE
  5
42B
100
AcDbEntity
  8
SOLDERMASK_PADS_TOP
100
AcDbCircle
 10
21040.0
 20
8570.0
 30
0.0
 40
325.0
  0
CIRCLE
  5
42C
100
AcDbEntity
  8
SOLDERMASK_PADS_TOP
100
AcDbCircle
 10
21675.0
 20
9840.0
 30
0.0
 40
325.0
  0
CIRCLE
  5
42D
100
AcDbEntity
  8
SOLDERMASK_PADS_TOP
100
AcDbCircle
 10
20405.0
 20
9840.0
 30
0.0
 40
325.0
  0
CIRCLE
  5
42E
100
AcDbEntity
  8
SOLDERMASK_PADS_TOP
100
AcDbCircle
 10
19135.0
 20
7300.0
 30
0.0
 40
325.0
  0
CIRCLE
  5
42F
100
AcDbEntity
  8
SOLDERMASK_PADS_TOP
100
AcDbCircle
 10
17865.0
 20
7300.0
 30
0.0
 40
325.0
  0
CIRCLE
  5
430
100
AcDbEntity
  8
SOLDERMASK_PADS_TOP
100
AcDbCircle
 10
18500.0
 20
8570.0
 30
0.0
 40
325.0
  0
CIRCLE
  5
431
100
AcDbEntity
  8
SOLDERMASK_PADS_TOP
100
AcDbCircle
 10
19135.0
 20
9840.0
 30
0.0
 40
325.0
  0
CIRCLE
  5
432
100
AcDbEntity
  8
SOLDERMASK_PADS_TOP
100
AcDbCircle
 10
17865.0
 20
9840.0
 30
0.0
 40
325.0
  0
CIRCLE
  5
433
100
AcDbEntity
  8
SOLDERMASK_PADS_TOP
100
AcDbCircle
 10
16595.0
 20
7300.0
 30
0.0
 40
325.0
  0
CIRCLE
  5
434
100
AcDbEntity
  8
SOLDERMASK_PADS_TOP
100
AcDbCircle
 10
15325.0
 20
7300.0
 30
0.0
 40
325.0
  0
CIRCLE
  5
435
100
AcDbEntity
  8
SOLDERMASK_PADS_TOP
100
AcDbCircle
 10
15960.0
 20
8570.0
 30
0.0
 40
325.0
  0
CIRCLE
  5
436
100
AcDbEntity
  8
SOLDERMASK_PADS_TOP
100
AcDbCircle
 10
16595.0
 20
9840.0
 30
0.0
 40
325.0
  0
CIRCLE
  5
437
100
AcDbEntity
  8
SOLDERMASK_PADS_TOP
100
AcDbCircle
 10
15325.0
 20
9840.0
 30
0.0
 40
325.0
  0
CIRCLE
  5
438
100
AcDbEntity
  8
SOLDERMASK_PADS_TOP
100
AcDbCircle
 10
14055.0
 20
7300.0
 30
0.0
 40
325.0
  0
CIRCLE
  5
439
100
AcDbEntity
  8
SOLDERMASK_PADS_TOP
100
AcDbCircle
 10
12785.0
 20
7300.0
 30
0.0
 40
325.0
  0
CIRCLE
  5
43A
100
AcDbEntity
  8
SOLDERMASK_PADS_TOP
100
AcDbCircle
 10
13420.0
 20
8570.0
 30
0.0
 40
325.0
  0
CIRCLE
  5
43B
100
AcDbEntity
  8
SOLDERMASK_PADS_TOP
100
AcDbCircle
 10
14055.0
 20
9840.0
 30
0.0
 40
325.0
  0
CIRCLE
  5
43C
100
AcDbEntity
  8
SOLDERMASK_PADS_TOP
100
AcDbCircle
 10
12785.0
 20
9840.0
 30
0.0
 40
325.0
  0
CIRCLE
  5
43D
100
AcDbEntity
  8
SOLDERMASK_PADS_TOP
100
AcDbCircle
 10
11515.0
 20
7300.0
 30
0.0
 40
325.0
  0
CIRCLE
  5
43E
100
AcDbEntity
  8
SOLDERMASK_PADS_TOP
100
AcDbCircle
 10
10245.0
 20
7300.0
 30
0.0
 40
325.0
  0
CIRCLE
  5
43F
100
AcDbEntity
  8
SOLDERMASK_PADS_TOP
100
AcDbCircle
 10
10880.0
 20
8570.0
 30
0.0
 40
325.0
  0
CIRCLE
  5
440
100
AcDbEntity
  8
SOLDERMASK_PADS_TOP
100
AcDbCircle
 10
11515.0
 20
9840.0
 30
0.0
 40
325.0
  0
CIRCLE
  5
441
100
AcDbEntity
  8
SOLDERMASK_PADS_TOP
100
AcDbCircle
 10
10245.0
 20
9840.0
 30
0.0
 40
325.0
  0
CIRCLE
  5
442
100
AcDbEntity
  8
SOLDERMASK_PADS_TOP
100
AcDbCircle
 10
8975.0
 20
7300.0
 30
0.0
 40
325.0
  0
CIRCLE
  5
443
100
AcDbEntity
  8
SOLDERMASK_PADS_TOP
100
AcDbCircle
 10
7705.0
 20
7300.0
 30
0.0
 40
325.0
  0
CIRCLE
  5
444
100
AcDbEntity
  8
SOLDERMASK_PADS_TOP
100
AcDbCircle
 10
8340.0
 20
8570.0
 30
0.0
 40
325.0
  0
CIRCLE
  5
445
100
AcDbEntity
  8
SOLDERMASK_PADS_TOP
100
AcDbCircle
 10
8975.0
 20
9840.0
 30
0.0
 40
325.0
  0
CIRCLE
  5
446
100
AcDbEntity
  8
SOLDERMASK_PADS_TOP
100
AcDbCircle
 10
7705.0
 20
9840.0
 30
0.0
 40
325.0
  0
CIRCLE
  5
447
100
AcDbEntity
  8
SOLDERMASK_PADS_TOP
100
AcDbCircle
 10
8340.0
 20
11110.0
 30
0.0
 40
325.0
  0
CIRCLE
  5
448
100
AcDbEntity
  8
SOLDERMASK_PADS_TOP
100
AcDbCircle
 10
7705.0
 20
12380.0
 30
0.0
 40
325.0
  0
CIRCLE
  5
449
100
AcDbEntity
  8
SOLDERMASK_PADS_TOP
100
AcDbCircle
 10
8975.0
 20
12380.0
 30
0.0
 40
325.0
  0
CIRCLE
  5
44A
100
AcDbEntity
  8
SOLDERMASK_PADS_TOP
100
AcDbCircle
 10
9610.0
 20
11110.0
 30
0.0
 40
325.0
  0
CIRCLE
  5
44B
100
AcDbEntity
  8
SOLDERMASK_PADS_TOP
100
AcDbCircle
 10
10245.0
 20
12380.0
 30
0.0
 40
325.0
  0
CIRCLE
  5
44C
100
AcDbEntity
  8
SOLDERMASK_PADS_TOP
100
AcDbCircle
 10
8340.0
 20
13650.0
 30
0.0
 40
325.0
  0
CIRCLE
  5
44D
100
AcDbEntity
  8
SOLDERMASK_PADS_TOP
100
AcDbCircle
 10
7705.0
 20
14920.0
 30
0.0
 40
325.0
  0
CIRCLE
  5
44E
100
AcDbEntity
  8
SOLDERMASK_PADS_TOP
100
AcDbCircle
 10
8975.0
 20
14920.0
 30
0.0
 40
325.0
  0
CIRCLE
  5
44F
100
AcDbEntity
  8
SOLDERMASK_PADS_TOP
100
AcDbCircle
 10
9610.0
 20
13650.0
 30
0.0
 40
325.0
  0
CIRCLE
  5
450
100
AcDbEntity
  8
SOLDERMASK_PADS_TOP
100
AcDbCircle
 10
10245.0
 20
14920.0
 30
0.0
 40
325.0
  0
CIRCLE
  5
451
100
AcDbEntity
  8
SOLDERMASK_PADS_TOP
100
AcDbCircle
 10
8340.0
 20
16190.0
 30
0.0
 40
325.0
  0
CIRCLE
  5
452
100
AcDbEntity
  8
SOLDERMASK_PADS_TOP
100
AcDbCircle
 10
7705.0
 20
17460.0
 30
0.0
 40
325.0
  0
CIRCLE
  5
453
100
AcDbEntity
  8
SOLDERMASK_PADS_TOP
100
AcDbCircle
 10
8975.0
 20
17460.0
 30
0.0
 40
325.0
  0
CIRCLE
  5
454
100
AcDbEntity
  8
SOLDERMASK_PADS_TOP
100
AcDbCircle
 10
9610.0
 20
16190.0
 30
0.0
 40
325.0
  0
CIRCLE
  5
455
100
AcDbEntity
  8
SOLDERMASK_PADS_TOP
100
AcDbCircle
 10
10245.0
 20
17460.0
 30
0.0
 40
325.0
  0
CIRCLE
  5
456
100
AcDbEntity
  8
SOLDERMASK_PADS_TOP
100
AcDbCircle
 10
8340.0
 20
18730.0
 30
0.0
 40
325.0
  0
CIRCLE
  5
457
100
AcDbEntity
  8
SOLDERMASK_PADS_TOP
100
AcDbCircle
 10
7705.0
 20
20000.0
 30
0.0
 40
325.0
  0
CIRCLE
  5
458
100
AcDbEntity
  8
SOLDERMASK_PADS_TOP
100
AcDbCircle
 10
8975.0
 20
20000.0
 30
0.0
 40
325.0
  0
CIRCLE
  5
459
100
AcDbEntity
  8
SOLDERMASK_PADS_TOP
100
AcDbCircle
 10
9610.0
 20
18730.0
 30
0.0
 40
325.0
  0
CIRCLE
  5
45A
100
AcDbEntity
  8
SOLDERMASK_PADS_TOP
100
AcDbCircle
 10
10245.0
 20
20000.0
 30
0.0
 40
325.0
  0
CIRCLE
  5
45B
100
AcDbEntity
  8
SOLDERMASK_PADS_TOP
100
AcDbCircle
 10
8340.0
 20
21270.0
 30
0.0
 40
325.0
  0
CIRCLE
  5
45C
100
AcDbEntity
  8
SOLDERMASK_PADS_TOP
100
AcDbCircle
 10
7705.0
 20
22540.0
 30
0.0
 40
325.0
  0
CIRCLE
  5
45D
100
AcDbEntity
  8
SOLDERMASK_PADS_TOP
100
AcDbCircle
 10
8975.0
 20
22540.0
 30
0.0
 40
325.0
  0
CIRCLE
  5
45E
100
AcDbEntity
  8
SOLDERMASK_PADS_TOP
100
AcDbCircle
 10
9610.0
 20
21270.0
 30
0.0
 40
325.0
  0
CIRCLE
  5
45F
100
AcDbEntity
  8
SOLDERMASK_PADS_TOP
100
AcDbCircle
 10
10245.0
 20
22540.0
 30
0.0
 40
325.0
  0
CIRCLE
  5
460
100
AcDbEntity
  8
SOLDERMASK_PADS_TOP
100
AcDbCircle
 10
8340.0
 20
23810.0
 30
0.0
 40
325.0
  0
CIRCLE
  5
461
100
AcDbEntity
  8
SOLDERMASK_PADS_TOP
100
AcDbCircle
 10
7705.0
 20
25080.0
 30
0.0
 40
325.0
  0
CIRCLE
  5
462
100
AcDbEntity
  8
SOLDERMASK_PADS_TOP
100
AcDbCircle
 10
8975.0
 20
25080.0
 30
0.0
 40
325.0
  0
CIRCLE
  5
463
100
AcDbEntity
  8
SOLDERMASK_PADS_TOP
100
AcDbCircle
 10
9610.0
 20
23810.0
 30
0.0
 40
325.0
  0
CIRCLE
  5
464
100
AcDbEntity
  8
SOLDERMASK_PADS_TOP
100
AcDbCircle
 10
10245.0
 20
25080.0
 30
0.0
 40
325.0
  0
CIRCLE
  5
465
100
AcDbEntity
  8
SOLDERMASK_PADS_TOP
100
AcDbCircle
 10
8340.0
 20
26350.0
 30
0.0
 40
325.0
  0
CIRCLE
  5
466
100
AcDbEntity
  8
SOLDERMASK_PADS_TOP
100
AcDbCircle
 10
7705.0
 20
27620.0
 30
0.0
 40
325.0
  0
CIRCLE
  5
467
100
AcDbEntity
  8
SOLDERMASK_PADS_TOP
100
AcDbCircle
 10
8975.0
 20
27620.0
 30
0.0
 40
325.0
  0
CIRCLE
  5
468
100
AcDbEntity
  8
SOLDERMASK_PADS_TOP
100
AcDbCircle
 10
9610.0
 20
26350.0
 30
0.0
 40
325.0
  0
CIRCLE
  5
469
100
AcDbEntity
  8
SOLDERMASK_PADS_TOP
100
AcDbCircle
 10
10245.0
 20
27620.0
 30
0.0
 40
325.0
  0
CIRCLE
  5
46A
100
AcDbEntity
  8
SOLDERMASK_PADS_TOP
100
AcDbCircle
 10
8340.0
 20
28890.0
 30
0.0
 40
325.0
  0
CIRCLE
  5
46B
100
AcDbEntity
  8
SOLDERMASK_PADS_TOP
100
AcDbCircle
 10
9610.0
 20
28890.0
 30
0.0
 40
325.0
  0
CIRCLE
  5
46C
100
AcDbEntity
  8
SOLDERMASK_PADS_TOP
100
AcDbCircle
 10
7705.0
 20
32700.0
 30
0.0
 40
325.0
  0
CIRCLE
  5
46D
100
AcDbEntity
  8
SOLDERMASK_PADS_TOP
100
AcDbCircle
 10
8975.0
 20
32700.0
 30
0.0
 40
325.0
  0
CIRCLE
  5
46E
100
AcDbEntity
  8
SOLDERMASK_PADS_TOP
100
AcDbCircle
 10
8340.0
 20
31430.0
 30
0.0
 40
325.0
  0
CIRCLE
  5
46F
100
AcDbEntity
  8
SOLDERMASK_PADS_TOP
100
AcDbCircle
 10
7705.0
 20
30160.0
 30
0.0
 40
325.0
  0
CIRCLE
  5
470
100
AcDbEntity
  8
SOLDERMASK_PADS_TOP
100
AcDbCircle
 10
8975.0
 20
30160.0
 30
0.0
 40
325.0
  0
CIRCLE
  5
471
100
AcDbEntity
  8
SOLDERMASK_PADS_TOP
100
AcDbCircle
 10
10245.0
 20
32700.0
 30
0.0
 40
325.0
  0
CIRCLE
  5
472
100
AcDbEntity
  8
SOLDERMASK_PADS_TOP
100
AcDbCircle
 10
11515.0
 20
32700.0
 30
0.0
 40
325.0
  0
CIRCLE
  5
473
100
AcDbEntity
  8
SOLDERMASK_PADS_TOP
100
AcDbCircle
 10
10880.0
 20
31430.0
 30
0.0
 40
325.0
  0
CIRCLE
  5
474
100
AcDbEntity
  8
SOLDERMASK_PADS_TOP
100
AcDbCircle
 10
10245.0
 20
30160.0
 30
0.0
 40
325.0
  0
CIRCLE
  5
475
100
AcDbEntity
  8
SOLDERMASK_PADS_TOP
100
AcDbCircle
 10
11515.0
 20
30160.0
 30
0.0
 40
325.0
  0
CIRCLE
  5
476
100
AcDbEntity
  8
SOLDERMASK_PADS_TOP
100
AcDbCircle
 10
12785.0
 20
32700.0
 30
0.0
 40
325.0
  0
CIRCLE
  5
477
100
AcDbEntity
  8
SOLDERMASK_PADS_TOP
100
AcDbCircle
 10
14055.0
 20
32700.0
 30
0.0
 40
325.0
  0
CIRCLE
  5
478
100
AcDbEntity
  8
SOLDERMASK_PADS_TOP
100
AcDbCircle
 10
13420.0
 20
31430.0
 30
0.0
 40
325.0
  0
CIRCLE
  5
479
100
AcDbEntity
  8
SOLDERMASK_PADS_TOP
100
AcDbCircle
 10
12785.0
 20
30160.0
 30
0.0
 40
325.0
  0
CIRCLE
  5
47A
100
AcDbEntity
  8
SOLDERMASK_PADS_TOP
100
AcDbCircle
 10
14055.0
 20
30160.0
 30
0.0
 40
325.0
  0
CIRCLE
  5
47B
100
AcDbEntity
  8
SOLDERMASK_PADS_TOP
100
AcDbCircle
 10
15325.0
 20
32700.0
 30
0.0
 40
325.0
  0
CIRCLE
  5
47C
100
AcDbEntity
  8
SOLDERMASK_PADS_TOP
100
AcDbCircle
 10
16595.0
 20
32700.0
 30
0.0
 40
325.0
  0
CIRCLE
  5
47D
100
AcDbEntity
  8
SOLDERMASK_PADS_TOP
100
AcDbCircle
 10
15960.0
 20
31430.0
 30
0.0
 40
325.0
  0
CIRCLE
  5
47E
100
AcDbEntity
  8
SOLDERMASK_PADS_TOP
100
AcDbCircle
 10
15325.0
 20
30160.0
 30
0.0
 40
325.0
  0
CIRCLE
  5
47F
100
AcDbEntity
  8
SOLDERMASK_PADS_TOP
100
AcDbCircle
 10
16595.0
 20
30160.0
 30
0.0
 40
325.0
  0
CIRCLE
  5
480
100
AcDbEntity
  8
SOLDERMASK_PADS_TOP
100
AcDbCircle
 10
17865.0
 20
32700.0
 30
0.0
 40
325.0
  0
CIRCLE
  5
481
100
AcDbEntity
  8
SOLDERMASK_PADS_TOP
100
AcDbCircle
 10
19135.0
 20
32700.0
 30
0.0
 40
325.0
  0
CIRCLE
  5
482
100
AcDbEntity
  8
SOLDERMASK_PADS_TOP
100
AcDbCircle
 10
18500.0
 20
31430.0
 30
0.0
 40
325.0
  0
CIRCLE
  5
483
100
AcDbEntity
  8
SOLDERMASK_PADS_TOP
100
AcDbCircle
 10
17865.0
 20
30160.0
 30
0.0
 40
325.0
  0
CIRCLE
  5
484
100
AcDbEntity
  8
SOLDERMASK_PADS_TOP
100
AcDbCircle
 10
19135.0
 20
30160.0
 30
0.0
 40
325.0
  0
CIRCLE
  5
485
100
AcDbEntity
  8
SOLDERMASK_PADS_TOP
100
AcDbCircle
 10
20405.0
 20
32700.0
 30
0.0
 40
325.0
  0
CIRCLE
  5
486
100
AcDbEntity
  8
SOLDERMASK_PADS_TOP
100
AcDbCircle
 10
21675.0
 20
32700.0
 30
0.0
 40
325.0
  0
CIRCLE
  5
487
100
AcDbEntity
  8
SOLDERMASK_PADS_TOP
100
AcDbCircle
 10
21040.0
 20
31430.0
 30
0.0
 40
325.0
  0
CIRCLE
  5
488
100
AcDbEntity
  8
SOLDERMASK_PADS_TOP
100
AcDbCircle
 10
20405.0
 20
30160.0
 30
0.0
 40
325.0
  0
CIRCLE
  5
489
100
AcDbEntity
  8
SOLDERMASK_PADS_TOP
100
AcDbCircle
 10
21675.0
 20
30160.0
 30
0.0
 40
325.0
  0
CIRCLE
  5
48A
100
AcDbEntity
  8
SOLDERMASK_PADS_TOP
100
AcDbCircle
 10
22945.0
 20
32700.0
 30
0.0
 40
325.0
  0
CIRCLE
  5
48B
100
AcDbEntity
  8
SOLDERMASK_PADS_TOP
100
AcDbCircle
 10
24215.0
 20
32700.0
 30
0.0
 40
325.0
  0
CIRCLE
  5
48C
100
AcDbEntity
  8
SOLDERMASK_PADS_TOP
100
AcDbCircle
 10
23580.0
 20
31430.0
 30
0.0
 40
325.0
  0
CIRCLE
  5
48D
100
AcDbEntity
  8
SOLDERMASK_PADS_TOP
100
AcDbCircle
 10
22945.0
 20
30160.0
 30
0.0
 40
325.0
  0
CIRCLE
  5
48E
100
AcDbEntity
  8
SOLDERMASK_PADS_TOP
100
AcDbCircle
 10
24215.0
 20
30160.0
 30
0.0
 40
325.0
  0
CIRCLE
  5
48F
100
AcDbEntity
  8
SOLDERMASK_PADS_TOP
100
AcDbCircle
 10
25485.0
 20
32700.0
 30
0.0
 40
325.0
  0
CIRCLE
  5
490
100
AcDbEntity
  8
SOLDERMASK_PADS_TOP
100
AcDbCircle
 10
26755.0
 20
32700.0
 30
0.0
 40
325.0
  0
CIRCLE
  5
491
100
AcDbEntity
  8
SOLDERMASK_PADS_TOP
100
AcDbCircle
 10
26120.0
 20
31430.0
 30
0.0
 40
325.0
  0
CIRCLE
  5
492
100
AcDbEntity
  8
SOLDERMASK_PADS_TOP
100
AcDbCircle
 10
25485.0
 20
30160.0
 30
0.0
 40
325.0
  0
CIRCLE
  5
493
100
AcDbEntity
  8
SOLDERMASK_PADS_TOP
100
AcDbCircle
 10
26755.0
 20
30160.0
 30
0.0
 40
325.0
  0
CIRCLE
  5
494
100
AcDbEntity
  8
SOLDERMASK_PADS_TOP
100
AcDbCircle
 10
28025.0
 20
32700.0
 30
0.0
 40
325.0
  0
CIRCLE
  5
495
100
AcDbEntity
  8
SOLDERMASK_PADS_TOP
100
AcDbCircle
 10
29295.0
 20
32700.0
 30
0.0
 40
325.0
  0
CIRCLE
  5
496
100
AcDbEntity
  8
SOLDERMASK_PADS_TOP
100
AcDbCircle
 10
28660.0
 20
31430.0
 30
0.0
 40
325.0
  0
CIRCLE
  5
497
100
AcDbEntity
  8
SOLDERMASK_PADS_TOP
100
AcDbCircle
 10
28025.0
 20
30160.0
 30
0.0
 40
325.0
  0
CIRCLE
  5
498
100
AcDbEntity
  8
SOLDERMASK_PADS_TOP
100
AcDbCircle
 10
29295.0
 20
30160.0
 30
0.0
 40
325.0
  0
CIRCLE
  5
499
100
AcDbEntity
  8
SOLDERMASK_PADS_TOP
100
AcDbCircle
 10
28660.0
 20
28890.0
 30
0.0
 40
325.0
  0
CIRCLE
  5
49A
100
AcDbEntity
  8
SOLDERMASK_PADS_TOP
100
AcDbCircle
 10
29295.0
 20
27620.0
 30
0.0
 40
325.0
  0
CIRCLE
  5
49B
100
AcDbEntity
  8
SOLDERMASK_PADS_TOP
100
AcDbCircle
 10
28025.0
 20
27620.0
 30
0.0
 40
325.0
  0
CIRCLE
  5
49C
100
AcDbEntity
  8
SOLDERMASK_PADS_TOP
100
AcDbCircle
 10
27390.0
 20
28890.0
 30
0.0
 40
325.0
  0
CIRCLE
  5
49D
100
AcDbEntity
  8
SOLDERMASK_PADS_TOP
100
AcDbCircle
 10
26755.0
 20
27620.0
 30
0.0
 40
325.0
  0
CIRCLE
  5
49E
100
AcDbEntity
  8
SOLDERMASK_PADS_TOP
100
AcDbCircle
 10
28660.0
 20
26350.0
 30
0.0
 40
325.0
  0
CIRCLE
  5
49F
100
AcDbEntity
  8
SOLDERMASK_PADS_TOP
100
AcDbCircle
 10
29295.0
 20
25080.0
 30
0.0
 40
325.0
  0
CIRCLE
  5
4A0
100
AcDbEntity
  8
SOLDERMASK_PADS_TOP
100
AcDbCircle
 10
28025.0
 20
25080.0
 30
0.0
 40
325.0
  0
CIRCLE
  5
4A1
100
AcDbEntity
  8
SOLDERMASK_PADS_TOP
100
AcDbCircle
 10
27390.0
 20
26350.0
 30
0.0
 40
325.0
  0
CIRCLE
  5
4A2
100
AcDbEntity
  8
SOLDERMASK_PADS_TOP
100
AcDbCircle
 10
26755.0
 20
25080.0
 30
0.0
 40
325.0
  0
CIRCLE
  5
4A3
100
AcDbEntity
  8
SOLDERMASK_PADS_TOP
100
AcDbCircle
 10
28660.0
 20
23810.0
 30
0.0
 40
325.0
  0
CIRCLE
  5
4A4
100
AcDbEntity
  8
SOLDERMASK_PADS_TOP
100
AcDbCircle
 10
29295.0
 20
22540.0
 30
0.0
 40
325.0
  0
CIRCLE
  5
4A5
100
AcDbEntity
  8
SOLDERMASK_PADS_TOP
100
AcDbCircle
 10
28025.0
 20
22540.0
 30
0.0
 40
325.0
  0
CIRCLE
  5
4A6
100
AcDbEntity
  8
SOLDERMASK_PADS_TOP
100
AcDbCircle
 10
27390.0
 20
23810.0
 30
0.0
 40
325.0
  0
CIRCLE
  5
4A7
100
AcDbEntity
  8
SOLDERMASK_PADS_TOP
100
AcDbCircle
 10
26755.0
 20
22540.0
 30
0.0
 40
325.0
  0
CIRCLE
  5
4A8
100
AcDbEntity
  8
SOLDERMASK_PADS_TOP
100
AcDbCircle
 10
28660.0
 20
21270.0
 30
0.0
 40
325.0
  0
CIRCLE
  5
4A9
100
AcDbEntity
  8
SOLDERMASK_PADS_TOP
100
AcDbCircle
 10
29295.0
 20
20000.0
 30
0.0
 40
325.0
  0
CIRCLE
  5
4AA
100
AcDbEntity
  8
SOLDERMASK_PADS_TOP
100
AcDbCircle
 10
28025.0
 20
20000.0
 30
0.0
 40
325.0
  0
CIRCLE
  5
4AB
100
AcDbEntity
  8
SOLDERMASK_PADS_TOP
100
AcDbCircle
 10
27390.0
 20
21270.0
 30
0.0
 40
325.0
  0
CIRCLE
  5
4AC
100
AcDbEntity
  8
SOLDERMASK_PADS_TOP
100
AcDbCircle
 10
26755.0
 20
20000.0
 30
0.0
 40
325.0
  0
CIRCLE
  5
4AD
100
AcDbEntity
  8
SOLDERMASK_PADS_TOP
100
AcDbCircle
 10
28660.0
 20
18730.0
 30
0.0
 40
325.0
  0
CIRCLE
  5
4AE
100
AcDbEntity
  8
SOLDERMASK_PADS_TOP
100
AcDbCircle
 10
29295.0
 20
17460.0
 30
0.0
 40
325.0
  0
CIRCLE
  5
4AF
100
AcDbEntity
  8
SOLDERMASK_PADS_TOP
100
AcDbCircle
 10
28025.0
 20
17460.0
 30
0.0
 40
325.0
  0
CIRCLE
  5
4B0
100
AcDbEntity
  8
SOLDERMASK_PADS_TOP
100
AcDbCircle
 10
27390.0
 20
18730.0
 30
0.0
 40
325.0
  0
CIRCLE
  5
4B1
100
AcDbEntity
  8
SOLDERMASK_PADS_TOP
100
AcDbCircle
 10
26755.0
 20
17460.0
 30
0.0
 40
325.0
  0
CIRCLE
  5
4B2
100
AcDbEntity
  8
SOLDERMASK_PADS_TOP
100
AcDbCircle
 10
28660.0
 20
16190.0
 30
0.0
 40
325.0
  0
CIRCLE
  5
4B3
100
AcDbEntity
  8
SOLDERMASK_PADS_TOP
100
AcDbCircle
 10
29295.0
 20
14920.0
 30
0.0
 40
325.0
  0
CIRCLE
  5
4B4
100
AcDbEntity
  8
SOLDERMASK_PADS_TOP
100
AcDbCircle
 10
28025.0
 20
14920.0
 30
0.0
 40
325.0
  0
CIRCLE
  5
4B5
100
AcDbEntity
  8
SOLDERMASK_PADS_TOP
100
AcDbCircle
 10
27390.0
 20
16190.0
 30
0.0
 40
325.0
  0
CIRCLE
  5
4B6
100
AcDbEntity
  8
SOLDERMASK_PADS_TOP
100
AcDbCircle
 10
26755.0
 20
14920.0
 30
0.0
 40
325.0
  0
CIRCLE
  5
4B7
100
AcDbEntity
  8
SOLDERMASK_PADS_TOP
100
AcDbCircle
 10
28660.0
 20
13650.0
 30
0.0
 40
325.0
  0
CIRCLE
  5
4B8
100
AcDbEntity
  8
SOLDERMASK_PADS_TOP
100
AcDbCircle
 10
29295.0
 20
12380.0
 30
0.0
 40
325.0
  0
CIRCLE
  5
4B9
100
AcDbEntity
  8
SOLDERMASK_PADS_TOP
100
AcDbCircle
 10
28025.0
 20
12380.0
 30
0.0
 40
325.0
  0
CIRCLE
  5
4BA
100
AcDbEntity
  8
SOLDERMASK_PADS_TOP
100
AcDbCircle
 10
27390.0
 20
13650.0
 30
0.0
 40
325.0
  0
CIRCLE
  5
4BB
100
AcDbEntity
  8
SOLDERMASK_PADS_TOP
100
AcDbCircle
 10
26755.0
 20
12380.0
 30
0.0
 40
325.0
  0
CIRCLE
  5
4BC
100
AcDbEntity
  8
SOLDERMASK_PADS_TOP
100
AcDbCircle
 10
28660.0
 20
11110.0
 30
0.0
 40
325.0
  0
CIRCLE
  5
4BD
100
AcDbEntity
  8
SOLDERMASK_PADS_TOP
100
AcDbCircle
 10
27390.0
 20
11110.0
 30
0.0
 40
325.0
  0
CIRCLE
  5
4BE
100
AcDbEntity
  8
SOLDERMASK_PADS_TOP
100
AcDbCircle
 10
34375.0
 20
2220.0
 30
0.0
 40
325.0
  0
CIRCLE
  5
4BF
100
AcDbEntity
  8
SOLDERMASK_PADS_TOP
100
AcDbCircle
 10
33105.0
 20
2220.0
 30
0.0
 40
325.0
  0
CIRCLE
  5
4C0
100
AcDbEntity
  8
SOLDERMASK_PADS_TOP
100
AcDbCircle
 10
33740.0
 20
3490.0
 30
0.0
 40
325.0
  0
CIRCLE
  5
4C1
100
AcDbEntity
  8
SOLDERMASK_PADS_TOP
100
AcDbCircle
 10
31835.0
 20
2220.0
 30
0.0
 40
325.0
  0
CIRCLE
  5
4C2
100
AcDbEntity
  8
SOLDERMASK_PADS_TOP
100
AcDbCircle
 10
30565.0
 20
2220.0
 30
0.0
 40
325.0
  0
CIRCLE
  5
4C3
100
AcDbEntity
  8
SOLDERMASK_PADS_TOP
100
AcDbCircle
 10
31200.0
 20
3490.0
 30
0.0
 40
325.0
  0
CIRCLE
  5
4C4
100
AcDbEntity
  8
SOLDERMASK_PADS_TOP
100
AcDbCircle
 10
29295.0
 20
2220.0
 30
0.0
 40
325.0
  0
CIRCLE
  5
4C5
100
AcDbEntity
  8
SOLDERMASK_PADS_TOP
100
AcDbCircle
 10
28025.0
 20
2220.0
 30
0.0
 40
325.0
  0
CIRCLE
  5
4C6
100
AcDbEntity
  8
SOLDERMASK_PADS_TOP
100
AcDbCircle
 10
28660.0
 20
3490.0
 30
0.0
 40
325.0
  0
CIRCLE
  5
4C7
100
AcDbEntity
  8
SOLDERMASK_PADS_TOP
100
AcDbCircle
 10
26755.0
 20
2220.0
 30
0.0
 40
325.0
  0
CIRCLE
  5
4C8
100
AcDbEntity
  8
SOLDERMASK_PADS_TOP
100
AcDbCircle
 10
25485.0
 20
2220.0
 30
0.0
 40
325.0
  0
CIRCLE
  5
4C9
100
AcDbEntity
  8
SOLDERMASK_PADS_TOP
100
AcDbCircle
 10
26120.0
 20
3490.0
 30
0.0
 40
325.0
  0
CIRCLE
  5
4CA
100
AcDbEntity
  8
SOLDERMASK_PADS_TOP
100
AcDbCircle
 10
26755.0
 20
4760.0
 30
0.0
 40
325.0
  0
CIRCLE
  5
4CB
100
AcDbEntity
  8
SOLDERMASK_PADS_TOP
100
AcDbCircle
 10
25485.0
 20
4760.0
 30
0.0
 40
325.0
  0
CIRCLE
  5
4CC
100
AcDbEntity
  8
SOLDERMASK_PADS_TOP
100
AcDbCircle
 10
24215.0
 20
2220.0
 30
0.0
 40
325.0
  0
CIRCLE
  5
4CD
100
AcDbEntity
  8
SOLDERMASK_PADS_TOP
100
AcDbCircle
 10
22945.0
 20
2220.0
 30
0.0
 40
325.0
  0
CIRCLE
  5
4CE
100
AcDbEntity
  8
SOLDERMASK_PADS_TOP
100
AcDbCircle
 10
23580.0
 20
3490.0
 30
0.0
 40
325.0
  0
CIRCLE
  5
4CF
100
AcDbEntity
  8
SOLDERMASK_PADS_TOP
100
AcDbCircle
 10
24215.0
 20
4760.0
 30
0.0
 40
325.0
  0
CIRCLE
  5
4D0
100
AcDbEntity
  8
SOLDERMASK_PADS_TOP
100
AcDbCircle
 10
22945.0
 20
4760.0
 30
0.0
 40
325.0
  0
CIRCLE
  5
4D1
100
AcDbEntity
  8
SOLDERMASK_PADS_TOP
100
AcDbCircle
 10
21675.0
 20
2220.0
 30
0.0
 40
325.0
  0
CIRCLE
  5
4D2
100
AcDbEntity
  8
SOLDERMASK_PADS_TOP
100
AcDbCircle
 10
20405.0
 20
2220.0
 30
0.0
 40
325.0
  0
CIRCLE
  5
4D3
100
AcDbEntity
  8
SOLDERMASK_PADS_TOP
100
AcDbCircle
 10
21040.0
 20
3490.0
 30
0.0
 40
325.0
  0
CIRCLE
  5
4D4
100
AcDbEntity
  8
SOLDERMASK_PADS_TOP
100
AcDbCircle
 10
21675.0
 20
4760.0
 30
0.0
 40
325.0
  0
CIRCLE
  5
4D5
100
AcDbEntity
  8
SOLDERMASK_PADS_TOP
100
AcDbCircle
 10
20405.0
 20
4760.0
 30
0.0
 40
325.0
  0
CIRCLE
  5
4D6
100
AcDbEntity
  8
SOLDERMASK_PADS_TOP
100
AcDbCircle
 10
19135.0
 20
2220.0
 30
0.0
 40
325.0
  0
CIRCLE
  5
4D7
100
AcDbEntity
  8
SOLDERMASK_PADS_TOP
100
AcDbCircle
 10
17865.0
 20
2220.0
 30
0.0
 40
325.0
  0
CIRCLE
  5
4D8
100
AcDbEntity
  8
SOLDERMASK_PADS_TOP
100
AcDbCircle
 10
18500.0
 20
3490.0
 30
0.0
 40
325.0
  0
CIRCLE
  5
4D9
100
AcDbEntity
  8
SOLDERMASK_PADS_TOP
100
AcDbCircle
 10
19135.0
 20
4760.0
 30
0.0
 40
325.0
  0
CIRCLE
  5
4DA
100
AcDbEntity
  8
SOLDERMASK_PADS_TOP
100
AcDbCircle
 10
17865.0
 20
4760.0
 30
0.0
 40
325.0
  0
CIRCLE
  5
4DB
100
AcDbEntity
  8
SOLDERMASK_PADS_TOP
100
AcDbCircle
 10
16595.0
 20
2220.0
 30
0.0
 40
325.0
  0
CIRCLE
  5
4DC
100
AcDbEntity
  8
SOLDERMASK_PADS_TOP
100
AcDbCircle
 10
15325.0
 20
2220.0
 30
0.0
 40
325.0
  0
CIRCLE
  5
4DD
100
AcDbEntity
  8
SOLDERMASK_PADS_TOP
100
AcDbCircle
 10
15960.0
 20
3490.0
 30
0.0
 40
325.0
  0
CIRCLE
  5
4DE
100
AcDbEntity
  8
SOLDERMASK_PADS_TOP
100
AcDbCircle
 10
16595.0
 20
4760.0
 30
0.0
 40
325.0
  0
CIRCLE
  5
4DF
100
AcDbEntity
  8
SOLDERMASK_PADS_TOP
100
AcDbCircle
 10
15325.0
 20
4760.0
 30
0.0
 40
325.0
  0
CIRCLE
  5
4E0
100
AcDbEntity
  8
SOLDERMASK_PADS_TOP
100
AcDbCircle
 10
14055.0
 20
2220.0
 30
0.0
 40
325.0
  0
CIRCLE
  5
4E1
100
AcDbEntity
  8
SOLDERMASK_PADS_TOP
100
AcDbCircle
 10
12785.0
 20
2220.0
 30
0.0
 40
325.0
  0
CIRCLE
  5
4E2
100
AcDbEntity
  8
SOLDERMASK_PADS_TOP
100
AcDbCircle
 10
13420.0
 20
3490.0
 30
0.0
 40
325.0
  0
CIRCLE
  5
4E3
100
AcDbEntity
  8
SOLDERMASK_PADS_TOP
100
AcDbCircle
 10
14055.0
 20
4760.0
 30
0.0
 40
325.0
  0
CIRCLE
  5
4E4
100
AcDbEntity
  8
SOLDERMASK_PADS_TOP
100
AcDbCircle
 10
12785.0
 20
4760.0
 30
0.0
 40
325.0
  0
CIRCLE
  5
4E5
100
AcDbEntity
  8
SOLDERMASK_PADS_TOP
100
AcDbCircle
 10
11515.0
 20
2220.0
 30
0.0
 40
325.0
  0
CIRCLE
  5
4E6
100
AcDbEntity
  8
SOLDERMASK_PADS_TOP
100
AcDbCircle
 10
10245.0
 20
2220.0
 30
0.0
 40
325.0
  0
CIRCLE
  5
4E7
100
AcDbEntity
  8
SOLDERMASK_PADS_TOP
100
AcDbCircle
 10
10880.0
 20
3490.0
 30
0.0
 40
325.0
  0
CIRCLE
  5
4E8
100
AcDbEntity
  8
SOLDERMASK_PADS_TOP
100
AcDbCircle
 10
11515.0
 20
4760.0
 30
0.0
 40
325.0
  0
CIRCLE
  5
4E9
100
AcDbEntity
  8
SOLDERMASK_PADS_TOP
100
AcDbCircle
 10
10245.0
 20
4760.0
 30
0.0
 40
325.0
  0
CIRCLE
  5
4EA
100
AcDbEntity
  8
SOLDERMASK_PADS_TOP
100
AcDbCircle
 10
8975.0
 20
2220.0
 30
0.0
 40
325.0
  0
CIRCLE
  5
4EB
100
AcDbEntity
  8
SOLDERMASK_PADS_TOP
100
AcDbCircle
 10
7705.0
 20
2220.0
 30
0.0
 40
325.0
  0
CIRCLE
  5
4EC
100
AcDbEntity
  8
SOLDERMASK_PADS_TOP
100
AcDbCircle
 10
8340.0
 20
3490.0
 30
0.0
 40
325.0
  0
CIRCLE
  5
4ED
100
AcDbEntity
  8
SOLDERMASK_PADS_TOP
100
AcDbCircle
 10
6435.0
 20
2220.0
 30
0.0
 40
325.0
  0
CIRCLE
  5
4EE
100
AcDbEntity
  8
SOLDERMASK_PADS_TOP
100
AcDbCircle
 10
5165.0
 20
2220.0
 30
0.0
 40
325.0
  0
CIRCLE
  5
4EF
100
AcDbEntity
  8
SOLDERMASK_PADS_TOP
100
AcDbCircle
 10
5800.0
 20
3490.0
 30
0.0
 40
325.0
  0
CIRCLE
  5
4F0
100
AcDbEntity
  8
SOLDERMASK_PADS_TOP
100
AcDbCircle
 10
3895.0
 20
2220.0
 30
0.0
 40
325.0
  0
CIRCLE
  5
4F1
100
AcDbEntity
  8
SOLDERMASK_PADS_TOP
100
AcDbCircle
 10
2625.0
 20
2220.0
 30
0.0
 40
325.0
  0
CIRCLE
  5
4F2
100
AcDbEntity
  8
SOLDERMASK_PADS_TOP
100
AcDbCircle
 10
3260.0
 20
3490.0
 30
0.0
 40
325.0
  0
CIRCLE
  5
4F3
100
AcDbEntity
  8
SOLDERMASK_PADS_TOP
100
AcDbCircle
 10
2625.0
 20
4760.0
 30
0.0
 40
325.0
  0
CIRCLE
  5
4F4
100
AcDbEntity
  8
SOLDERMASK_PADS_TOP
100
AcDbCircle
 10
1990.0
 20
6030.0
 30
0.0
 40
325.0
  0
CIRCLE
  5
4F5
100
AcDbEntity
  8
SOLDERMASK_PADS_TOP
100
AcDbCircle
 10
3260.0
 20
6030.0
 30
0.0
 40
325.0
  0
CIRCLE
  5
4F6
100
AcDbEntity
  8
SOLDERMASK_PADS_TOP
100
AcDbCircle
 10
3895.0
 20
4760.0
 30
0.0
 40
325.0
  0
CIRCLE
  5
4F7
100
AcDbEntity
  8
SOLDERMASK_PADS_TOP
100
AcDbCircle
 10
4530.0
 20
6030.0
 30
0.0
 40
325.0
  0
CIRCLE
  5
4F8
100
AcDbEntity
  8
SOLDERMASK_PADS_TOP
100
AcDbCircle
 10
2625.0
 20
7300.0
 30
0.0
 40
325.0
  0
CIRCLE
  5
4F9
100
AcDbEntity
  8
SOLDERMASK_PADS_TOP
100
AcDbCircle
 10
1990.0
 20
8570.0
 30
0.0
 40
325.0
  0
CIRCLE
  5
4FA
100
AcDbEntity
  8
SOLDERMASK_PADS_TOP
100
AcDbCircle
 10
3260.0
 20
8570.0
 30
0.0
 40
325.0
  0
CIRCLE
  5
4FB
100
AcDbEntity
  8
SOLDERMASK_PADS_TOP
100
AcDbCircle
 10
3895.0
 20
7300.0
 30
0.0
 40
325.0
  0
CIRCLE
  5
4FC
100
AcDbEntity
  8
SOLDERMASK_PADS_TOP
100
AcDbCircle
 10
4530.0
 20
8570.0
 30
0.0
 40
325.0
  0
CIRCLE
  5
4FD
100
AcDbEntity
  8
SOLDERMASK_PADS_TOP
100
AcDbCircle
 10
2625.0
 20
9840.0
 30
0.0
 40
325.0
  0
CIRCLE
  5
4FE
100
AcDbEntity
  8
SOLDERMASK_PADS_TOP
100
AcDbCircle
 10
1990.0
 20
11110.0
 30
0.0
 40
325.0
  0
CIRCLE
  5
4FF
100
AcDbEntity
  8
SOLDERMASK_PADS_TOP
100
AcDbCircle
 10
3260.0
 20
11110.0
 30
0.0
 40
325.0
  0
CIRCLE
  5
500
100
AcDbEntity
  8
SOLDERMASK_PADS_TOP
100
AcDbCircle
 10
3895.0
 20
9840.0
 30
0.0
 40
325.0
  0
CIRCLE
  5
501
100
AcDbEntity
  8
SOLDERMASK_PADS_TOP
100
AcDbCircle
 10
4530.0
 20
11110.0
 30
0.0
 40
325.0
  0
CIRCLE
  5
502
100
AcDbEntity
  8
SOLDERMASK_PADS_TOP
100
AcDbCircle
 10
2625.0
 20
12380.0
 30
0.0
 40
325.0
  0
CIRCLE
  5
503
100
AcDbEntity
  8
SOLDERMASK_PADS_TOP
100
AcDbCircle
 10
1990.0
 20
13650.0
 30
0.0
 40
325.0
  0
CIRCLE
  5
504
100
AcDbEntity
  8
SOLDERMASK_PADS_TOP
100
AcDbCircle
 10
3260.0
 20
13650.0
 30
0.0
 40
325.0
  0
CIRCLE
  5
505
100
AcDbEntity
  8
SOLDERMASK_PADS_TOP
100
AcDbCircle
 10
3895.0
 20
12380.0
 30
0.0
 40
325.0
  0
CIRCLE
  5
506
100
AcDbEntity
  8
SOLDERMASK_PADS_TOP
100
AcDbCircle
 10
4530.0
 20
13650.0
 30
0.0
 40
325.0
  0
CIRCLE
  5
507
100
AcDbEntity
  8
SOLDERMASK_PADS_TOP
100
AcDbCircle
 10
2625.0
 20
14920.0
 30
0.0
 40
325.0
  0
CIRCLE
  5
508
100
AcDbEntity
  8
SOLDERMASK_PADS_TOP
100
AcDbCircle
 10
1990.0
 20
16190.0
 30
0.0
 40
325.0
  0
CIRCLE
  5
509
100
AcDbEntity
  8
SOLDERMASK_PADS_TOP
100
AcDbCircle
 10
3260.0
 20
16190.0
 30
0.0
 40
325.0
  0
CIRCLE
  5
50A
100
AcDbEntity
  8
SOLDERMASK_PADS_TOP
100
AcDbCircle
 10
3895.0
 20
14920.0
 30
0.0
 40
325.0
  0
CIRCLE
  5
50B
100
AcDbEntity
  8
SOLDERMASK_PADS_TOP
100
AcDbCircle
 10
4530.0
 20
16190.0
 30
0.0
 40
325.0
  0
CIRCLE
  5
50C
100
AcDbEntity
  8
SOLDERMASK_PADS_TOP
100
AcDbCircle
 10
2625.0
 20
17460.0
 30
0.0
 40
325.0
  0
CIRCLE
  5
50D
100
AcDbEntity
  8
SOLDERMASK_PADS_TOP
100
AcDbCircle
 10
1990.0
 20
18730.0
 30
0.0
 40
325.0
  0
CIRCLE
  5
50E
100
AcDbEntity
  8
SOLDERMASK_PADS_TOP
100
AcDbCircle
 10
3260.0
 20
18730.0
 30
0.0
 40
325.0
  0
CIRCLE
  5
50F
100
AcDbEntity
  8
SOLDERMASK_PADS_TOP
100
AcDbCircle
 10
3895.0
 20
17460.0
 30
0.0
 40
325.0
  0
CIRCLE
  5
510
100
AcDbEntity
  8
SOLDERMASK_PADS_TOP
100
AcDbCircle
 10
4530.0
 20
18730.0
 30
0.0
 40
325.0
  0
CIRCLE
  5
511
100
AcDbEntity
  8
SOLDERMASK_PADS_TOP
100
AcDbCircle
 10
2625.0
 20
20000.0
 30
0.0
 40
325.0
  0
CIRCLE
  5
512
100
AcDbEntity
  8
SOLDERMASK_PADS_TOP
100
AcDbCircle
 10
1990.0
 20
21270.0
 30
0.0
 40
325.0
  0
CIRCLE
  5
513
100
AcDbEntity
  8
SOLDERMASK_PADS_TOP
100
AcDbCircle
 10
3260.0
 20
21270.0
 30
0.0
 40
325.0
  0
CIRCLE
  5
514
100
AcDbEntity
  8
SOLDERMASK_PADS_TOP
100
AcDbCircle
 10
3895.0
 20
20000.0
 30
0.0
 40
325.0
  0
CIRCLE
  5
515
100
AcDbEntity
  8
SOLDERMASK_PADS_TOP
100
AcDbCircle
 10
4530.0
 20
21270.0
 30
0.0
 40
325.0
  0
CIRCLE
  5
516
100
AcDbEntity
  8
SOLDERMASK_PADS_TOP
100
AcDbCircle
 10
2625.0
 20
22540.0
 30
0.0
 40
325.0
  0
CIRCLE
  5
517
100
AcDbEntity
  8
SOLDERMASK_PADS_TOP
100
AcDbCircle
 10
1990.0
 20
23810.0
 30
0.0
 40
325.0
  0
CIRCLE
  5
518
100
AcDbEntity
  8
SOLDERMASK_PADS_TOP
100
AcDbCircle
 10
3260.0
 20
23810.0
 30
0.0
 40
325.0
  0
CIRCLE
  5
519
100
AcDbEntity
  8
SOLDERMASK_PADS_TOP
100
AcDbCircle
 10
3895.0
 20
22540.0
 30
0.0
 40
325.0
  0
CIRCLE
  5
51A
100
AcDbEntity
  8
SOLDERMASK_PADS_TOP
100
AcDbCircle
 10
4530.0
 20
23810.0
 30
0.0
 40
325.0
  0
CIRCLE
  5
51B
100
AcDbEntity
  8
SOLDERMASK_PADS_TOP
100
AcDbCircle
 10
2625.0
 20
25080.0
 30
0.0
 40
325.0
  0
CIRCLE
  5
51C
100
AcDbEntity
  8
SOLDERMASK_PADS_TOP
100
AcDbCircle
 10
1990.0
 20
26350.0
 30
0.0
 40
325.0
  0
CIRCLE
  5
51D
100
AcDbEntity
  8
SOLDERMASK_PADS_TOP
100
AcDbCircle
 10
3260.0
 20
26350.0
 30
0.0
 40
325.0
  0
CIRCLE
  5
51E
100
AcDbEntity
  8
SOLDERMASK_PADS_TOP
100
AcDbCircle
 10
3895.0
 20
25080.0
 30
0.0
 40
325.0
  0
CIRCLE
  5
51F
100
AcDbEntity
  8
SOLDERMASK_PADS_TOP
100
AcDbCircle
 10
4530.0
 20
26350.0
 30
0.0
 40
325.0
  0
CIRCLE
  5
520
100
AcDbEntity
  8
SOLDERMASK_PADS_TOP
100
AcDbCircle
 10
2625.0
 20
27620.0
 30
0.0
 40
325.0
  0
CIRCLE
  5
521
100
AcDbEntity
  8
SOLDERMASK_PADS_TOP
100
AcDbCircle
 10
1990.0
 20
28890.0
 30
0.0
 40
325.0
  0
CIRCLE
  5
522
100
AcDbEntity
  8
SOLDERMASK_PADS_TOP
100
AcDbCircle
 10
3260.0
 20
28890.0
 30
0.0
 40
325.0
  0
CIRCLE
  5
523
100
AcDbEntity
  8
SOLDERMASK_PADS_TOP
100
AcDbCircle
 10
3895.0
 20
27620.0
 30
0.0
 40
325.0
  0
CIRCLE
  5
524
100
AcDbEntity
  8
SOLDERMASK_PADS_TOP
100
AcDbCircle
 10
4530.0
 20
28890.0
 30
0.0
 40
325.0
  0
CIRCLE
  5
525
100
AcDbEntity
  8
SOLDERMASK_PADS_TOP
100
AcDbCircle
 10
2625.0
 20
30160.0
 30
0.0
 40
325.0
  0
CIRCLE
  5
526
100
AcDbEntity
  8
SOLDERMASK_PADS_TOP
100
AcDbCircle
 10
1990.0
 20
31430.0
 30
0.0
 40
325.0
  0
CIRCLE
  5
527
100
AcDbEntity
  8
SOLDERMASK_PADS_TOP
100
AcDbCircle
 10
3260.0
 20
31430.0
 30
0.0
 40
325.0
  0
CIRCLE
  5
528
100
AcDbEntity
  8
SOLDERMASK_PADS_TOP
100
AcDbCircle
 10
3895.0
 20
30160.0
 30
0.0
 40
325.0
  0
CIRCLE
  5
529
100
AcDbEntity
  8
SOLDERMASK_PADS_TOP
100
AcDbCircle
 10
4530.0
 20
31430.0
 30
0.0
 40
325.0
  0
CIRCLE
  5
52A
100
AcDbEntity
  8
SOLDERMASK_PADS_TOP
100
AcDbCircle
 10
2625.0
 20
32700.0
 30
0.0
 40
325.0
  0
CIRCLE
  5
52B
100
AcDbEntity
  8
SOLDERMASK_PADS_TOP
100
AcDbCircle
 10
1990.0
 20
33970.0
 30
0.0
 40
325.0
  0
CIRCLE
  5
52C
100
AcDbEntity
  8
SOLDERMASK_PADS_TOP
100
AcDbCircle
 10
3260.0
 20
33970.0
 30
0.0
 40
325.0
  0
CIRCLE
  5
52D
100
AcDbEntity
  8
SOLDERMASK_PADS_TOP
100
AcDbCircle
 10
3895.0
 20
32700.0
 30
0.0
 40
325.0
  0
CIRCLE
  5
52E
100
AcDbEntity
  8
SOLDERMASK_PADS_TOP
100
AcDbCircle
 10
4530.0
 20
33970.0
 30
0.0
 40
325.0
  0
CIRCLE
  5
52F
100
AcDbEntity
  8
SOLDERMASK_PADS_TOP
100
AcDbCircle
 10
2625.0
 20
35240.0
 30
0.0
 40
325.0
  0
CIRCLE
  5
530
100
AcDbEntity
  8
SOLDERMASK_PADS_TOP
100
AcDbCircle
 10
3895.0
 20
35240.0
 30
0.0
 40
325.0
  0
CIRCLE
  5
531
100
AcDbEntity
  8
SOLDERMASK_PADS_TOP
100
AcDbCircle
 10
2625.0
 20
37780.0
 30
0.0
 40
325.0
  0
CIRCLE
  5
532
100
AcDbEntity
  8
SOLDERMASK_PADS_TOP
100
AcDbCircle
 10
3895.0
 20
37780.0
 30
0.0
 40
325.0
  0
CIRCLE
  5
533
100
AcDbEntity
  8
SOLDERMASK_PADS_TOP
100
AcDbCircle
 10
3260.0
 20
36510.0
 30
0.0
 40
325.0
  0
CIRCLE
  5
534
100
AcDbEntity
  8
SOLDERMASK_PADS_TOP
100
AcDbCircle
 10
5165.0
 20
37780.0
 30
0.0
 40
325.0
  0
CIRCLE
  5
535
100
AcDbEntity
  8
SOLDERMASK_PADS_TOP
100
AcDbCircle
 10
6435.0
 20
37780.0
 30
0.0
 40
325.0
  0
CIRCLE
  5
536
100
AcDbEntity
  8
SOLDERMASK_PADS_TOP
100
AcDbCircle
 10
5800.0
 20
36510.0
 30
0.0
 40
325.0
  0
CIRCLE
  5
537
100
AcDbEntity
  8
SOLDERMASK_PADS_TOP
100
AcDbCircle
 10
7705.0
 20
37780.0
 30
0.0
 40
325.0
  0
CIRCLE
  5
538
100
AcDbEntity
  8
SOLDERMASK_PADS_TOP
100
AcDbCircle
 10
8975.0
 20
37780.0
 30
0.0
 40
325.0
  0
CIRCLE
  5
539
100
AcDbEntity
  8
SOLDERMASK_PADS_TOP
100
AcDbCircle
 10
8340.0
 20
36510.0
 30
0.0
 40
325.0
  0
CIRCLE
  5
53A
100
AcDbEntity
  8
SOLDERMASK_PADS_TOP
100
AcDbCircle
 10
10245.0
 20
37780.0
 30
0.0
 40
325.0
  0
CIRCLE
  5
53B
100
AcDbEntity
  8
SOLDERMASK_PADS_TOP
100
AcDbCircle
 10
11515.0
 20
37780.0
 30
0.0
 40
325.0
  0
CIRCLE
  5
53C
100
AcDbEntity
  8
SOLDERMASK_PADS_TOP
100
AcDbCircle
 10
10880.0
 20
36510.0
 30
0.0
 40
325.0
  0
CIRCLE
  5
53D
100
AcDbEntity
  8
SOLDERMASK_PADS_TOP
100
AcDbCircle
 10
10245.0
 20
35240.0
 30
0.0
 40
325.0
  0
CIRCLE
  5
53E
100
AcDbEntity
  8
SOLDERMASK_PADS_TOP
100
AcDbCircle
 10
11515.0
 20
35240.0
 30
0.0
 40
325.0
  0
CIRCLE
  5
53F
100
AcDbEntity
  8
SOLDERMASK_PADS_TOP
100
AcDbCircle
 10
12785.0
 20
37780.0
 30
0.0
 40
325.0
  0
CIRCLE
  5
540
100
AcDbEntity
  8
SOLDERMASK_PADS_TOP
100
AcDbCircle
 10
14055.0
 20
37780.0
 30
0.0
 40
325.0
  0
CIRCLE
  5
541
100
AcDbEntity
  8
SOLDERMASK_PADS_TOP
100
AcDbCircle
 10
13420.0
 20
36510.0
 30
0.0
 40
325.0
  0
CIRCLE
  5
542
100
AcDbEntity
  8
SOLDERMASK_PADS_TOP
100
AcDbCircle
 10
12785.0
 20
35240.0
 30
0.0
 40
325.0
  0
CIRCLE
  5
543
100
AcDbEntity
  8
SOLDERMASK_PADS_TOP
100
AcDbCircle
 10
14055.0
 20
35240.0
 30
0.0
 40
325.0
  0
CIRCLE
  5
544
100
AcDbEntity
  8
SOLDERMASK_PADS_TOP
100
AcDbCircle
 10
15325.0
 20
37780.0
 30
0.0
 40
325.0
  0
CIRCLE
  5
545
100
AcDbEntity
  8
SOLDERMASK_PADS_TOP
100
AcDbCircle
 10
16595.0
 20
37780.0
 30
0.0
 40
325.0
  0
CIRCLE
  5
546
100
AcDbEntity
  8
SOLDERMASK_PADS_TOP
100
AcDbCircle
 10
15960.0
 20
36510.0
 30
0.0
 40
325.0
  0
CIRCLE
  5
547
100
AcDbEntity
  8
SOLDERMASK_PADS_TOP
100
AcDbCircle
 10
15325.0
 20
35240.0
 30
0.0
 40
325.0
  0
CIRCLE
  5
548
100
AcDbEntity
  8
SOLDERMASK_PADS_TOP
100
AcDbCircle
 10
16595.0
 20
35240.0
 30
0.0
 40
325.0
  0
CIRCLE
  5
549
100
AcDbEntity
  8
SOLDERMASK_PADS_TOP
100
AcDbCircle
 10
17865.0
 20
37780.0
 30
0.0
 40
325.0
  0
CIRCLE
  5
54A
100
AcDbEntity
  8
SOLDERMASK_PADS_TOP
100
AcDbCircle
 10
19135.0
 20
37780.0
 30
0.0
 40
325.0
  0
CIRCLE
  5
54B
100
AcDbEntity
  8
SOLDERMASK_PADS_TOP
100
AcDbCircle
 10
18500.0
 20
36510.0
 30
0.0
 40
325.0
  0
CIRCLE
  5
54C
100
AcDbEntity
  8
SOLDERMASK_PADS_TOP
100
AcDbCircle
 10
17865.0
 20
35240.0
 30
0.0
 40
325.0
  0
CIRCLE
  5
54D
100
AcDbEntity
  8
SOLDERMASK_PADS_TOP
100
AcDbCircle
 10
19135.0
 20
35240.0
 30
0.0
 40
325.0
  0
CIRCLE
  5
54E
100
AcDbEntity
  8
SOLDERMASK_PADS_TOP
100
AcDbCircle
 10
20405.0
 20
37780.0
 30
0.0
 40
325.0
  0
CIRCLE
  5
54F
100
AcDbEntity
  8
SOLDERMASK_PADS_TOP
100
AcDbCircle
 10
21675.0
 20
37780.0
 30
0.0
 40
325.0
  0
CIRCLE
  5
550
100
AcDbEntity
  8
SOLDERMASK_PADS_TOP
100
AcDbCircle
 10
21040.0
 20
36510.0
 30
0.0
 40
325.0
  0
CIRCLE
  5
551
100
AcDbEntity
  8
SOLDERMASK_PADS_TOP
100
AcDbCircle
 10
20405.0
 20
35240.0
 30
0.0
 40
325.0
  0
CIRCLE
  5
552
100
AcDbEntity
  8
SOLDERMASK_PADS_TOP
100
AcDbCircle
 10
21675.0
 20
35240.0
 30
0.0
 40
325.0
  0
CIRCLE
  5
553
100
AcDbEntity
  8
SOLDERMASK_PADS_TOP
100
AcDbCircle
 10
22945.0
 20
37780.0
 30
0.0
 40
325.0
  0
CIRCLE
  5
554
100
AcDbEntity
  8
SOLDERMASK_PADS_TOP
100
AcDbCircle
 10
24215.0
 20
37780.0
 30
0.0
 40
325.0
  0
CIRCLE
  5
555
100
AcDbEntity
  8
SOLDERMASK_PADS_TOP
100
AcDbCircle
 10
23580.0
 20
36510.0
 30
0.0
 40
325.0
  0
CIRCLE
  5
556
100
AcDbEntity
  8
SOLDERMASK_PADS_TOP
100
AcDbCircle
 10
22945.0
 20
35240.0
 30
0.0
 40
325.0
  0
CIRCLE
  5
557
100
AcDbEntity
  8
SOLDERMASK_PADS_TOP
100
AcDbCircle
 10
24215.0
 20
35240.0
 30
0.0
 40
325.0
  0
CIRCLE
  5
558
100
AcDbEntity
  8
SOLDERMASK_PADS_TOP
100
AcDbCircle
 10
25485.0
 20
37780.0
 30
0.0
 40
325.0
  0
CIRCLE
  5
559
100
AcDbEntity
  8
SOLDERMASK_PADS_TOP
100
AcDbCircle
 10
26755.0
 20
37780.0
 30
0.0
 40
325.0
  0
CIRCLE
  5
55A
100
AcDbEntity
  8
SOLDERMASK_PADS_TOP
100
AcDbCircle
 10
26120.0
 20
36510.0
 30
0.0
 40
325.0
  0
CIRCLE
  5
55B
100
AcDbEntity
  8
SOLDERMASK_PADS_TOP
100
AcDbCircle
 10
25485.0
 20
35240.0
 30
0.0
 40
325.0
  0
CIRCLE
  5
55C
100
AcDbEntity
  8
SOLDERMASK_PADS_TOP
100
AcDbCircle
 10
26755.0
 20
35240.0
 30
0.0
 40
325.0
  0
CIRCLE
  5
55D
100
AcDbEntity
  8
SOLDERMASK_PADS_TOP
100
AcDbCircle
 10
28025.0
 20
37780.0
 30
0.0
 40
325.0
  0
CIRCLE
  5
55E
100
AcDbEntity
  8
SOLDERMASK_PADS_TOP
100
AcDbCircle
 10
29295.0
 20
37780.0
 30
0.0
 40
325.0
  0
CIRCLE
  5
55F
100
AcDbEntity
  8
SOLDERMASK_PADS_TOP
100
AcDbCircle
 10
28660.0
 20
36510.0
 30
0.0
 40
325.0
  0
CIRCLE
  5
560
100
AcDbEntity
  8
SOLDERMASK_PADS_TOP
100
AcDbCircle
 10
30565.0
 20
37780.0
 30
0.0
 40
325.0
  0
CIRCLE
  5
561
100
AcDbEntity
  8
SOLDERMASK_PADS_TOP
100
AcDbCircle
 10
31835.0
 20
37780.0
 30
0.0
 40
325.0
  0
CIRCLE
  5
562
100
AcDbEntity
  8
SOLDERMASK_PADS_TOP
100
AcDbCircle
 10
31200.0
 20
36510.0
 30
0.0
 40
325.0
  0
CIRCLE
  5
563
100
AcDbEntity
  8
SOLDERMASK_PADS_TOP
100
AcDbCircle
 10
33105.0
 20
37780.0
 30
0.0
 40
325.0
  0
CIRCLE
  5
564
100
AcDbEntity
  8
SOLDERMASK_PADS_TOP
100
AcDbCircle
 10
34375.0
 20
37780.0
 30
0.0
 40
325.0
  0
CIRCLE
  5
565
100
AcDbEntity
  8
SOLDERMASK_PADS_TOP
100
AcDbCircle
 10
33740.0
 20
36510.0
 30
0.0
 40
325.0
  0
CIRCLE
  5
566
100
AcDbEntity
  8
SOLDERMASK_PADS_TOP
100
AcDbCircle
 10
34375.0
 20
35240.0
 30
0.0
 40
325.0
  0
CIRCLE
  5
567
100
AcDbEntity
  8
SOLDERMASK_PADS_TOP
100
AcDbCircle
 10
35010.0
 20
33970.0
 30
0.0
 40
325.0
  0
CIRCLE
  5
568
100
AcDbEntity
  8
SOLDERMASK_PADS_TOP
100
AcDbCircle
 10
33740.0
 20
33970.0
 30
0.0
 40
325.0
  0
CIRCLE
  5
569
100
AcDbEntity
  8
SOLDERMASK_PADS_TOP
100
AcDbCircle
 10
33105.0
 20
35240.0
 30
0.0
 40
325.0
  0
CIRCLE
  5
56A
100
AcDbEntity
  8
SOLDERMASK_PADS_TOP
100
AcDbCircle
 10
32470.0
 20
33970.0
 30
0.0
 40
325.0
  0
CIRCLE
  5
56B
100
AcDbEntity
  8
SOLDERMASK_PADS_TOP
100
AcDbCircle
 10
34375.0
 20
32700.0
 30
0.0
 40
325.0
  0
CIRCLE
  5
56C
100
AcDbEntity
  8
SOLDERMASK_PADS_TOP
100
AcDbCircle
 10
35010.0
 20
31430.0
 30
0.0
 40
325.0
  0
CIRCLE
  5
56D
100
AcDbEntity
  8
SOLDERMASK_PADS_TOP
100
AcDbCircle
 10
33740.0
 20
31430.0
 30
0.0
 40
325.0
  0
CIRCLE
  5
56E
100
AcDbEntity
  8
SOLDERMASK_PADS_TOP
100
AcDbCircle
 10
33105.0
 20
32700.0
 30
0.0
 40
325.0
  0
CIRCLE
  5
56F
100
AcDbEntity
  8
SOLDERMASK_PADS_TOP
100
AcDbCircle
 10
32470.0
 20
31430.0
 30
0.0
 40
325.0
  0
CIRCLE
  5
570
100
AcDbEntity
  8
SOLDERMASK_PADS_TOP
100
AcDbCircle
 10
34375.0
 20
30160.0
 30
0.0
 40
325.0
  0
CIRCLE
  5
571
100
AcDbEntity
  8
SOLDERMASK_PADS_TOP
100
AcDbCircle
 10
35010.0
 20
28890.0
 30
0.0
 40
325.0
  0
CIRCLE
  5
572
100
AcDbEntity
  8
SOLDERMASK_PADS_TOP
100
AcDbCircle
 10
33740.0
 20
28890.0
 30
0.0
 40
325.0
  0
CIRCLE
  5
573
100
AcDbEntity
  8
SOLDERMASK_PADS_TOP
100
AcDbCircle
 10
33105.0
 20
30160.0
 30
0.0
 40
325.0
  0
CIRCLE
  5
574
100
AcDbEntity
  8
SOLDERMASK_PADS_TOP
100
AcDbCircle
 10
32470.0
 20
28890.0
 30
0.0
 40
325.0
  0
CIRCLE
  5
575
100
AcDbEntity
  8
SOLDERMASK_PADS_TOP
100
AcDbCircle
 10
34375.0
 20
27620.0
 30
0.0
 40
325.0
  0
CIRCLE
  5
576
100
AcDbEntity
  8
SOLDERMASK_PADS_TOP
100
AcDbCircle
 10
35010.0
 20
26350.0
 30
0.0
 40
325.0
  0
CIRCLE
  5
577
100
AcDbEntity
  8
SOLDERMASK_PADS_TOP
100
AcDbCircle
 10
33740.0
 20
26350.0
 30
0.0
 40
325.0
  0
CIRCLE
  5
578
100
AcDbEntity
  8
SOLDERMASK_PADS_TOP
100
AcDbCircle
 10
33105.0
 20
27620.0
 30
0.0
 40
325.0
  0
CIRCLE
  5
579
100
AcDbEntity
  8
SOLDERMASK_PADS_TOP
100
AcDbCircle
 10
32470.0
 20
26350.0
 30
0.0
 40
325.0
  0
CIRCLE
  5
57A
100
AcDbEntity
  8
SOLDERMASK_PADS_TOP
100
AcDbCircle
 10
34375.0
 20
25080.0
 30
0.0
 40
325.0
  0
CIRCLE
  5
57B
100
AcDbEntity
  8
SOLDERMASK_PADS_TOP
100
AcDbCircle
 10
35010.0
 20
23810.0
 30
0.0
 40
325.0
  0
CIRCLE
  5
57C
100
AcDbEntity
  8
SOLDERMASK_PADS_TOP
100
AcDbCircle
 10
33740.0
 20
23810.0
 30
0.0
 40
325.0
  0
CIRCLE
  5
57D
100
AcDbEntity
  8
SOLDERMASK_PADS_TOP
100
AcDbCircle
 10
33105.0
 20
25080.0
 30
0.0
 40
325.0
  0
CIRCLE
  5
57E
100
AcDbEntity
  8
SOLDERMASK_PADS_TOP
100
AcDbCircle
 10
32470.0
 20
23810.0
 30
0.0
 40
325.0
  0
CIRCLE
  5
57F
100
AcDbEntity
  8
SOLDERMASK_PADS_TOP
100
AcDbCircle
 10
34375.0
 20
22540.0
 30
0.0
 40
325.0
  0
CIRCLE
  5
580
100
AcDbEntity
  8
SOLDERMASK_PADS_TOP
100
AcDbCircle
 10
35010.0
 20
21270.0
 30
0.0
 40
325.0
  0
CIRCLE
  5
581
100
AcDbEntity
  8
SOLDERMASK_PADS_TOP
100
AcDbCircle
 10
33740.0
 20
21270.0
 30
0.0
 40
325.0
  0
CIRCLE
  5
582
100
AcDbEntity
  8
SOLDERMASK_PADS_TOP
100
AcDbCircle
 10
33105.0
 20
22540.0
 30
0.0
 40
325.0
  0
CIRCLE
  5
583
100
AcDbEntity
  8
SOLDERMASK_PADS_TOP
100
AcDbCircle
 10
32470.0
 20
21270.0
 30
0.0
 40
325.0
  0
CIRCLE
  5
584
100
AcDbEntity
  8
SOLDERMASK_PADS_TOP
100
AcDbCircle
 10
34375.0
 20
20000.0
 30
0.0
 40
325.0
  0
CIRCLE
  5
585
100
AcDbEntity
  8
SOLDERMASK_PADS_TOP
100
AcDbCircle
 10
35010.0
 20
18730.0
 30
0.0
 40
325.0
  0
CIRCLE
  5
586
100
AcDbEntity
  8
SOLDERMASK_PADS_TOP
100
AcDbCircle
 10
33740.0
 20
18730.0
 30
0.0
 40
325.0
  0
CIRCLE
  5
587
100
AcDbEntity
  8
SOLDERMASK_PADS_TOP
100
AcDbCircle
 10
33105.0
 20
20000.0
 30
0.0
 40
325.0
  0
CIRCLE
  5
588
100
AcDbEntity
  8
SOLDERMASK_PADS_TOP
100
AcDbCircle
 10
32470.0
 20
18730.0
 30
0.0
 40
325.0
  0
CIRCLE
  5
589
100
AcDbEntity
  8
SOLDERMASK_PADS_TOP
100
AcDbCircle
 10
34375.0
 20
17460.0
 30
0.0
 40
325.0
  0
CIRCLE
  5
58A
100
AcDbEntity
  8
SOLDERMASK_PADS_TOP
100
AcDbCircle
 10
35010.0
 20
16190.0
 30
0.0
 40
325.0
  0
CIRCLE
  5
58B
100
AcDbEntity
  8
SOLDERMASK_PADS_TOP
100
AcDbCircle
 10
33740.0
 20
16190.0
 30
0.0
 40
325.0
  0
CIRCLE
  5
58C
100
AcDbEntity
  8
SOLDERMASK_PADS_TOP
100
AcDbCircle
 10
33105.0
 20
17460.0
 30
0.0
 40
325.0
  0
CIRCLE
  5
58D
100
AcDbEntity
  8
SOLDERMASK_PADS_TOP
100
AcDbCircle
 10
32470.0
 20
16190.0
 30
0.0
 40
325.0
  0
CIRCLE
  5
58E
100
AcDbEntity
  8
SOLDERMASK_PADS_TOP
100
AcDbCircle
 10
34375.0
 20
14920.0
 30
0.0
 40
325.0
  0
CIRCLE
  5
58F
100
AcDbEntity
  8
SOLDERMASK_PADS_TOP
100
AcDbCircle
 10
35010.0
 20
13650.0
 30
0.0
 40
325.0
  0
CIRCLE
  5
590
100
AcDbEntity
  8
SOLDERMASK_PADS_TOP
100
AcDbCircle
 10
33740.0
 20
13650.0
 30
0.0
 40
325.0
  0
CIRCLE
  5
591
100
AcDbEntity
  8
SOLDERMASK_PADS_TOP
100
AcDbCircle
 10
33105.0
 20
14920.0
 30
0.0
 40
325.0
  0
CIRCLE
  5
592
100
AcDbEntity
  8
SOLDERMASK_PADS_TOP
100
AcDbCircle
 10
32470.0
 20
13650.0
 30
0.0
 40
325.0
  0
CIRCLE
  5
593
100
AcDbEntity
  8
SOLDERMASK_PADS_TOP
100
AcDbCircle
 10
34375.0
 20
12380.0
 30
0.0
 40
325.0
  0
CIRCLE
  5
594
100
AcDbEntity
  8
SOLDERMASK_PADS_TOP
100
AcDbCircle
 10
35010.0
 20
11110.0
 30
0.0
 40
325.0
  0
CIRCLE
  5
595
100
AcDbEntity
  8
SOLDERMASK_PADS_TOP
100
AcDbCircle
 10
33740.0
 20
11110.0
 30
0.0
 40
325.0
  0
CIRCLE
  5
596
100
AcDbEntity
  8
SOLDERMASK_PADS_TOP
100
AcDbCircle
 10
33105.0
 20
12380.0
 30
0.0
 40
325.0
  0
CIRCLE
  5
597
100
AcDbEntity
  8
SOLDERMASK_PADS_TOP
100
AcDbCircle
 10
32470.0
 20
11110.0
 30
0.0
 40
325.0
  0
CIRCLE
  5
598
100
AcDbEntity
  8
SOLDERMASK_PADS_TOP
100
AcDbCircle
 10
34375.0
 20
9840.0
 30
0.0
 40
325.0
  0
CIRCLE
  5
599
100
AcDbEntity
  8
SOLDERMASK_PADS_TOP
100
AcDbCircle
 10
35010.0
 20
8570.0
 30
0.0
 40
325.0
  0
CIRCLE
  5
59A
100
AcDbEntity
  8
SOLDERMASK_PADS_TOP
100
AcDbCircle
 10
33740.0
 20
8570.0
 30
0.0
 40
325.0
  0
CIRCLE
  5
59B
100
AcDbEntity
  8
SOLDERMASK_PADS_TOP
100
AcDbCircle
 10
33105.0
 20
9840.0
 30
0.0
 40
325.0
  0
CIRCLE
  5
59C
100
AcDbEntity
  8
SOLDERMASK_PADS_TOP
100
AcDbCircle
 10
32470.0
 20
8570.0
 30
0.0
 40
325.0
  0
CIRCLE
  5
59D
100
AcDbEntity
  8
SOLDERMASK_PADS_TOP
100
AcDbCircle
 10
34375.0
 20
7300.0
 30
0.0
 40
325.0
  0
CIRCLE
  5
59E
100
AcDbEntity
  8
SOLDERMASK_PADS_TOP
100
AcDbCircle
 10
35010.0
 20
6030.0
 30
0.0
 40
325.0
  0
CIRCLE
  5
59F
100
AcDbEntity
  8
SOLDERMASK_PADS_TOP
100
AcDbCircle
 10
33740.0
 20
6030.0
 30
0.0
 40
325.0
  0
CIRCLE
  5
5A0
100
AcDbEntity
  8
SOLDERMASK_PADS_TOP
100
AcDbCircle
 10
33105.0
 20
7300.0
 30
0.0
 40
325.0
  0
CIRCLE
  5
5A1
100
AcDbEntity
  8
SOLDERMASK_PADS_TOP
100
AcDbCircle
 10
32470.0
 20
6030.0
 30
0.0
 40
325.0
  0
CIRCLE
  5
5A2
100
AcDbEntity
  8
SOLDERMASK_PADS_TOP
100
AcDbCircle
 10
34375.0
 20
4760.0
 30
0.0
 40
325.0
  0
CIRCLE
  5
5A3
100
AcDbEntity
  8
SOLDERMASK_PADS_TOP
100
AcDbCircle
 10
33105.0
 20
4760.0
 30
0.0
 40
325.0
  0
LWPOLYLINE
  5
5A4
100
AcDbEntity
  8
SOLDERMASK_PADS_TOP
100
AcDbPolyline
 90
        11
 70
         1
 43
0.0
 10
37995.0
 20
300.0
 10
34495.0
 20
300.0
 10
34495.0
 20
1000.0
 10
34895.0
 20
1400.0
 10
35658.263
 20
1400.0
 42
0.036540
 10
35767.737
 20
1400.0
 10
36045.0
 20
1400.0
 10
36495.0
 20
1850.0
 10
36495.0
 20
2500.0
 10
37846.7
 20
2500.0
 42
0.049070
 10
37995.0
 20
1992.54
  0
LWPOLYLINE
  5
5A5
100
AcDbEntity
  8
SOLDERMASK_PADS_TOP
100
AcDbPolyline
 90
        5
 70
         1
 43
0.0
 10
-846.7
 20
37500.0
 42
0.050306
 10
-1000.0
 20
38019.804
 10
-1000.0
 20
39700.0
 10
1000.0
 20
39700.0
 10
1000.0
 20
37500.0
  0
LWPOLYLINE
  5
5A6
100
AcDbEntity
  8
SOLDERMASK_PADS_TOP
100
AcDbPolyline
 90
        4
 70
         1
 43
0.0
 10
-1000.0
 20
300.0
 10
-1000.0
 20
2500.0
 10
1000.0
 20
2500.0
 10
1000.0
 20
300.0
  0
LWPOLYLINE
  5
5A7
100
AcDbEntity
  8
SOLDERMASK_PADS_TOP
100
AcDbPolyline
 90
        4
 70
         1
 43
0.0
 10
36000.0
 20
37500.0
 10
36000.0
 20
39700.0
 10
38000.0
 20
39700.0
 10
38000.0
 20
37500.0
  0
CIRCLE
  5
5A8
100
AcDbEntity
  8
SOLDERPASTE_PADS_TOP
100
AcDbCircle
 10
29295.0
 20
7300.0
 30
0.0
 40
360.0
  0
CIRCLE
  5
5A9
100
AcDbEntity
  8
SOLDERPASTE_PADS_TOP
100
AcDbCircle
 10
28025.0
 20
7300.0
 30
0.0
 40
360.0
  0
CIRCLE
  5
5AA
100
AcDbEntity
  8
SOLDERPASTE_PADS_TOP
100
AcDbCircle
 10
28660.0
 20
8570.0
 30
0.0
 40
360.0
  0
CIRCLE
  5
5AB
100
AcDbEntity
  8
SOLDERPASTE_PADS_TOP
100
AcDbCircle
 10
29295.0
 20
9840.0
 30
0.0
 40
360.0
  0
CIRCLE
  5
5AC
100
AcDbEntity
  8
SOLDERPASTE_PADS_TOP
100
AcDbCircle
 10
28025.0
 20
9840.0
 30
0.0
 40
360.0
  0
CIRCLE
  5
5AD
100
AcDbEntity
  8
SOLDERPASTE_PADS_TOP
100
AcDbCircle
 10
26755.0
 20
7300.0
 30
0.0
 40
360.0
  0
CIRCLE
  5
5AE
100
AcDbEntity
  8
SOLDERPASTE_PADS_TOP
100
AcDbCircle
 10
25485.0
 20
7300.0
 30
0.0
 40
360.0
  0
CIRCLE
  5
5AF
100
AcDbEntity
  8
SOLDERPASTE_PADS_TOP
100
AcDbCircle
 10
26120.0
 20
8570.0
 30
0.0
 40
360.0
  0
CIRCLE
  5
5B0
100
AcDbEntity
  8
SOLDERPASTE_PADS_TOP
100
AcDbCircle
 10
26755.0
 20
9840.0
 30
0.0
 40
360.0
  0
CIRCLE
  5
5B1
100
AcDbEntity
  8
SOLDERPASTE_PADS_TOP
100
AcDbCircle
 10
25485.0
 20
9840.0
 30
0.0
 40
360.0
  0
CIRCLE
  5
5B2
100
AcDbEntity
  8
SOLDERPASTE_PADS_TOP
100
AcDbCircle
 10
24215.0
 20
7300.0
 30
0.0
 40
360.0
  0
CIRCLE
  5
5B3
100
AcDbEntity
  8
SOLDERPASTE_PADS_TOP
100
AcDbCircle
 10
22945.0
 20
7300.0
 30
0.0
 40
360.0
  0
CIRCLE
  5
5B4
100
AcDbEntity
  8
SOLDERPASTE_PADS_TOP
100
AcDbCircle
 10
23580.0
 20
8570.0
 30
0.0
 40
360.0
  0
CIRCLE
  5
5B5
100
AcDbEntity
  8
SOLDERPASTE_PADS_TOP
100
AcDbCircle
 10
24215.0
 20
9840.0
 30
0.0
 40
360.0
  0
CIRCLE
  5
5B6
100
AcDbEntity
  8
SOLDERPASTE_PADS_TOP
100
AcDbCircle
 10
22945.0
 20
9840.0
 30
0.0
 40
360.0
  0
CIRCLE
  5
5B7
100
AcDbEntity
  8
SOLDERPASTE_PADS_TOP
100
AcDbCircle
 10
21675.0
 20
7300.0
 30
0.0
 40
360.0
  0
CIRCLE
  5
5B8
100
AcDbEntity
  8
SOLDERPASTE_PADS_TOP
100
AcDbCircle
 10
20405.0
 20
7300.0
 30
0.0
 40
360.0
  0
CIRCLE
  5
5B9
100
AcDbEntity
  8
SOLDERPASTE_PADS_TOP
100
AcDbCircle
 10
21040.0
 20
8570.0
 30
0.0
 40
360.0
  0
CIRCLE
  5
5BA
100
AcDbEntity
  8
SOLDERPASTE_PADS_TOP
100
AcDbCircle
 10
21675.0
 20
9840.0
 30
0.0
 40
360.0
  0
CIRCLE
  5
5BB
100
AcDbEntity
  8
SOLDERPASTE_PADS_TOP
100
AcDbCircle
 10
20405.0
 20
9840.0
 30
0.0
 40
360.0
  0
CIRCLE
  5
5BC
100
AcDbEntity
  8
SOLDERPASTE_PADS_TOP
100
AcDbCircle
 10
19135.0
 20
7300.0
 30
0.0
 40
360.0
  0
CIRCLE
  5
5BD
100
AcDbEntity
  8
SOLDERPASTE_PADS_TOP
100
AcDbCircle
 10
17865.0
 20
7300.0
 30
0.0
 40
360.0
  0
CIRCLE
  5
5BE
100
AcDbEntity
  8
SOLDERPASTE_PADS_TOP
100
AcDbCircle
 10
18500.0
 20
8570.0
 30
0.0
 40
360.0
  0
CIRCLE
  5
5BF
100
AcDbEntity
  8
SOLDERPASTE_PADS_TOP
100
AcDbCircle
 10
19135.0
 20
9840.0
 30
0.0
 40
360.0
  0
CIRCLE
  5
5C0
100
AcDbEntity
  8
SOLDERPASTE_PADS_TOP
100
AcDbCircle
 10
17865.0
 20
9840.0
 30
0.0
 40
360.0
  0
CIRCLE
  5
5C1
100
AcDbEntity
  8
SOLDERPASTE_PADS_TOP
100
AcDbCircle
 10
16595.0
 20
7300.0
 30
0.0
 40
360.0
  0
CIRCLE
  5
5C2
100
AcDbEntity
  8
SOLDERPASTE_PADS_TOP
100
AcDbCircle
 10
15325.0
 20
7300.0
 30
0.0
 40
360.0
  0
CIRCLE
  5
5C3
100
AcDbEntity
  8
SOLDERPASTE_PADS_TOP
100
AcDbCircle
 10
15960.0
 20
8570.0
 30
0.0
 40
360.0
  0
CIRCLE
  5
5C4
100
AcDbEntity
  8
SOLDERPASTE_PADS_TOP
100
AcDbCircle
 10
16595.0
 20
9840.0
 30
0.0
 40
360.0
  0
CIRCLE
  5
5C5
100
AcDbEntity
  8
SOLDERPASTE_PADS_TOP
100
AcDbCircle
 10
15325.0
 20
9840.0
 30
0.0
 40
360.0
  0
CIRCLE
  5
5C6
100
AcDbEntity
  8
SOLDERPASTE_PADS_TOP
100
AcDbCircle
 10
14055.0
 20
7300.0
 30
0.0
 40
360.0
  0
CIRCLE
  5
5C7
100
AcDbEntity
  8
SOLDERPASTE_PADS_TOP
100
AcDbCircle
 10
12785.0
 20
7300.0
 30
0.0
 40
360.0
  0
CIRCLE
  5
5C8
100
AcDbEntity
  8
SOLDERPASTE_PADS_TOP
100
AcDbCircle
 10
13420.0
 20
8570.0
 30
0.0
 40
360.0
  0
CIRCLE
  5
5C9
100
AcDbEntity
  8
SOLDERPASTE_PADS_TOP
100
AcDbCircle
 10
14055.0
 20
9840.0
 30
0.0
 40
360.0
  0
CIRCLE
  5
5CA
100
AcDbEntity
  8
SOLDERPASTE_PADS_TOP
100
AcDbCircle
 10
12785.0
 20
9840.0
 30
0.0
 40
360.0
  0
CIRCLE
  5
5CB
100
AcDbEntity
  8
SOLDERPASTE_PADS_TOP
100
AcDbCircle
 10
11515.0
 20
7300.0
 30
0.0
 40
360.0
  0
CIRCLE
  5
5CC
100
AcDbEntity
  8
SOLDERPASTE_PADS_TOP
100
AcDbCircle
 10
10245.0
 20
7300.0
 30
0.0
 40
360.0
  0
CIRCLE
  5
5CD
100
AcDbEntity
  8
SOLDERPASTE_PADS_TOP
100
AcDbCircle
 10
10880.0
 20
8570.0
 30
0.0
 40
360.0
  0
CIRCLE
  5
5CE
100
AcDbEntity
  8
SOLDERPASTE_PADS_TOP
100
AcDbCircle
 10
11515.0
 20
9840.0
 30
0.0
 40
360.0
  0
CIRCLE
  5
5CF
100
AcDbEntity
  8
SOLDERPASTE_PADS_TOP
100
AcDbCircle
 10
10245.0
 20
9840.0
 30
0.0
 40
360.0
  0
CIRCLE
  5
5D0
100
AcDbEntity
  8
SOLDERPASTE_PADS_TOP
100
AcDbCircle
 10
8975.0
 20
7300.0
 30
0.0
 40
360.0
  0
CIRCLE
  5
5D1
100
AcDbEntity
  8
SOLDERPASTE_PADS_TOP
100
AcDbCircle
 10
7705.0
 20
7300.0
 30
0.0
 40
360.0
  0
CIRCLE
  5
5D2
100
AcDbEntity
  8
SOLDERPASTE_PADS_TOP
100
AcDbCircle
 10
8340.0
 20
8570.0
 30
0.0
 40
360.0
  0
CIRCLE
  5
5D3
100
AcDbEntity
  8
SOLDERPASTE_PADS_TOP
100
AcDbCircle
 10
8975.0
 20
9840.0
 30
0.0
 40
360.0
  0
CIRCLE
  5
5D4
100
AcDbEntity
  8
SOLDERPASTE_PADS_TOP
100
AcDbCircle
 10
7705.0
 20
9840.0
 30
0.0
 40
360.0
  0
CIRCLE
  5
5D5
100
AcDbEntity
  8
SOLDERPASTE_PADS_TOP
100
AcDbCircle
 10
8340.0
 20
11110.0
 30
0.0
 40
360.0
  0
CIRCLE
  5
5D6
100
AcDbEntity
  8
SOLDERPASTE_PADS_TOP
100
AcDbCircle
 10
7705.0
 20
12380.0
 30
0.0
 40
360.0
  0
CIRCLE
  5
5D7
100
AcDbEntity
  8
SOLDERPASTE_PADS_TOP
100
AcDbCircle
 10
8975.0
 20
12380.0
 30
0.0
 40
360.0
  0
CIRCLE
  5
5D8
100
AcDbEntity
  8
SOLDERPASTE_PADS_TOP
100
AcDbCircle
 10
9610.0
 20
11110.0
 30
0.0
 40
360.0
  0
CIRCLE
  5
5D9
100
AcDbEntity
  8
SOLDERPASTE_PADS_TOP
100
AcDbCircle
 10
10245.0
 20
12380.0
 30
0.0
 40
360.0
  0
CIRCLE
  5
5DA
100
AcDbEntity
  8
SOLDERPASTE_PADS_TOP
100
AcDbCircle
 10
8340.0
 20
13650.0
 30
0.0
 40
360.0
  0
CIRCLE
  5
5DB
100
AcDbEntity
  8
SOLDERPASTE_PADS_TOP
100
AcDbCircle
 10
7705.0
 20
14920.0
 30
0.0
 40
360.0
  0
CIRCLE
  5
5DC
100
AcDbEntity
  8
SOLDERPASTE_PADS_TOP
100
AcDbCircle
 10
8975.0
 20
14920.0
 30
0.0
 40
360.0
  0
CIRCLE
  5
5DD
100
AcDbEntity
  8
SOLDERPASTE_PADS_TOP
100
AcDbCircle
 10
9610.0
 20
13650.0
 30
0.0
 40
360.0
  0
CIRCLE
  5
5DE
100
AcDbEntity
  8
SOLDERPASTE_PADS_TOP
100
AcDbCircle
 10
10245.0
 20
14920.0
 30
0.0
 40
360.0
  0
CIRCLE
  5
5DF
100
AcDbEntity
  8
SOLDERPASTE_PADS_TOP
100
AcDbCircle
 10
8340.0
 20
16190.0
 30
0.0
 40
360.0
  0
CIRCLE
  5
5E0
100
AcDbEntity
  8
SOLDERPASTE_PADS_TOP
100
AcDbCircle
 10
7705.0
 20
17460.0
 30
0.0
 40
360.0
  0
CIRCLE
  5
5E1
100
AcDbEntity
  8
SOLDERPASTE_PADS_TOP
100
AcDbCircle
 10
8975.0
 20
17460.0
 30
0.0
 40
360.0
  0
CIRCLE
  5
5E2
100
AcDbEntity
  8
SOLDERPASTE_PADS_TOP
100
AcDbCircle
 10
9610.0
 20
16190.0
 30
0.0
 40
360.0
  0
CIRCLE
  5
5E3
100
AcDbEntity
  8
SOLDERPASTE_PADS_TOP
100
AcDbCircle
 10
10245.0
 20
17460.0
 30
0.0
 40
360.0
  0
CIRCLE
  5
5E4
100
AcDbEntity
  8
SOLDERPASTE_PADS_TOP
100
AcDbCircle
 10
8340.0
 20
18730.0
 30
0.0
 40
360.0
  0
CIRCLE
  5
5E5
100
AcDbEntity
  8
SOLDERPASTE_PADS_TOP
100
AcDbCircle
 10
7705.0
 20
20000.0
 30
0.0
 40
360.0
  0
CIRCLE
  5
5E6
100
AcDbEntity
  8
SOLDERPASTE_PADS_TOP
100
AcDbCircle
 10
8975.0
 20
20000.0
 30
0.0
 40
360.0
  0
CIRCLE
  5
5E7
100
AcDbEntity
  8
SOLDERPASTE_PADS_TOP
100
AcDbCircle
 10
9610.0
 20
18730.0
 30
0.0
 40
360.0
  0
CIRCLE
  5
5E8
100
AcDbEntity
  8
SOLDERPASTE_PADS_TOP
100
AcDbCircle
 10
10245.0
 20
20000.0
 30
0.0
 40
360.0
  0
CIRCLE
  5
5E9
100
AcDbEntity
  8
SOLDERPASTE_PADS_TOP
100
AcDbCircle
 10
8340.0
 20
21270.0
 30
0.0
 40
360.0
  0
CIRCLE
  5
5EA
100
AcDbEntity
  8
SOLDERPASTE_PADS_TOP
100
AcDbCircle
 10
7705.0
 20
22540.0
 30
0.0
 40
360.0
  0
CIRCLE
  5
5EB
100
AcDbEntity
  8
SOLDERPASTE_PADS_TOP
100
AcDbCircle
 10
8975.0
 20
22540.0
 30
0.0
 40
360.0
  0
CIRCLE
  5
5EC
100
AcDbEntity
  8
SOLDERPASTE_PADS_TOP
100
AcDbCircle
 10
9610.0
 20
21270.0
 30
0.0
 40
360.0
  0
CIRCLE
  5
5ED
100
AcDbEntity
  8
SOLDERPASTE_PADS_TOP
100
AcDbCircle
 10
10245.0
 20
22540.0
 30
0.0
 40
360.0
  0
CIRCLE
  5
5EE
100
AcDbEntity
  8
SOLDERPASTE_PADS_TOP
100
AcDbCircle
 10
8340.0
 20
23810.0
 30
0.0
 40
360.0
  0
CIRCLE
  5
5EF
100
AcDbEntity
  8
SOLDERPASTE_PADS_TOP
100
AcDbCircle
 10
7705.0
 20
25080.0
 30
0.0
 40
360.0
  0
CIRCLE
  5
5F0
100
AcDbEntity
  8
SOLDERPASTE_PADS_TOP
100
AcDbCircle
 10
8975.0
 20
25080.0
 30
0.0
 40
360.0
  0
CIRCLE
  5
5F1
100
AcDbEntity
  8
SOLDERPASTE_PADS_TOP
100
AcDbCircle
 10
9610.0
 20
23810.0
 30
0.0
 40
360.0
  0
CIRCLE
  5
5F2
100
AcDbEntity
  8
SOLDERPASTE_PADS_TOP
100
AcDbCircle
 10
10245.0
 20
25080.0
 30
0.0
 40
360.0
  0
CIRCLE
  5
5F3
100
AcDbEntity
  8
SOLDERPASTE_PADS_TOP
100
AcDbCircle
 10
8340.0
 20
26350.0
 30
0.0
 40
360.0
  0
CIRCLE
  5
5F4
100
AcDbEntity
  8
SOLDERPASTE_PADS_TOP
100
AcDbCircle
 10
7705.0
 20
27620.0
 30
0.0
 40
360.0
  0
CIRCLE
  5
5F5
100
AcDbEntity
  8
SOLDERPASTE_PADS_TOP
100
AcDbCircle
 10
8975.0
 20
27620.0
 30
0.0
 40
360.0
  0
CIRCLE
  5
5F6
100
AcDbEntity
  8
SOLDERPASTE_PADS_TOP
100
AcDbCircle
 10
9610.0
 20
26350.0
 30
0.0
 40
360.0
  0
CIRCLE
  5
5F7
100
AcDbEntity
  8
SOLDERPASTE_PADS_TOP
100
AcDbCircle
 10
10245.0
 20
27620.0
 30
0.0
 40
360.0
  0
CIRCLE
  5
5F8
100
AcDbEntity
  8
SOLDERPASTE_PADS_TOP
100
AcDbCircle
 10
8340.0
 20
28890.0
 30
0.0
 40
360.0
  0
CIRCLE
  5
5F9
100
AcDbEntity
  8
SOLDERPASTE_PADS_TOP
100
AcDbCircle
 10
9610.0
 20
28890.0
 30
0.0
 40
360.0
  0
CIRCLE
  5
5FA
100
AcDbEntity
  8
SOLDERPASTE_PADS_TOP
100
AcDbCircle
 10
7705.0
 20
32700.0
 30
0.0
 40
360.0
  0
CIRCLE
  5
5FB
100
AcDbEntity
  8
SOLDERPASTE_PADS_TOP
100
AcDbCircle
 10
8975.0
 20
32700.0
 30
0.0
 40
360.0
  0
CIRCLE
  5
5FC
100
AcDbEntity
  8
SOLDERPASTE_PADS_TOP
100
AcDbCircle
 10
8340.0
 20
31430.0
 30
0.0
 40
360.0
  0
CIRCLE
  5
5FD
100
AcDbEntity
  8
SOLDERPASTE_PADS_TOP
100
AcDbCircle
 10
7705.0
 20
30160.0
 30
0.0
 40
360.0
  0
CIRCLE
  5
5FE
100
AcDbEntity
  8
SOLDERPASTE_PADS_TOP
100
AcDbCircle
 10
8975.0
 20
30160.0
 30
0.0
 40
360.0
  0
CIRCLE
  5
5FF
100
AcDbEntity
  8
SOLDERPASTE_PADS_TOP
100
AcDbCircle
 10
10245.0
 20
32700.0
 30
0.0
 40
360.0
  0
CIRCLE
  5
600
100
AcDbEntity
  8
SOLDERPASTE_PADS_TOP
100
AcDbCircle
 10
11515.0
 20
32700.0
 30
0.0
 40
360.0
  0
CIRCLE
  5
601
100
AcDbEntity
  8
SOLDERPASTE_PADS_TOP
100
AcDbCircle
 10
10880.0
 20
31430.0
 30
0.0
 40
360.0
  0
CIRCLE
  5
602
100
AcDbEntity
  8
SOLDERPASTE_PADS_TOP
100
AcDbCircle
 10
10245.0
 20
30160.0
 30
0.0
 40
360.0
  0
CIRCLE
  5
603
100
AcDbEntity
  8
SOLDERPASTE_PADS_TOP
100
AcDbCircle
 10
11515.0
 20
30160.0
 30
0.0
 40
360.0
  0
CIRCLE
  5
604
100
AcDbEntity
  8
SOLDERPASTE_PADS_TOP
100
AcDbCircle
 10
12785.0
 20
32700.0
 30
0.0
 40
360.0
  0
CIRCLE
  5
605
100
AcDbEntity
  8
SOLDERPASTE_PADS_TOP
100
AcDbCircle
 10
14055.0
 20
32700.0
 30
0.0
 40
360.0
  0
CIRCLE
  5
606
100
AcDbEntity
  8
SOLDERPASTE_PADS_TOP
100
AcDbCircle
 10
13420.0
 20
31430.0
 30
0.0
 40
360.0
  0
CIRCLE
  5
607
100
AcDbEntity
  8
SOLDERPASTE_PADS_TOP
100
AcDbCircle
 10
12785.0
 20
30160.0
 30
0.0
 40
360.0
  0
CIRCLE
  5
608
100
AcDbEntity
  8
SOLDERPASTE_PADS_TOP
100
AcDbCircle
 10
14055.0
 20
30160.0
 30
0.0
 40
360.0
  0
CIRCLE
  5
609
100
AcDbEntity
  8
SOLDERPASTE_PADS_TOP
100
AcDbCircle
 10
15325.0
 20
32700.0
 30
0.0
 40
360.0
  0
CIRCLE
  5
60A
100
AcDbEntity
  8
SOLDERPASTE_PADS_TOP
100
AcDbCircle
 10
16595.0
 20
32700.0
 30
0.0
 40
360.0
  0
CIRCLE
  5
60B
100
AcDbEntity
  8
SOLDERPASTE_PADS_TOP
100
AcDbCircle
 10
15960.0
 20
31430.0
 30
0.0
 40
360.0
  0
CIRCLE
  5
60C
100
AcDbEntity
  8
SOLDERPASTE_PADS_TOP
100
AcDbCircle
 10
15325.0
 20
30160.0
 30
0.0
 40
360.0
  0
CIRCLE
  5
60D
100
AcDbEntity
  8
SOLDERPASTE_PADS_TOP
100
AcDbCircle
 10
16595.0
 20
30160.0
 30
0.0
 40
360.0
  0
CIRCLE
  5
60E
100
AcDbEntity
  8
SOLDERPASTE_PADS_TOP
100
AcDbCircle
 10
17865.0
 20
32700.0
 30
0.0
 40
360.0
  0
CIRCLE
  5
60F
100
AcDbEntity
  8
SOLDERPASTE_PADS_TOP
100
AcDbCircle
 10
19135.0
 20
32700.0
 30
0.0
 40
360.0
  0
CIRCLE
  5
610
100
AcDbEntity
  8
SOLDERPASTE_PADS_TOP
100
AcDbCircle
 10
18500.0
 20
31430.0
 30
0.0
 40
360.0
  0
CIRCLE
  5
611
100
AcDbEntity
  8
SOLDERPASTE_PADS_TOP
100
AcDbCircle
 10
17865.0
 20
30160.0
 30
0.0
 40
360.0
  0
CIRCLE
  5
612
100
AcDbEntity
  8
SOLDERPASTE_PADS_TOP
100
AcDbCircle
 10
19135.0
 20
30160.0
 30
0.0
 40
360.0
  0
CIRCLE
  5
613
100
AcDbEntity
  8
SOLDERPASTE_PADS_TOP
100
AcDbCircle
 10
20405.0
 20
32700.0
 30
0.0
 40
360.0
  0
CIRCLE
  5
614
100
AcDbEntity
  8
SOLDERPASTE_PADS_TOP
100
AcDbCircle
 10
21675.0
 20
32700.0
 30
0.0
 40
360.0
  0
CIRCLE
  5
615
100
AcDbEntity
  8
SOLDERPASTE_PADS_TOP
100
AcDbCircle
 10
21040.0
 20
31430.0
 30
0.0
 40
360.0
  0
CIRCLE
  5
616
100
AcDbEntity
  8
SOLDERPASTE_PADS_TOP
100
AcDbCircle
 10
20405.0
 20
30160.0
 30
0.0
 40
360.0
  0
CIRCLE
  5
617
100
AcDbEntity
  8
SOLDERPASTE_PADS_TOP
100
AcDbCircle
 10
21675.0
 20
30160.0
 30
0.0
 40
360.0
  0
CIRCLE
  5
618
100
AcDbEntity
  8
SOLDERPASTE_PADS_TOP
100
AcDbCircle
 10
22945.0
 20
32700.0
 30
0.0
 40
360.0
  0
CIRCLE
  5
619
100
AcDbEntity
  8
SOLDERPASTE_PADS_TOP
100
AcDbCircle
 10
24215.0
 20
32700.0
 30
0.0
 40
360.0
  0
CIRCLE
  5
61A
100
AcDbEntity
  8
SOLDERPASTE_PADS_TOP
100
AcDbCircle
 10
23580.0
 20
31430.0
 30
0.0
 40
360.0
  0
CIRCLE
  5
61B
100
AcDbEntity
  8
SOLDERPASTE_PADS_TOP
100
AcDbCircle
 10
22945.0
 20
30160.0
 30
0.0
 40
360.0
  0
CIRCLE
  5
61C
100
AcDbEntity
  8
SOLDERPASTE_PADS_TOP
100
AcDbCircle
 10
24215.0
 20
30160.0
 30
0.0
 40
360.0
  0
CIRCLE
  5
61D
100
AcDbEntity
  8
SOLDERPASTE_PADS_TOP
100
AcDbCircle
 10
25485.0
 20
32700.0
 30
0.0
 40
360.0
  0
CIRCLE
  5
61E
100
AcDbEntity
  8
SOLDERPASTE_PADS_TOP
100
AcDbCircle
 10
26755.0
 20
32700.0
 30
0.0
 40
360.0
  0
CIRCLE
  5
61F
100
AcDbEntity
  8
SOLDERPASTE_PADS_TOP
100
AcDbCircle
 10
26120.0
 20
31430.0
 30
0.0
 40
360.0
  0
CIRCLE
  5
620
100
AcDbEntity
  8
SOLDERPASTE_PADS_TOP
100
AcDbCircle
 10
25485.0
 20
30160.0
 30
0.0
 40
360.0
  0
CIRCLE
  5
621
100
AcDbEntity
  8
SOLDERPASTE_PADS_TOP
100
AcDbCircle
 10
26755.0
 20
30160.0
 30
0.0
 40
360.0
  0
CIRCLE
  5
622
100
AcDbEntity
  8
SOLDERPASTE_PADS_TOP
100
AcDbCircle
 10
28025.0
 20
32700.0
 30
0.0
 40
360.0
  0
CIRCLE
  5
623
100
AcDbEntity
  8
SOLDERPASTE_PADS_TOP
100
AcDbCircle
 10
29295.0
 20
32700.0
 30
0.0
 40
360.0
  0
CIRCLE
  5
624
100
AcDbEntity
  8
SOLDERPASTE_PADS_TOP
100
AcDbCircle
 10
28660.0
 20
31430.0
 30
0.0
 40
360.0
  0
CIRCLE
  5
625
100
AcDbEntity
  8
SOLDERPASTE_PADS_TOP
100
AcDbCircle
 10
28025.0
 20
30160.0
 30
0.0
 40
360.0
  0
CIRCLE
  5
626
100
AcDbEntity
  8
SOLDERPASTE_PADS_TOP
100
AcDbCircle
 10
29295.0
 20
30160.0
 30
0.0
 40
360.0
  0
CIRCLE
  5
627
100
AcDbEntity
  8
SOLDERPASTE_PADS_TOP
100
AcDbCircle
 10
28660.0
 20
28890.0
 30
0.0
 40
360.0
  0
CIRCLE
  5
628
100
AcDbEntity
  8
SOLDERPASTE_PADS_TOP
100
AcDbCircle
 10
29295.0
 20
27620.0
 30
0.0
 40
360.0
  0
CIRCLE
  5
629
100
AcDbEntity
  8
SOLDERPASTE_PADS_TOP
100
AcDbCircle
 10
28025.0
 20
27620.0
 30
0.0
 40
360.0
  0
CIRCLE
  5
62A
100
AcDbEntity
  8
SOLDERPASTE_PADS_TOP
100
AcDbCircle
 10
27390.0
 20
28890.0
 30
0.0
 40
360.0
  0
CIRCLE
  5
62B
100
AcDbEntity
  8
SOLDERPASTE_PADS_TOP
100
AcDbCircle
 10
26755.0
 20
27620.0
 30
0.0
 40
360.0
  0
CIRCLE
  5
62C
100
AcDbEntity
  8
SOLDERPASTE_PADS_TOP
100
AcDbCircle
 10
28660.0
 20
26350.0
 30
0.0
 40
360.0
  0
CIRCLE
  5
62D
100
AcDbEntity
  8
SOLDERPASTE_PADS_TOP
100
AcDbCircle
 10
29295.0
 20
25080.0
 30
0.0
 40
360.0
  0
CIRCLE
  5
62E
100
AcDbEntity
  8
SOLDERPASTE_PADS_TOP
100
AcDbCircle
 10
28025.0
 20
25080.0
 30
0.0
 40
360.0
  0
CIRCLE
  5
62F
100
AcDbEntity
  8
SOLDERPASTE_PADS_TOP
100
AcDbCircle
 10
27390.0
 20
26350.0
 30
0.0
 40
360.0
  0
CIRCLE
  5
630
100
AcDbEntity
  8
SOLDERPASTE_PADS_TOP
100
AcDbCircle
 10
26755.0
 20
25080.0
 30
0.0
 40
360.0
  0
CIRCLE
  5
631
100
AcDbEntity
  8
SOLDERPASTE_PADS_TOP
100
AcDbCircle
 10
28660.0
 20
23810.0
 30
0.0
 40
360.0
  0
CIRCLE
  5
632
100
AcDbEntity
  8
SOLDERPASTE_PADS_TOP
100
AcDbCircle
 10
29295.0
 20
22540.0
 30
0.0
 40
360.0
  0
CIRCLE
  5
633
100
AcDbEntity
  8
SOLDERPASTE_PADS_TOP
100
AcDbCircle
 10
28025.0
 20
22540.0
 30
0.0
 40
360.0
  0
CIRCLE
  5
634
100
AcDbEntity
  8
SOLDERPASTE_PADS_TOP
100
AcDbCircle
 10
27390.0
 20
23810.0
 30
0.0
 40
360.0
  0
CIRCLE
  5
635
100
AcDbEntity
  8
SOLDERPASTE_PADS_TOP
100
AcDbCircle
 10
26755.0
 20
22540.0
 30
0.0
 40
360.0
  0
CIRCLE
  5
636
100
AcDbEntity
  8
SOLDERPASTE_PADS_TOP
100
AcDbCircle
 10
28660.0
 20
21270.0
 30
0.0
 40
360.0
  0
CIRCLE
  5
637
100
AcDbEntity
  8
SOLDERPASTE_PADS_TOP
100
AcDbCircle
 10
29295.0
 20
20000.0
 30
0.0
 40
360.0
  0
CIRCLE
  5
638
100
AcDbEntity
  8
SOLDERPASTE_PADS_TOP
100
AcDbCircle
 10
28025.0
 20
20000.0
 30
0.0
 40
360.0
  0
CIRCLE
  5
639
100
AcDbEntity
  8
SOLDERPASTE_PADS_TOP
100
AcDbCircle
 10
27390.0
 20
21270.0
 30
0.0
 40
360.0
  0
CIRCLE
  5
63A
100
AcDbEntity
  8
SOLDERPASTE_PADS_TOP
100
AcDbCircle
 10
26755.0
 20
20000.0
 30
0.0
 40
360.0
  0
CIRCLE
  5
63B
100
AcDbEntity
  8
SOLDERPASTE_PADS_TOP
100
AcDbCircle
 10
28660.0
 20
18730.0
 30
0.0
 40
360.0
  0
CIRCLE
  5
63C
100
AcDbEntity
  8
SOLDERPASTE_PADS_TOP
100
AcDbCircle
 10
29295.0
 20
17460.0
 30
0.0
 40
360.0
  0
CIRCLE
  5
63D
100
AcDbEntity
  8
SOLDERPASTE_PADS_TOP
100
AcDbCircle
 10
28025.0
 20
17460.0
 30
0.0
 40
360.0
  0
CIRCLE
  5
63E
100
AcDbEntity
  8
SOLDERPASTE_PADS_TOP
100
AcDbCircle
 10
27390.0
 20
18730.0
 30
0.0
 40
360.0
  0
CIRCLE
  5
63F
100
AcDbEntity
  8
SOLDERPASTE_PADS_TOP
100
AcDbCircle
 10
26755.0
 20
17460.0
 30
0.0
 40
360.0
  0
CIRCLE
  5
640
100
AcDbEntity
  8
SOLDERPASTE_PADS_TOP
100
AcDbCircle
 10
28660.0
 20
16190.0
 30
0.0
 40
360.0
  0
CIRCLE
  5
641
100
AcDbEntity
  8
SOLDERPASTE_PADS_TOP
100
AcDbCircle
 10
29295.0
 20
14920.0
 30
0.0
 40
360.0
  0
CIRCLE
  5
642
100
AcDbEntity
  8
SOLDERPASTE_PADS_TOP
100
AcDbCircle
 10
28025.0
 20
14920.0
 30
0.0
 40
360.0
  0
CIRCLE
  5
643
100
AcDbEntity
  8
SOLDERPASTE_PADS_TOP
100
AcDbCircle
 10
27390.0
 20
16190.0
 30
0.0
 40
360.0
  0
CIRCLE
  5
644
100
AcDbEntity
  8
SOLDERPASTE_PADS_TOP
100
AcDbCircle
 10
26755.0
 20
14920.0
 30
0.0
 40
360.0
  0
CIRCLE
  5
645
100
AcDbEntity
  8
SOLDERPASTE_PADS_TOP
100
AcDbCircle
 10
28660.0
 20
13650.0
 30
0.0
 40
360.0
  0
CIRCLE
  5
646
100
AcDbEntity
  8
SOLDERPASTE_PADS_TOP
100
AcDbCircle
 10
29295.0
 20
12380.0
 30
0.0
 40
360.0
  0
CIRCLE
  5
647
100
AcDbEntity
  8
SOLDERPASTE_PADS_TOP
100
AcDbCircle
 10
28025.0
 20
12380.0
 30
0.0
 40
360.0
  0
CIRCLE
  5
648
100
AcDbEntity
  8
SOLDERPASTE_PADS_TOP
100
AcDbCircle
 10
27390.0
 20
13650.0
 30
0.0
 40
360.0
  0
CIRCLE
  5
649
100
AcDbEntity
  8
SOLDERPASTE_PADS_TOP
100
AcDbCircle
 10
26755.0
 20
12380.0
 30
0.0
 40
360.0
  0
CIRCLE
  5
64A
100
AcDbEntity
  8
SOLDERPASTE_PADS_TOP
100
AcDbCircle
 10
28660.0
 20
11110.0
 30
0.0
 40
360.0
  0
CIRCLE
  5
64B
100
AcDbEntity
  8
SOLDERPASTE_PADS_TOP
100
AcDbCircle
 10
27390.0
 20
11110.0
 30
0.0
 40
360.0
  0
CIRCLE
  5
64C
100
AcDbEntity
  8
SOLDERPASTE_PADS_TOP
100
AcDbCircle
 10
34375.0
 20
2220.0
 30
0.0
 40
360.0
  0
CIRCLE
  5
64D
100
AcDbEntity
  8
SOLDERPASTE_PADS_TOP
100
AcDbCircle
 10
33105.0
 20
2220.0
 30
0.0
 40
360.0
  0
CIRCLE
  5
64E
100
AcDbEntity
  8
SOLDERPASTE_PADS_TOP
100
AcDbCircle
 10
33740.0
 20
3490.0
 30
0.0
 40
360.0
  0
CIRCLE
  5
64F
100
AcDbEntity
  8
SOLDERPASTE_PADS_TOP
100
AcDbCircle
 10
31835.0
 20
2220.0
 30
0.0
 40
360.0
  0
CIRCLE
  5
650
100
AcDbEntity
  8
SOLDERPASTE_PADS_TOP
100
AcDbCircle
 10
30565.0
 20
2220.0
 30
0.0
 40
360.0
  0
CIRCLE
  5
651
100
AcDbEntity
  8
SOLDERPASTE_PADS_TOP
100
AcDbCircle
 10
31200.0
 20
3490.0
 30
0.0
 40
360.0
  0
CIRCLE
  5
652
100
AcDbEntity
  8
SOLDERPASTE_PADS_TOP
100
AcDbCircle
 10
29295.0
 20
2220.0
 30
0.0
 40
360.0
  0
CIRCLE
  5
653
100
AcDbEntity
  8
SOLDERPASTE_PADS_TOP
100
AcDbCircle
 10
28025.0
 20
2220.0
 30
0.0
 40
360.0
  0
CIRCLE
  5
654
100
AcDbEntity
  8
SOLDERPASTE_PADS_TOP
100
AcDbCircle
 10
28660.0
 20
3490.0
 30
0.0
 40
360.0
  0
CIRCLE
  5
655
100
AcDbEntity
  8
SOLDERPASTE_PADS_TOP
100
AcDbCircle
 10
26755.0
 20
2220.0
 30
0.0
 40
360.0
  0
CIRCLE
  5
656
100
AcDbEntity
  8
SOLDERPASTE_PADS_TOP
100
AcDbCircle
 10
25485.0
 20
2220.0
 30
0.0
 40
360.0
  0
CIRCLE
  5
657
100
AcDbEntity
  8
SOLDERPASTE_PADS_TOP
100
AcDbCircle
 10
26120.0
 20
3490.0
 30
0.0
 40
360.0
  0
CIRCLE
  5
658
100
AcDbEntity
  8
SOLDERPASTE_PADS_TOP
100
AcDbCircle
 10
26755.0
 20
4760.0
 30
0.0
 40
360.0
  0
CIRCLE
  5
659
100
AcDbEntity
  8
SOLDERPASTE_PADS_TOP
100
AcDbCircle
 10
25485.0
 20
4760.0
 30
0.0
 40
360.0
  0
CIRCLE
  5
65A
100
AcDbEntity
  8
SOLDERPASTE_PADS_TOP
100
AcDbCircle
 10
24215.0
 20
2220.0
 30
0.0
 40
360.0
  0
CIRCLE
  5
65B
100
AcDbEntity
  8
SOLDERPASTE_PADS_TOP
100
AcDbCircle
 10
22945.0
 20
2220.0
 30
0.0
 40
360.0
  0
CIRCLE
  5
65C
100
AcDbEntity
  8
SOLDERPASTE_PADS_TOP
100
AcDbCircle
 10
23580.0
 20
3490.0
 30
0.0
 40
360.0
  0
CIRCLE
  5
65D
100
AcDbEntity
  8
SOLDERPASTE_PADS_TOP
100
AcDbCircle
 10
24215.0
 20
4760.0
 30
0.0
 40
360.0
  0
CIRCLE
  5
65E
100
AcDbEntity
  8
SOLDERPASTE_PADS_TOP
100
AcDbCircle
 10
22945.0
 20
4760.0
 30
0.0
 40
360.0
  0
CIRCLE
  5
65F
100
AcDbEntity
  8
SOLDERPASTE_PADS_TOP
100
AcDbCircle
 10
21675.0
 20
2220.0
 30
0.0
 40
360.0
  0
CIRCLE
  5
660
100
AcDbEntity
  8
SOLDERPASTE_PADS_TOP
100
AcDbCircle
 10
20405.0
 20
2220.0
 30
0.0
 40
360.0
  0
CIRCLE
  5
661
100
AcDbEntity
  8
SOLDERPASTE_PADS_TOP
100
AcDbCircle
 10
21040.0
 20
3490.0
 30
0.0
 40
360.0
  0
CIRCLE
  5
662
100
AcDbEntity
  8
SOLDERPASTE_PADS_TOP
100
AcDbCircle
 10
21675.0
 20
4760.0
 30
0.0
 40
360.0
  0
CIRCLE
  5
663
100
AcDbEntity
  8
SOLDERPASTE_PADS_TOP
100
AcDbCircle
 10
20405.0
 20
4760.0
 30
0.0
 40
360.0
  0
CIRCLE
  5
664
100
AcDbEntity
  8
SOLDERPASTE_PADS_TOP
100
AcDbCircle
 10
19135.0
 20
2220.0
 30
0.0
 40
360.0
  0
CIRCLE
  5
665
100
AcDbEntity
  8
SOLDERPASTE_PADS_TOP
100
AcDbCircle
 10
17865.0
 20
2220.0
 30
0.0
 40
360.0
  0
CIRCLE
  5
666
100
AcDbEntity
  8
SOLDERPASTE_PADS_TOP
100
AcDbCircle
 10
18500.0
 20
3490.0
 30
0.0
 40
360.0
  0
CIRCLE
  5
667
100
AcDbEntity
  8
SOLDERPASTE_PADS_TOP
100
AcDbCircle
 10
19135.0
 20
4760.0
 30
0.0
 40
360.0
  0
CIRCLE
  5
668
100
AcDbEntity
  8
SOLDERPASTE_PADS_TOP
100
AcDbCircle
 10
17865.0
 20
4760.0
 30
0.0
 40
360.0
  0
CIRCLE
  5
669
100
AcDbEntity
  8
SOLDERPASTE_PADS_TOP
100
AcDbCircle
 10
16595.0
 20
2220.0
 30
0.0
 40
360.0
  0
CIRCLE
  5
66A
100
AcDbEntity
  8
SOLDERPASTE_PADS_TOP
100
AcDbCircle
 10
15325.0
 20
2220.0
 30
0.0
 40
360.0
  0
CIRCLE
  5
66B
100
AcDbEntity
  8
SOLDERPASTE_PADS_TOP
100
AcDbCircle
 10
15960.0
 20
3490.0
 30
0.0
 40
360.0
  0
CIRCLE
  5
66C
100
AcDbEntity
  8
SOLDERPASTE_PADS_TOP
100
AcDbCircle
 10
16595.0
 20
4760.0
 30
0.0
 40
360.0
  0
CIRCLE
  5
66D
100
AcDbEntity
  8
SOLDERPASTE_PADS_TOP
100
AcDbCircle
 10
15325.0
 20
4760.0
 30
0.0
 40
360.0
  0
CIRCLE
  5
66E
100
AcDbEntity
  8
SOLDERPASTE_PADS_TOP
100
AcDbCircle
 10
14055.0
 20
2220.0
 30
0.0
 40
360.0
  0
CIRCLE
  5
66F
100
AcDbEntity
  8
SOLDERPASTE_PADS_TOP
100
AcDbCircle
 10
12785.0
 20
2220.0
 30
0.0
 40
360.0
  0
CIRCLE
  5
670
100
AcDbEntity
  8
SOLDERPASTE_PADS_TOP
100
AcDbCircle
 10
13420.0
 20
3490.0
 30
0.0
 40
360.0
  0
CIRCLE
  5
671
100
AcDbEntity
  8
SOLDERPASTE_PADS_TOP
100
AcDbCircle
 10
14055.0
 20
4760.0
 30
0.0
 40
360.0
  0
CIRCLE
  5
672
100
AcDbEntity
  8
SOLDERPASTE_PADS_TOP
100
AcDbCircle
 10
12785.0
 20
4760.0
 30
0.0
 40
360.0
  0
CIRCLE
  5
673
100
AcDbEntity
  8
SOLDERPASTE_PADS_TOP
100
AcDbCircle
 10
11515.0
 20
2220.0
 30
0.0
 40
360.0
  0
CIRCLE
  5
674
100
AcDbEntity
  8
SOLDERPASTE_PADS_TOP
100
AcDbCircle
 10
10245.0
 20
2220.0
 30
0.0
 40
360.0
  0
CIRCLE
  5
675
100
AcDbEntity
  8
SOLDERPASTE_PADS_TOP
100
AcDbCircle
 10
10880.0
 20
3490.0
 30
0.0
 40
360.0
  0
CIRCLE
  5
676
100
AcDbEntity
  8
SOLDERPASTE_PADS_TOP
100
AcDbCircle
 10
11515.0
 20
4760.0
 30
0.0
 40
360.0
  0
CIRCLE
  5
677
100
AcDbEntity
  8
SOLDERPASTE_PADS_TOP
100
AcDbCircle
 10
10245.0
 20
4760.0
 30
0.0
 40
360.0
  0
CIRCLE
  5
678
100
AcDbEntity
  8
SOLDERPASTE_PADS_TOP
100
AcDbCircle
 10
8975.0
 20
2220.0
 30
0.0
 40
360.0
  0
CIRCLE
  5
679
100
AcDbEntity
  8
SOLDERPASTE_PADS_TOP
100
AcDbCircle
 10
7705.0
 20
2220.0
 30
0.0
 40
360.0
  0
CIRCLE
  5
67A
100
AcDbEntity
  8
SOLDERPASTE_PADS_TOP
100
AcDbCircle
 10
8340.0
 20
3490.0
 30
0.0
 40
360.0
  0
CIRCLE
  5
67B
100
AcDbEntity
  8
SOLDERPASTE_PADS_TOP
100
AcDbCircle
 10
6435.0
 20
2220.0
 30
0.0
 40
360.0
  0
CIRCLE
  5
67C
100
AcDbEntity
  8
SOLDERPASTE_PADS_TOP
100
AcDbCircle
 10
5165.0
 20
2220.0
 30
0.0
 40
360.0
  0
CIRCLE
  5
67D
100
AcDbEntity
  8
SOLDERPASTE_PADS_TOP
100
AcDbCircle
 10
5800.0
 20
3490.0
 30
0.0
 40
360.0
  0
CIRCLE
  5
67E
100
AcDbEntity
  8
SOLDERPASTE_PADS_TOP
100
AcDbCircle
 10
3895.0
 20
2220.0
 30
0.0
 40
360.0
  0
CIRCLE
  5
67F
100
AcDbEntity
  8
SOLDERPASTE_PADS_TOP
100
AcDbCircle
 10
2625.0
 20
2220.0
 30
0.0
 40
360.0
  0
CIRCLE
  5
680
100
AcDbEntity
  8
SOLDERPASTE_PADS_TOP
100
AcDbCircle
 10
3260.0
 20
3490.0
 30
0.0
 40
360.0
  0
CIRCLE
  5
681
100
AcDbEntity
  8
SOLDERPASTE_PADS_TOP
100
AcDbCircle
 10
2625.0
 20
4760.0
 30
0.0
 40
360.0
  0
CIRCLE
  5
682
100
AcDbEntity
  8
SOLDERPASTE_PADS_TOP
100
AcDbCircle
 10
1990.0
 20
6030.0
 30
0.0
 40
360.0
  0
CIRCLE
  5
683
100
AcDbEntity
  8
SOLDERPASTE_PADS_TOP
100
AcDbCircle
 10
3260.0
 20
6030.0
 30
0.0
 40
360.0
  0
CIRCLE
  5
684
100
AcDbEntity
  8
SOLDERPASTE_PADS_TOP
100
AcDbCircle
 10
3895.0
 20
4760.0
 30
0.0
 40
360.0
  0
CIRCLE
  5
685
100
AcDbEntity
  8
SOLDERPASTE_PADS_TOP
100
AcDbCircle
 10
4530.0
 20
6030.0
 30
0.0
 40
360.0
  0
CIRCLE
  5
686
100
AcDbEntity
  8
SOLDERPASTE_PADS_TOP
100
AcDbCircle
 10
2625.0
 20
7300.0
 30
0.0
 40
360.0
  0
CIRCLE
  5
687
100
AcDbEntity
  8
SOLDERPASTE_PADS_TOP
100
AcDbCircle
 10
1990.0
 20
8570.0
 30
0.0
 40
360.0
  0
CIRCLE
  5
688
100
AcDbEntity
  8
SOLDERPASTE_PADS_TOP
100
AcDbCircle
 10
3260.0
 20
8570.0
 30
0.0
 40
360.0
  0
CIRCLE
  5
689
100
AcDbEntity
  8
SOLDERPASTE_PADS_TOP
100
AcDbCircle
 10
3895.0
 20
7300.0
 30
0.0
 40
360.0
  0
CIRCLE
  5
68A
100
AcDbEntity
  8
SOLDERPASTE_PADS_TOP
100
AcDbCircle
 10
4530.0
 20
8570.0
 30
0.0
 40
360.0
  0
CIRCLE
  5
68B
100
AcDbEntity
  8
SOLDERPASTE_PADS_TOP
100
AcDbCircle
 10
2625.0
 20
9840.0
 30
0.0
 40
360.0
  0
CIRCLE
  5
68C
100
AcDbEntity
  8
SOLDERPASTE_PADS_TOP
100
AcDbCircle
 10
1990.0
 20
11110.0
 30
0.0
 40
360.0
  0
CIRCLE
  5
68D
100
AcDbEntity
  8
SOLDERPASTE_PADS_TOP
100
AcDbCircle
 10
3260.0
 20
11110.0
 30
0.0
 40
360.0
  0
CIRCLE
  5
68E
100
AcDbEntity
  8
SOLDERPASTE_PADS_TOP
100
AcDbCircle
 10
3895.0
 20
9840.0
 30
0.0
 40
360.0
  0
CIRCLE
  5
68F
100
AcDbEntity
  8
SOLDERPASTE_PADS_TOP
100
AcDbCircle
 10
4530.0
 20
11110.0
 30
0.0
 40
360.0
  0
CIRCLE
  5
690
100
AcDbEntity
  8
SOLDERPASTE_PADS_TOP
100
AcDbCircle
 10
2625.0
 20
12380.0
 30
0.0
 40
360.0
  0
CIRCLE
  5
691
100
AcDbEntity
  8
SOLDERPASTE_PADS_TOP
100
AcDbCircle
 10
1990.0
 20
13650.0
 30
0.0
 40
360.0
  0
CIRCLE
  5
692
100
AcDbEntity
  8
SOLDERPASTE_PADS_TOP
100
AcDbCircle
 10
3260.0
 20
13650.0
 30
0.0
 40
360.0
  0
CIRCLE
  5
693
100
AcDbEntity
  8
SOLDERPASTE_PADS_TOP
100
AcDbCircle
 10
3895.0
 20
12380.0
 30
0.0
 40
360.0
  0
CIRCLE
  5
694
100
AcDbEntity
  8
SOLDERPASTE_PADS_TOP
100
AcDbCircle
 10
4530.0
 20
13650.0
 30
0.0
 40
360.0
  0
CIRCLE
  5
695
100
AcDbEntity
  8
SOLDERPASTE_PADS_TOP
100
AcDbCircle
 10
2625.0
 20
14920.0
 30
0.0
 40
360.0
  0
CIRCLE
  5
696
100
AcDbEntity
  8
SOLDERPASTE_PADS_TOP
100
AcDbCircle
 10
1990.0
 20
16190.0
 30
0.0
 40
360.0
  0
CIRCLE
  5
697
100
AcDbEntity
  8
SOLDERPASTE_PADS_TOP
100
AcDbCircle
 10
3260.0
 20
16190.0
 30
0.0
 40
360.0
  0
CIRCLE
  5
698
100
AcDbEntity
  8
SOLDERPASTE_PADS_TOP
100
AcDbCircle
 10
3895.0
 20
14920.0
 30
0.0
 40
360.0
  0
CIRCLE
  5
699
100
AcDbEntity
  8
SOLDERPASTE_PADS_TOP
100
AcDbCircle
 10
4530.0
 20
16190.0
 30
0.0
 40
360.0
  0
CIRCLE
  5
69A
100
AcDbEntity
  8
SOLDERPASTE_PADS_TOP
100
AcDbCircle
 10
2625.0
 20
17460.0
 30
0.0
 40
360.0
  0
CIRCLE
  5
69B
100
AcDbEntity
  8
SOLDERPASTE_PADS_TOP
100
AcDbCircle
 10
1990.0
 20
18730.0
 30
0.0
 40
360.0
  0
CIRCLE
  5
69C
100
AcDbEntity
  8
SOLDERPASTE_PADS_TOP
100
AcDbCircle
 10
3260.0
 20
18730.0
 30
0.0
 40
360.0
  0
CIRCLE
  5
69D
100
AcDbEntity
  8
SOLDERPASTE_PADS_TOP
100
AcDbCircle
 10
3895.0
 20
17460.0
 30
0.0
 40
360.0
  0
CIRCLE
  5
69E
100
AcDbEntity
  8
SOLDERPASTE_PADS_TOP
100
AcDbCircle
 10
4530.0
 20
18730.0
 30
0.0
 40
360.0
  0
CIRCLE
  5
69F
100
AcDbEntity
  8
SOLDERPASTE_PADS_TOP
100
AcDbCircle
 10
2625.0
 20
20000.0
 30
0.0
 40
360.0
  0
CIRCLE
  5
6A0
100
AcDbEntity
  8
SOLDERPASTE_PADS_TOP
100
AcDbCircle
 10
1990.0
 20
21270.0
 30
0.0
 40
360.0
  0
CIRCLE
  5
6A1
100
AcDbEntity
  8
SOLDERPASTE_PADS_TOP
100
AcDbCircle
 10
3260.0
 20
21270.0
 30
0.0
 40
360.0
  0
CIRCLE
  5
6A2
100
AcDbEntity
  8
SOLDERPASTE_PADS_TOP
100
AcDbCircle
 10
3895.0
 20
20000.0
 30
0.0
 40
360.0
  0
CIRCLE
  5
6A3
100
AcDbEntity
  8
SOLDERPASTE_PADS_TOP
100
AcDbCircle
 10
4530.0
 20
21270.0
 30
0.0
 40
360.0
  0
CIRCLE
  5
6A4
100
AcDbEntity
  8
SOLDERPASTE_PADS_TOP
100
AcDbCircle
 10
2625.0
 20
22540.0
 30
0.0
 40
360.0
  0
CIRCLE
  5
6A5
100
AcDbEntity
  8
SOLDERPASTE_PADS_TOP
100
AcDbCircle
 10
1990.0
 20
23810.0
 30
0.0
 40
360.0
  0
CIRCLE
  5
6A6
100
AcDbEntity
  8
SOLDERPASTE_PADS_TOP
100
AcDbCircle
 10
3260.0
 20
23810.0
 30
0.0
 40
360.0
  0
CIRCLE
  5
6A7
100
AcDbEntity
  8
SOLDERPASTE_PADS_TOP
100
AcDbCircle
 10
3895.0
 20
22540.0
 30
0.0
 40
360.0
  0
CIRCLE
  5
6A8
100
AcDbEntity
  8
SOLDERPASTE_PADS_TOP
100
AcDbCircle
 10
4530.0
 20
23810.0
 30
0.0
 40
360.0
  0
CIRCLE
  5
6A9
100
AcDbEntity
  8
SOLDERPASTE_PADS_TOP
100
AcDbCircle
 10
2625.0
 20
25080.0
 30
0.0
 40
360.0
  0
CIRCLE
  5
6AA
100
AcDbEntity
  8
SOLDERPASTE_PADS_TOP
100
AcDbCircle
 10
1990.0
 20
26350.0
 30
0.0
 40
360.0
  0
CIRCLE
  5
6AB
100
AcDbEntity
  8
SOLDERPASTE_PADS_TOP
100
AcDbCircle
 10
3260.0
 20
26350.0
 30
0.0
 40
360.0
  0
CIRCLE
  5
6AC
100
AcDbEntity
  8
SOLDERPASTE_PADS_TOP
100
AcDbCircle
 10
3895.0
 20
25080.0
 30
0.0
 40
360.0
  0
CIRCLE
  5
6AD
100
AcDbEntity
  8
SOLDERPASTE_PADS_TOP
100
AcDbCircle
 10
4530.0
 20
26350.0
 30
0.0
 40
360.0
  0
CIRCLE
  5
6AE
100
AcDbEntity
  8
SOLDERPASTE_PADS_TOP
100
AcDbCircle
 10
2625.0
 20
27620.0
 30
0.0
 40
360.0
  0
CIRCLE
  5
6AF
100
AcDbEntity
  8
SOLDERPASTE_PADS_TOP
100
AcDbCircle
 10
1990.0
 20
28890.0
 30
0.0
 40
360.0
  0
CIRCLE
  5
6B0
100
AcDbEntity
  8
SOLDERPASTE_PADS_TOP
100
AcDbCircle
 10
3260.0
 20
28890.0
 30
0.0
 40
360.0
  0
CIRCLE
  5
6B1
100
AcDbEntity
  8
SOLDERPASTE_PADS_TOP
100
AcDbCircle
 10
3895.0
 20
27620.0
 30
0.0
 40
360.0
  0
CIRCLE
  5
6B2
100
AcDbEntity
  8
SOLDERPASTE_PADS_TOP
100
AcDbCircle
 10
4530.0
 20
28890.0
 30
0.0
 40
360.0
  0
CIRCLE
  5
6B3
100
AcDbEntity
  8
SOLDERPASTE_PADS_TOP
100
AcDbCircle
 10
2625.0
 20
30160.0
 30
0.0
 40
360.0
  0
CIRCLE
  5
6B4
100
AcDbEntity
  8
SOLDERPASTE_PADS_TOP
100
AcDbCircle
 10
1990.0
 20
31430.0
 30
0.0
 40
360.0
  0
CIRCLE
  5
6B5
100
AcDbEntity
  8
SOLDERPASTE_PADS_TOP
100
AcDbCircle
 10
3260.0
 20
31430.0
 30
0.0
 40
360.0
  0
CIRCLE
  5
6B6
100
AcDbEntity
  8
SOLDERPASTE_PADS_TOP
100
AcDbCircle
 10
3895.0
 20
30160.0
 30
0.0
 40
360.0
  0
CIRCLE
  5
6B7
100
AcDbEntity
  8
SOLDERPASTE_PADS_TOP
100
AcDbCircle
 10
4530.0
 20
31430.0
 30
0.0
 40
360.0
  0
CIRCLE
  5
6B8
100
AcDbEntity
  8
SOLDERPASTE_PADS_TOP
100
AcDbCircle
 10
2625.0
 20
32700.0
 30
0.0
 40
360.0
  0
CIRCLE
  5
6B9
100
AcDbEntity
  8
SOLDERPASTE_PADS_TOP
100
AcDbCircle
 10
1990.0
 20
33970.0
 30
0.0
 40
360.0
  0
CIRCLE
  5
6BA
100
AcDbEntity
  8
SOLDERPASTE_PADS_TOP
100
AcDbCircle
 10
3260.0
 20
33970.0
 30
0.0
 40
360.0
  0
CIRCLE
  5
6BB
100
AcDbEntity
  8
SOLDERPASTE_PADS_TOP
100
AcDbCircle
 10
3895.0
 20
32700.0
 30
0.0
 40
360.0
  0
CIRCLE
  5
6BC
100
AcDbEntity
  8
SOLDERPASTE_PADS_TOP
100
AcDbCircle
 10
4530.0
 20
33970.0
 30
0.0
 40
360.0
  0
CIRCLE
  5
6BD
100
AcDbEntity
  8
SOLDERPASTE_PADS_TOP
100
AcDbCircle
 10
2625.0
 20
35240.0
 30
0.0
 40
360.0
  0
CIRCLE
  5
6BE
100
AcDbEntity
  8
SOLDERPASTE_PADS_TOP
100
AcDbCircle
 10
3895.0
 20
35240.0
 30
0.0
 40
360.0
  0
CIRCLE
  5
6BF
100
AcDbEntity
  8
SOLDERPASTE_PADS_TOP
100
AcDbCircle
 10
2625.0
 20
37780.0
 30
0.0
 40
360.0
  0
CIRCLE
  5
6C0
100
AcDbEntity
  8
SOLDERPASTE_PADS_TOP
100
AcDbCircle
 10
3895.0
 20
37780.0
 30
0.0
 40
360.0
  0
CIRCLE
  5
6C1
100
AcDbEntity
  8
SOLDERPASTE_PADS_TOP
100
AcDbCircle
 10
3260.0
 20
36510.0
 30
0.0
 40
360.0
  0
CIRCLE
  5
6C2
100
AcDbEntity
  8
SOLDERPASTE_PADS_TOP
100
AcDbCircle
 10
5165.0
 20
37780.0
 30
0.0
 40
360.0
  0
CIRCLE
  5
6C3
100
AcDbEntity
  8
SOLDERPASTE_PADS_TOP
100
AcDbCircle
 10
6435.0
 20
37780.0
 30
0.0
 40
360.0
  0
CIRCLE
  5
6C4
100
AcDbEntity
  8
SOLDERPASTE_PADS_TOP
100
AcDbCircle
 10
5800.0
 20
36510.0
 30
0.0
 40
360.0
  0
CIRCLE
  5
6C5
100
AcDbEntity
  8
SOLDERPASTE_PADS_TOP
100
AcDbCircle
 10
7705.0
 20
37780.0
 30
0.0
 40
360.0
  0
CIRCLE
  5
6C6
100
AcDbEntity
  8
SOLDERPASTE_PADS_TOP
100
AcDbCircle
 10
8975.0
 20
37780.0
 30
0.0
 40
360.0
  0
CIRCLE
  5
6C7
100
AcDbEntity
  8
SOLDERPASTE_PADS_TOP
100
AcDbCircle
 10
8340.0
 20
36510.0
 30
0.0
 40
360.0
  0
CIRCLE
  5
6C8
100
AcDbEntity
  8
SOLDERPASTE_PADS_TOP
100
AcDbCircle
 10
10245.0
 20
37780.0
 30
0.0
 40
360.0
  0
CIRCLE
  5
6C9
100
AcDbEntity
  8
SOLDERPASTE_PADS_TOP
100
AcDbCircle
 10
11515.0
 20
37780.0
 30
0.0
 40
360.0
  0
CIRCLE
  5
6CA
100
AcDbEntity
  8
SOLDERPASTE_PADS_TOP
100
AcDbCircle
 10
10880.0
 20
36510.0
 30
0.0
 40
360.0
  0
CIRCLE
  5
6CB
100
AcDbEntity
  8
SOLDERPASTE_PADS_TOP
100
AcDbCircle
 10
10245.0
 20
35240.0
 30
0.0
 40
360.0
  0
CIRCLE
  5
6CC
100
AcDbEntity
  8
SOLDERPASTE_PADS_TOP
100
AcDbCircle
 10
11515.0
 20
35240.0
 30
0.0
 40
360.0
  0
CIRCLE
  5
6CD
100
AcDbEntity
  8
SOLDERPASTE_PADS_TOP
100
AcDbCircle
 10
12785.0
 20
37780.0
 30
0.0
 40
360.0
  0
CIRCLE
  5
6CE
100
AcDbEntity
  8
SOLDERPASTE_PADS_TOP
100
AcDbCircle
 10
14055.0
 20
37780.0
 30
0.0
 40
360.0
  0
CIRCLE
  5
6CF
100
AcDbEntity
  8
SOLDERPASTE_PADS_TOP
100
AcDbCircle
 10
13420.0
 20
36510.0
 30
0.0
 40
360.0
  0
CIRCLE
  5
6D0
100
AcDbEntity
  8
SOLDERPASTE_PADS_TOP
100
AcDbCircle
 10
12785.0
 20
35240.0
 30
0.0
 40
360.0
  0
CIRCLE
  5
6D1
100
AcDbEntity
  8
SOLDERPASTE_PADS_TOP
100
AcDbCircle
 10
14055.0
 20
35240.0
 30
0.0
 40
360.0
  0
CIRCLE
  5
6D2
100
AcDbEntity
  8
SOLDERPASTE_PADS_TOP
100
AcDbCircle
 10
15325.0
 20
37780.0
 30
0.0
 40
360.0
  0
CIRCLE
  5
6D3
100
AcDbEntity
  8
SOLDERPASTE_PADS_TOP
100
AcDbCircle
 10
16595.0
 20
37780.0
 30
0.0
 40
360.0
  0
CIRCLE
  5
6D4
100
AcDbEntity
  8
SOLDERPASTE_PADS_TOP
100
AcDbCircle
 10
15960.0
 20
36510.0
 30
0.0
 40
360.0
  0
CIRCLE
  5
6D5
100
AcDbEntity
  8
SOLDERPASTE_PADS_TOP
100
AcDbCircle
 10
15325.0
 20
35240.0
 30
0.0
 40
360.0
  0
CIRCLE
  5
6D6
100
AcDbEntity
  8
SOLDERPASTE_PADS_TOP
100
AcDbCircle
 10
16595.0
 20
35240.0
 30
0.0
 40
360.0
  0
CIRCLE
  5
6D7
100
AcDbEntity
  8
SOLDERPASTE_PADS_TOP
100
AcDbCircle
 10
17865.0
 20
37780.0
 30
0.0
 40
360.0
  0
CIRCLE
  5
6D8
100
AcDbEntity
  8
SOLDERPASTE_PADS_TOP
100
AcDbCircle
 10
19135.0
 20
37780.0
 30
0.0
 40
360.0
  0
CIRCLE
  5
6D9
100
AcDbEntity
  8
SOLDERPASTE_PADS_TOP
100
AcDbCircle
 10
18500.0
 20
36510.0
 30
0.0
 40
360.0
  0
CIRCLE
  5
6DA
100
AcDbEntity
  8
SOLDERPASTE_PADS_TOP
100
AcDbCircle
 10
17865.0
 20
35240.0
 30
0.0
 40
360.0
  0
CIRCLE
  5
6DB
100
AcDbEntity
  8
SOLDERPASTE_PADS_TOP
100
AcDbCircle
 10
19135.0
 20
35240.0
 30
0.0
 40
360.0
  0
CIRCLE
  5
6DC
100
AcDbEntity
  8
SOLDERPASTE_PADS_TOP
100
AcDbCircle
 10
20405.0
 20
37780.0
 30
0.0
 40
360.0
  0
CIRCLE
  5
6DD
100
AcDbEntity
  8
SOLDERPASTE_PADS_TOP
100
AcDbCircle
 10
21675.0
 20
37780.0
 30
0.0
 40
360.0
  0
CIRCLE
  5
6DE
100
AcDbEntity
  8
SOLDERPASTE_PADS_TOP
100
AcDbCircle
 10
21040.0
 20
36510.0
 30
0.0
 40
360.0
  0
CIRCLE
  5
6DF
100
AcDbEntity
  8
SOLDERPASTE_PADS_TOP
100
AcDbCircle
 10
20405.0
 20
35240.0
 30
0.0
 40
360.0
  0
CIRCLE
  5
6E0
100
AcDbEntity
  8
SOLDERPASTE_PADS_TOP
100
AcDbCircle
 10
21675.0
 20
35240.0
 30
0.0
 40
360.0
  0
CIRCLE
  5
6E1
100
AcDbEntity
  8
SOLDERPASTE_PADS_TOP
100
AcDbCircle
 10
22945.0
 20
37780.0
 30
0.0
 40
360.0
  0
CIRCLE
  5
6E2
100
AcDbEntity
  8
SOLDERPASTE_PADS_TOP
100
AcDbCircle
 10
24215.0
 20
37780.0
 30
0.0
 40
360.0
  0
CIRCLE
  5
6E3
100
AcDbEntity
  8
SOLDERPASTE_PADS_TOP
100
AcDbCircle
 10
23580.0
 20
36510.0
 30
0.0
 40
360.0
  0
CIRCLE
  5
6E4
100
AcDbEntity
  8
SOLDERPASTE_PADS_TOP
100
AcDbCircle
 10
22945.0
 20
35240.0
 30
0.0
 40
360.0
  0
CIRCLE
  5
6E5
100
AcDbEntity
  8
SOLDERPASTE_PADS_TOP
100
AcDbCircle
 10
24215.0
 20
35240.0
 30
0.0
 40
360.0
  0
CIRCLE
  5
6E6
100
AcDbEntity
  8
SOLDERPASTE_PADS_TOP
100
AcDbCircle
 10
25485.0
 20
37780.0
 30
0.0
 40
360.0
  0
CIRCLE
  5
6E7
100
AcDbEntity
  8
SOLDERPASTE_PADS_TOP
100
AcDbCircle
 10
26755.0
 20
37780.0
 30
0.0
 40
360.0
  0
CIRCLE
  5
6E8
100
AcDbEntity
  8
SOLDERPASTE_PADS_TOP
100
AcDbCircle
 10
26120.0
 20
36510.0
 30
0.0
 40
360.0
  0
CIRCLE
  5
6E9
100
AcDbEntity
  8
SOLDERPASTE_PADS_TOP
100
AcDbCircle
 10
25485.0
 20
35240.0
 30
0.0
 40
360.0
  0
CIRCLE
  5
6EA
100
AcDbEntity
  8
SOLDERPASTE_PADS_TOP
100
AcDbCircle
 10
26755.0
 20
35240.0
 30
0.0
 40
360.0
  0
CIRCLE
  5
6EB
100
AcDbEntity
  8
SOLDERPASTE_PADS_TOP
100
AcDbCircle
 10
28025.0
 20
37780.0
 30
0.0
 40
360.0
  0
CIRCLE
  5
6EC
100
AcDbEntity
  8
SOLDERPASTE_PADS_TOP
100
AcDbCircle
 10
29295.0
 20
37780.0
 30
0.0
 40
360.0
  0
CIRCLE
  5
6ED
100
AcDbEntity
  8
SOLDERPASTE_PADS_TOP
100
AcDbCircle
 10
28660.0
 20
36510.0
 30
0.0
 40
360.0
  0
CIRCLE
  5
6EE
100
AcDbEntity
  8
SOLDERPASTE_PADS_TOP
100
AcDbCircle
 10
30565.0
 20
37780.0
 30
0.0
 40
360.0
  0
CIRCLE
  5
6EF
100
AcDbEntity
  8
SOLDERPASTE_PADS_TOP
100
AcDbCircle
 10
31835.0
 20
37780.0
 30
0.0
 40
360.0
  0
CIRCLE
  5
6F0
100
AcDbEntity
  8
SOLDERPASTE_PADS_TOP
100
AcDbCircle
 10
31200.0
 20
36510.0
 30
0.0
 40
360.0
  0
CIRCLE
  5
6F1
100
AcDbEntity
  8
SOLDERPASTE_PADS_TOP
100
AcDbCircle
 10
33105.0
 20
37780.0
 30
0.0
 40
360.0
  0
CIRCLE
  5
6F2
100
AcDbEntity
  8
SOLDERPASTE_PADS_TOP
100
AcDbCircle
 10
34375.0
 20
37780.0
 30
0.0
 40
360.0
  0
CIRCLE
  5
6F3
100
AcDbEntity
  8
SOLDERPASTE_PADS_TOP
100
AcDbCircle
 10
33740.0
 20
36510.0
 30
0.0
 40
360.0
  0
CIRCLE
  5
6F4
100
AcDbEntity
  8
SOLDERPASTE_PADS_TOP
100
AcDbCircle
 10
34375.0
 20
35240.0
 30
0.0
 40
360.0
  0
CIRCLE
  5
6F5
100
AcDbEntity
  8
SOLDERPASTE_PADS_TOP
100
AcDbCircle
 10
35010.0
 20
33970.0
 30
0.0
 40
360.0
  0
CIRCLE
  5
6F6
100
AcDbEntity
  8
SOLDERPASTE_PADS_TOP
100
AcDbCircle
 10
33740.0
 20
33970.0
 30
0.0
 40
360.0
  0
CIRCLE
  5
6F7
100
AcDbEntity
  8
SOLDERPASTE_PADS_TOP
100
AcDbCircle
 10
33105.0
 20
35240.0
 30
0.0
 40
360.0
  0
CIRCLE
  5
6F8
100
AcDbEntity
  8
SOLDERPASTE_PADS_TOP
100
AcDbCircle
 10
32470.0
 20
33970.0
 30
0.0
 40
360.0
  0
CIRCLE
  5
6F9
100
AcDbEntity
  8
SOLDERPASTE_PADS_TOP
100
AcDbCircle
 10
34375.0
 20
32700.0
 30
0.0
 40
360.0
  0
CIRCLE
  5
6FA
100
AcDbEntity
  8
SOLDERPASTE_PADS_TOP
100
AcDbCircle
 10
35010.0
 20
31430.0
 30
0.0
 40
360.0
  0
CIRCLE
  5
6FB
100
AcDbEntity
  8
SOLDERPASTE_PADS_TOP
100
AcDbCircle
 10
33740.0
 20
31430.0
 30
0.0
 40
360.0
  0
CIRCLE
  5
6FC
100
AcDbEntity
  8
SOLDERPASTE_PADS_TOP
100
AcDbCircle
 10
33105.0
 20
32700.0
 30
0.0
 40
360.0
  0
CIRCLE
  5
6FD
100
AcDbEntity
  8
SOLDERPASTE_PADS_TOP
100
AcDbCircle
 10
32470.0
 20
31430.0
 30
0.0
 40
360.0
  0
CIRCLE
  5
6FE
100
AcDbEntity
  8
SOLDERPASTE_PADS_TOP
100
AcDbCircle
 10
34375.0
 20
30160.0
 30
0.0
 40
360.0
  0
CIRCLE
  5
6FF
100
AcDbEntity
  8
SOLDERPASTE_PADS_TOP
100
AcDbCircle
 10
35010.0
 20
28890.0
 30
0.0
 40
360.0
  0
CIRCLE
  5
700
100
AcDbEntity
  8
SOLDERPASTE_PADS_TOP
100
AcDbCircle
 10
33740.0
 20
28890.0
 30
0.0
 40
360.0
  0
CIRCLE
  5
701
100
AcDbEntity
  8
SOLDERPASTE_PADS_TOP
100
AcDbCircle
 10
33105.0
 20
30160.0
 30
0.0
 40
360.0
  0
CIRCLE
  5
702
100
AcDbEntity
  8
SOLDERPASTE_PADS_TOP
100
AcDbCircle
 10
32470.0
 20
28890.0
 30
0.0
 40
360.0
  0
CIRCLE
  5
703
100
AcDbEntity
  8
SOLDERPASTE_PADS_TOP
100
AcDbCircle
 10
34375.0
 20
27620.0
 30
0.0
 40
360.0
  0
CIRCLE
  5
704
100
AcDbEntity
  8
SOLDERPASTE_PADS_TOP
100
AcDbCircle
 10
35010.0
 20
26350.0
 30
0.0
 40
360.0
  0
CIRCLE
  5
705
100
AcDbEntity
  8
SOLDERPASTE_PADS_TOP
100
AcDbCircle
 10
33740.0
 20
26350.0
 30
0.0
 40
360.0
  0
CIRCLE
  5
706
100
AcDbEntity
  8
SOLDERPASTE_PADS_TOP
100
AcDbCircle
 10
33105.0
 20
27620.0
 30
0.0
 40
360.0
  0
CIRCLE
  5
707
100
AcDbEntity
  8
SOLDERPASTE_PADS_TOP
100
AcDbCircle
 10
32470.0
 20
26350.0
 30
0.0
 40
360.0
  0
CIRCLE
  5
708
100
AcDbEntity
  8
SOLDERPASTE_PADS_TOP
100
AcDbCircle
 10
34375.0
 20
25080.0
 30
0.0
 40
360.0
  0
CIRCLE
  5
709
100
AcDbEntity
  8
SOLDERPASTE_PADS_TOP
100
AcDbCircle
 10
35010.0
 20
23810.0
 30
0.0
 40
360.0
  0
CIRCLE
  5
70A
100
AcDbEntity
  8
SOLDERPASTE_PADS_TOP
100
AcDbCircle
 10
33740.0
 20
23810.0
 30
0.0
 40
360.0
  0
CIRCLE
  5
70B
100
AcDbEntity
  8
SOLDERPASTE_PADS_TOP
100
AcDbCircle
 10
33105.0
 20
25080.0
 30
0.0
 40
360.0
  0
CIRCLE
  5
70C
100
AcDbEntity
  8
SOLDERPASTE_PADS_TOP
100
AcDbCircle
 10
32470.0
 20
23810.0
 30
0.0
 40
360.0
  0
CIRCLE
  5
70D
100
AcDbEntity
  8
SOLDERPASTE_PADS_TOP
100
AcDbCircle
 10
34375.0
 20
22540.0
 30
0.0
 40
360.0
  0
CIRCLE
  5
70E
100
AcDbEntity
  8
SOLDERPASTE_PADS_TOP
100
AcDbCircle
 10
35010.0
 20
21270.0
 30
0.0
 40
360.0
  0
CIRCLE
  5
70F
100
AcDbEntity
  8
SOLDERPASTE_PADS_TOP
100
AcDbCircle
 10
33740.0
 20
21270.0
 30
0.0
 40
360.0
  0
CIRCLE
  5
710
100
AcDbEntity
  8
SOLDERPASTE_PADS_TOP
100
AcDbCircle
 10
33105.0
 20
22540.0
 30
0.0
 40
360.0
  0
CIRCLE
  5
711
100
AcDbEntity
  8
SOLDERPASTE_PADS_TOP
100
AcDbCircle
 10
32470.0
 20
21270.0
 30
0.0
 40
360.0
  0
CIRCLE
  5
712
100
AcDbEntity
  8
SOLDERPASTE_PADS_TOP
100
AcDbCircle
 10
34375.0
 20
20000.0
 30
0.0
 40
360.0
  0
CIRCLE
  5
713
100
AcDbEntity
  8
SOLDERPASTE_PADS_TOP
100
AcDbCircle
 10
35010.0
 20
18730.0
 30
0.0
 40
360.0
  0
CIRCLE
  5
714
100
AcDbEntity
  8
SOLDERPASTE_PADS_TOP
100
AcDbCircle
 10
33740.0
 20
18730.0
 30
0.0
 40
360.0
  0
CIRCLE
  5
715
100
AcDbEntity
  8
SOLDERPASTE_PADS_TOP
100
AcDbCircle
 10
33105.0
 20
20000.0
 30
0.0
 40
360.0
  0
CIRCLE
  5
716
100
AcDbEntity
  8
SOLDERPASTE_PADS_TOP
100
AcDbCircle
 10
32470.0
 20
18730.0
 30
0.0
 40
360.0
  0
CIRCLE
  5
717
100
AcDbEntity
  8
SOLDERPASTE_PADS_TOP
100
AcDbCircle
 10
34375.0
 20
17460.0
 30
0.0
 40
360.0
  0
CIRCLE
  5
718
100
AcDbEntity
  8
SOLDERPASTE_PADS_TOP
100
AcDbCircle
 10
35010.0
 20
16190.0
 30
0.0
 40
360.0
  0
CIRCLE
  5
719
100
AcDbEntity
  8
SOLDERPASTE_PADS_TOP
100
AcDbCircle
 10
33740.0
 20
16190.0
 30
0.0
 40
360.0
  0
CIRCLE
  5
71A
100
AcDbEntity
  8
SOLDERPASTE_PADS_TOP
100
AcDbCircle
 10
33105.0
 20
17460.0
 30
0.0
 40
360.0
  0
CIRCLE
  5
71B
100
AcDbEntity
  8
SOLDERPASTE_PADS_TOP
100
AcDbCircle
 10
32470.0
 20
16190.0
 30
0.0
 40
360.0
  0
CIRCLE
  5
71C
100
AcDbEntity
  8
SOLDERPASTE_PADS_TOP
100
AcDbCircle
 10
34375.0
 20
14920.0
 30
0.0
 40
360.0
  0
CIRCLE
  5
71D
100
AcDbEntity
  8
SOLDERPASTE_PADS_TOP
100
AcDbCircle
 10
35010.0
 20
13650.0
 30
0.0
 40
360.0
  0
CIRCLE
  5
71E
100
AcDbEntity
  8
SOLDERPASTE_PADS_TOP
100
AcDbCircle
 10
33740.0
 20
13650.0
 30
0.0
 40
360.0
  0
CIRCLE
  5
71F
100
AcDbEntity
  8
SOLDERPASTE_PADS_TOP
100
AcDbCircle
 10
33105.0
 20
14920.0
 30
0.0
 40
360.0
  0
CIRCLE
  5
720
100
AcDbEntity
  8
SOLDERPASTE_PADS_TOP
100
AcDbCircle
 10
32470.0
 20
13650.0
 30
0.0
 40
360.0
  0
CIRCLE
  5
721
100
AcDbEntity
  8
SOLDERPASTE_PADS_TOP
100
AcDbCircle
 10
34375.0
 20
12380.0
 30
0.0
 40
360.0
  0
CIRCLE
  5
722
100
AcDbEntity
  8
SOLDERPASTE_PADS_TOP
100
AcDbCircle
 10
35010.0
 20
11110.0
 30
0.0
 40
360.0
  0
CIRCLE
  5
723
100
AcDbEntity
  8
SOLDERPASTE_PADS_TOP
100
AcDbCircle
 10
33740.0
 20
11110.0
 30
0.0
 40
360.0
  0
CIRCLE
  5
724
100
AcDbEntity
  8
SOLDERPASTE_PADS_TOP
100
AcDbCircle
 10
33105.0
 20
12380.0
 30
0.0
 40
360.0
  0
CIRCLE
  5
725
100
AcDbEntity
  8
SOLDERPASTE_PADS_TOP
100
AcDbCircle
 10
32470.0
 20
11110.0
 30
0.0
 40
360.0
  0
CIRCLE
  5
726
100
AcDbEntity
  8
SOLDERPASTE_PADS_TOP
100
AcDbCircle
 10
34375.0
 20
9840.0
 30
0.0
 40
360.0
  0
CIRCLE
  5
727
100
AcDbEntity
  8
SOLDERPASTE_PADS_TOP
100
AcDbCircle
 10
35010.0
 20
8570.0
 30
0.0
 40
360.0
  0
CIRCLE
  5
728
100
AcDbEntity
  8
SOLDERPASTE_PADS_TOP
100
AcDbCircle
 10
33740.0
 20
8570.0
 30
0.0
 40
360.0
  0
CIRCLE
  5
729
100
AcDbEntity
  8
SOLDERPASTE_PADS_TOP
100
AcDbCircle
 10
33105.0
 20
9840.0
 30
0.0
 40
360.0
  0
CIRCLE
  5
72A
100
AcDbEntity
  8
SOLDERPASTE_PADS_TOP
100
AcDbCircle
 10
32470.0
 20
8570.0
 30
0.0
 40
360.0
  0
CIRCLE
  5
72B
100
AcDbEntity
  8
SOLDERPASTE_PADS_TOP
100
AcDbCircle
 10
34375.0
 20
7300.0
 30
0.0
 40
360.0
  0
CIRCLE
  5
72C
100
AcDbEntity
  8
SOLDERPASTE_PADS_TOP
100
AcDbCircle
 10
35010.0
 20
6030.0
 30
0.0
 40
360.0
  0
CIRCLE
  5
72D
100
AcDbEntity
  8
SOLDERPASTE_PADS_TOP
100
AcDbCircle
 10
33740.0
 20
6030.0
 30
0.0
 40
360.0
  0
CIRCLE
  5
72E
100
AcDbEntity
  8
SOLDERPASTE_PADS_TOP
100
AcDbCircle
 10
33105.0
 20
7300.0
 30
0.0
 40
360.0
  0
CIRCLE
  5
72F
100
AcDbEntity
  8
SOLDERPASTE_PADS_TOP
100
AcDbCircle
 10
32470.0
 20
6030.0
 30
0.0
 40
360.0
  0
CIRCLE
  5
730
100
AcDbEntity
  8
SOLDERPASTE_PADS_TOP
100
AcDbCircle
 10
34375.0
 20
4760.0
 30
0.0
 40
360.0
  0
CIRCLE
  5
731
100
AcDbEntity
  8
SOLDERPASTE_PADS_TOP
100
AcDbCircle
 10
33105.0
 20
4760.0
 30
0.0
 40
360.0
  0
LWPOLYLINE
  5
732
100
AcDbEntity
  8
SOLDERPASTE_PADS_TOP
100
AcDbPolyline
 90
        11
 70
         1
 43
0.0
 10
38095.0
 20
300.0
 10
34395.0
 20
300.0
 10
34395.0
 20
1062.132
 10
34732.868
 20
1400.0
 10
35658.278
 20
1400.0
 42
0.036530
 10
35767.722
 20
1400.0
 10
36045.0
 20
1400.0
 10
36495.0
 20
1850.0
 10
36495.0
 20
2600.0
 10
37829.794
 20
2600.0
 42
0.080958
 10
38095.0
 20
1772.818
  0
LWPOLYLINE
  5
733
100
AcDbEntity
  8
SOLDERPASTE_PADS_TOP
100
AcDbPolyline
 90
        5
 70
         1
 43
0.0
 10
-829.794
 20
37400.0
 42
0.081980
 10
-1100.0
 20
38236.932
 10
-1100.0
 20
39700.0
 10
1100.0
 20
39700.0
 10
1100.0
 20
37400.0
  0
LWPOLYLINE
  5
734
100
AcDbEntity
  8
SOLDERPASTE_PADS_TOP
100
AcDbPolyline
 90
        4
 70
         1
 43
0.0
 10
-1100.0
 20
300.0
 10
-1100.0
 20
2600.0
 10
1100.0
 20
2600.0
 10
1100.0
 20
300.0
  0
LWPOLYLINE
  5
735
100
AcDbEntity
  8
SOLDERPASTE_PADS_TOP
100
AcDbPolyline
 90
        4
 70
         1
 43
0.0
 10
35900.0
 20
37400.0
 10
35900.0
 20
39700.0
 10
38100.0
 20
39700.0
 10
38100.0
 20
37400.0
  0
LWPOLYLINE
  5
736
100
AcDbEntity
  8
SOLDERPASTE_TOP
100
AcDbPolyline
 90
        243
 70
         0
 43
100.0
 10
11197.132
 20
-4726.982
 10
11359.692
 20
-4713.012
 10
11367.312
 20
-4760.002
 10
11378.742
 20
-4801.912
 10
11393.982
 20
-4840.012
 10
11413.032
 20
-4873.032
 10
11424.462
 20
-4888.272
 10
11437.162
 20
-4903.512
 10
11451.132
 20
-4916.212
 10
11466.372
 20
-4930.182
 10
11484.152
 20
-4941.612
 10
11501.932
 20
-4953.042
 10
11522.252
 20
-4964.472
 10
11543.842
 20
-4974.632
 10
11589.562
 20
-4991.142
 10
11637.822
 20
-5002.572
 10
11688.622
 20
-5010.192
 10
11743.232
 20
-5012.732
 10
11790.222
 20
-5011.462
 10
11834.672
 20
-5005.112
 10
11876.582
 20
-4996.222
 10
11915.952
 20
-4983.522
 10
11951.512
 20
-4967.012
 10
11981.992
 20
-4949.232
 10
12007.392
 20
-4927.642
 10
12027.712
 20
-4903.512
 10
12044.222
 20
-4876.842
 10
12055.652
 20
-4850.172
 10
12062.002
 20
-4820.962
 10
12064.542
 20
-4791.752
 10
12062.002
 20
-4762.542
 10
12055.652
 20
-4734.602
 10
12044.222
 20
-4709.202
 10
12028.982
 20
-4685.072
 10
12018.822
 20
-4673.642
 10
12007.392
 20
-4663.482
 10
11994.692
 20
-4653.322
 10
11980.722
 20
-4643.162
 10
11965.482
 20
-4634.272
 10
11948.972
 20
-4625.382
 10
11931.192
 20
-4616.492
 10
11910.872
 20
-4608.872
 10
11895.632
 20
-4602.522
 10
11876.582
 20
-4596.172
 10
11853.722
 20
-4589.822
 10
11827.052
 20
-4582.202
 10
11796.572
 20
-4574.582
 10
11761.012
 20
-4565.692
 10
11722.912
 20
-4555.532
 10
11679.732
 20
-4545.372
 10
11636.552
 20
-4533.942
 10
11597.182
 20
-4523.782
 10
11560.352
 20
-4513.622
 10
11527.332
 20
-4503.462
 10
11498.122
 20
-4493.302
 10
11471.452
 20
-4483.142
 10
11448.592
 20
-4472.982
 10
11429.542
 20
-4464.092
 10
11406.682
 20
-4451.392
 10
11386.362
 20
-4437.422
 10
11366.042
 20
-4423.452
 10
11348.262
 20
-4409.482
 10
11331.752
 20
-4394.242
 10
11316.512
 20
-4377.732
 10
11302.542
 20
-4359.952
 10
11291.112
 20
-4342.172
 10
11280.952
 20
-4324.392
 10
11270.792
 20
-4305.342
 10
11263.172
 20
-4286.292
 10
11256.822
 20
-4265.972
 10
11251.742
 20
-4245.652
 10
11247.932
 20
-4224.062
 10
11246.662
 20
-4202.472
 10
11245.392
 20
-4180.882
 10
11246.662
 20
-4156.752
 10
11249.202
 20
-4132.622
 10
11253.012
 20
-4108.492
 10
11259.362
 20
-4085.632
 10
11266.982
 20
-4062.772
 10
11277.142
 20
-4041.182
 10
11288.572
 20
-4018.322
 10
11301.272
 20
-3996.732
 10
11316.512
 20
-3976.412
 10
11331.752
 20
-3957.362
 10
11350.802
 20
-3938.312
 10
11369.852
 20
-3921.802
 10
11391.442
 20
-3906.562
 10
11414.302
 20
-3891.322
 10
11438.432
 20
-3878.622
 10
11463.832
 20
-3867.192
 10
11491.772
 20
-3857.032
 10
11519.712
 20
-3848.142
 10
11547.652
 20
-3840.522
 10
11576.862
 20
-3834.172
 10
11607.342
 20
-3829.092
 10
11637.822
 20
-3825.282
 10
11669.572
 20
-3824.012
 10
11702.592
 20
-3822.742
 10
11738.152
 20
-3824.012
 10
11772.442
 20
-3825.282
 10
11805.462
 20
-3829.092
 10
11838.482
 20
-3834.172
 10
11868.962
 20
-3840.522
 10
11899.442
 20
-3849.412
 10
11928.652
 20
-3858.302
 10
11956.592
 20
-3869.732
 10
11983.262
 20
-3882.432
 10
12008.662
 20
-3895.132
 10
12032.792
 20
-3910.372
 10
12054.382
 20
-3926.882
 10
12074.702
 20
-3944.662
 10
12093.752
 20
-3963.712
 10
12111.532
 20
-3984.032
 10
12126.772
 20
-4006.892
 10
12140.742
 20
-4029.752
 10
12152.172
 20
-4053.882
 10
12163.602
 20
-4078.012
 10
12172.492
 20
-4103.412
 10
12178.842
 20
-4128.812
 10
12185.192
 20
-4155.482
 10
12187.732
 20
-4183.422
 10
12190.272
 20
-4211.362
 10
12025.172
 20
-4224.062
 10
12021.362
 20
-4193.582
 10
12015.012
 20
-4165.642
 10
12006.122
 20
-4140.242
 10
11995.962
 20
-4116.112
 10
11983.262
 20
-4093.252
 10
11969.292
 20
-4072.932
 10
11954.052
 20
-4053.882
 10
11935.002
 20
-4037.372
 10
11914.682
 20
-4022.132
 10
11891.822
 20
-4009.432
 10
11867.692
 20
-3999.272
 10
11841.022
 20
-3990.382
 10
11810.542
 20
-3982.762
 10
11778.792
 20
-3977.682
 10
11745.772
 20
-3975.142
 10
11708.942
 20
-3973.872
 10
11670.842
 20
-3975.142
 10
11636.552
 20
-3977.682
 10
11603.532
 20
-3981.492
 10
11574.322
 20
-3987.842
 10
11547.652
 20
-3996.732
 10
11522.252
 20
-4005.622
 10
11500.662
 20
-4018.322
 10
11481.612
 20
-4031.022
 10
11465.102
 20
-4046.262
 10
11451.132
 20
-4061.502
 10
11438.432
 20
-4078.012
 10
11428.272
 20
-4094.522
 10
11420.652
 20
-4112.302
 10
11415.572
 20
-4130.082
 10
11411.762
 20
-4149.132
 10
11410.492
 20
-4169.452
 10
11411.762
 20
-4185.962
 10
11414.302
 20
-4202.472
 10
11418.112
 20
-4217.712
 10
11423.192
 20
-4232.952
 10
11430.812
 20
-4246.922
 10
11438.432
 20
-4260.892
 10
11448.592
 20
-4272.322
 10
11461.292
 20
-4285.022
 10
11476.532
 20
-4295.182
 10
11495.582
 20
-4306.612
 10
11520.982
 20
-4319.312
 10
11550.192
 20
-4330.742
 10
11585.752
 20
-4342.172
 10
11625.122
 20
-4353.602
 10
11670.842
 20
-4365.032
 10
11720.372
 20
-4377.732
 10
11769.902
 20
-4389.162
 10
11816.892
 20
-4400.592
 10
11858.802
 20
-4410.752
 10
11896.902
 20
-4422.182
 10
11931.192
 20
-4432.342
 10
11960.402
 20
-4441.232
 10
11985.802
 20
-4451.392
 10
12007.392
 20
-4460.282
 10
12035.332
 20
-4472.982
 10
12060.732
 20
-4488.222
 10
12084.862
 20
-4503.462
 10
12106.452
 20
-4519.972
 10
12126.772
 20
-4536.482
 10
12144.552
 20
-4554.262
 10
12161.062
 20
-4573.312
 10
12175.032
 20
-4592.362
 10
12187.732
 20
-4612.682
 10
12199.162
 20
-4634.272
 10
12208.052
 20
-4655.862
 10
12215.672
 20
-4678.722
 10
12222.022
 20
-4702.852
 10
12225.832
 20
-4726.982
 10
12228.372
 20
-4751.112
 10
12229.642
 20
-4777.782
 10
12228.372
 20
-4803.182
 10
12225.832
 20
-4828.582
 10
12220.752
 20
-4853.982
 10
12214.402
 20
-4878.112
 10
12206.782
 20
-4902.242
 10
12196.622
 20
-4926.372
 10
12183.922
 20
-4949.232
 10
12169.952
 20
-4973.362
 10
12154.712
 20
-4994.952
 10
12136.932
 20
-5016.542
 10
12119.152
 20
-5035.592
 10
12097.562
 20
-5054.642
 10
12075.972
 20
-5071.152
 10
12051.842
 20
-5087.662
 10
12026.442
 20
-5101.632
 10
11999.772
 20
-5115.602
 10
11971.832
 20
-5127.032
 10
11942.622
 20
-5138.462
 10
11913.412
 20
-5146.082
 10
11881.662
 20
-5153.702
 10
11849.912
 20
-5158.782
 10
11818.162
 20
-5163.862
 10
11783.872
 20
-5165.132
 10
11749.582
 20
-5166.402
 10
11706.402
 20
-5165.132
 10
11665.762
 20
-5163.862
 10
11626.392
 20
-5158.782
 10
11588.292
 20
-5153.702
 10
11552.732
 20
-5146.082
 10
11518.442
 20
-5137.192
 10
11485.422
 20
-5127.032
 10
11454.942
 20
-5115.602
 10
11425.732
 20
-5101.632
 10
11399.062
 20
-5086.392
 10
11373.662
 20
-5069.882
 10
11349.532
 20
-5050.832
 10
11326.672
 20
-5030.512
 10
11305.082
 20
-5008.922
 10
11286.032
 20
-4986.062
 10
11268.252
 20
-4960.662
 10
11253.012
 20
-4933.992
 10
11239.042
 20
-4907.322
 10
11226.342
 20
-4879.382
 10
11216.182
 20
-4850.172
 10
11208.562
 20
-4820.962
 10
11203.482
 20
-4790.482
 10
11199.672
 20
-4758.732
 10
11197.132
 20
-4726.982
  0
LWPOLYLINE
  5
737
100
AcDbEntity
  8
SOLDERPASTE_TOP
100
AcDbPolyline
 90
        53
 70
         0
 43
100.0
 10
12792.252
 20
-5002.572
 10
12815.112
 20
-5143.542
 10
12782.092
 20
-5149.892
 10
12751.612
 20
-5153.702
 10
12722.402
 20
-5156.242
 10
12694.462
 20
-5157.512
 10
12653.822
 20
-5156.242
 10
12618.262
 20
-5151.162
 10
12586.512
 20
-5142.272
 10
12559.842
 20
-5129.572
 10
12538.252
 20
-5115.602
 10
12519.202
 20
-5097.822
 10
12503.962
 20
-5078.772
 10
12492.532
 20
-5058.452
 10
12488.722
 20
-5045.752
 10
12484.912
 20
-5029.242
 10
12481.102
 20
-5010.192
 10
12478.562
 20
-4988.602
 10
12476.022
 20
-4963.202
 10
12474.752
 20
-4935.262
 10
12473.482
 20
-4903.512
 10
12473.482
 20
-4869.222
 10
12473.482
 20
-4328.202
 10
12355.372
 20
-4328.202
 10
12355.372
 20
-4203.742
 10
12473.482
 20
-4203.742
 10
12473.482
 20
-3971.332
 10
12633.502
 20
-3874.812
 10
12633.502
 20
-4203.742
 10
12792.252
 20
-4203.742
 10
12792.252
 20
-4328.202
 10
12633.502
 20
-4328.202
 10
12633.502
 20
-4878.112
 10
12633.502
 20
-4894.622
 10
12633.502
 20
-4909.862
 10
12634.772
 20
-4922.562
 10
12636.042
 20
-4935.262
 10
12637.312
 20
-4945.422
 10
12638.582
 20
-4954.312
 10
12639.852
 20
-4960.662
 10
12642.392
 20
-4967.012
 10
12646.202
 20
-4975.902
 10
12652.552
 20
-4983.522
 10
12660.172
 20
-4991.142
 10
12669.062
 20
-4997.492
 10
12679.222
 20
-5002.572
 10
12691.922
 20
-5006.382
 10
12705.892
 20
-5008.922
 10
12722.402
 20
-5008.922
 10
12737.642
 20
-5008.922
 10
12752.882
 20
-5007.652
 10
12771.932
 20
-5005.112
 10
12792.252
 20
-5002.572
  0
LWPOLYLINE
  5
738
100
AcDbEntity
  8
SOLDERPASTE_TOP
100
AcDbPolyline
 90
        103
 70
         0
 43
100.0
 10
13593.622
 20
-4841.282
 10
13758.722
 20
-4862.872
 10
13747.292
 20
-4898.432
 10
13734.592
 20
-4931.452
 10
13719.352
 20
-4961.932
 10
13702.842
 20
-4991.142
 10
13683.792
 20
-5017.812
 10
13662.202
 20
-5043.212
 10
13639.342
 20
-5066.072
 10
13613.942
 20
-5086.392
 10
13586.002
 20
-5105.442
 10
13558.062
 20
-5121.952
 10
13526.312
 20
-5135.922
 10
13493.292
 20
-5146.082
 10
13459.002
 20
-5154.972
 10
13422.172
 20
-5161.322
 10
13384.072
 20
-5165.132
 10
13344.702
 20
-5166.402
 10
13293.902
 20
-5163.862
 10
13245.642
 20
-5158.782
 10
13201.192
 20
-5148.622
 10
13159.282
 20
-5134.652
 10
13118.642
 20
-5116.872
 10
13081.812
 20
-5095.282
 10
13047.522
 20
-5068.612
 10
13015.772
 20
-5039.402
 10
12987.832
 20
-5006.382
 10
12963.702
 20
-4969.552
 10
12942.112
 20
-4928.912
 10
12925.602
 20
-4887.002
 10
12911.632
 20
-4840.012
 10
12902.742
 20
-4790.482
 10
12897.662
 20
-4738.412
 10
12895.122
 20
-4682.532
 10
12897.662
 20
-4624.112
 10
12902.742
 20
-4570.772
 10
12912.902
 20
-4518.702
 10
12925.602
 20
-4471.712
 10
12943.382
 20
-4427.262
 10
12963.702
 20
-4385.352
 10
12989.102
 20
-4348.522
 10
13017.042
 20
-4312.962
 10
13048.792
 20
-4282.482
 10
13083.082
 20
-4255.812
 10
13119.912
 20
-4232.952
 10
13158.012
 20
-4215.172
 10
13198.652
 20
-4201.202
 10
13241.832
 20
-4191.042
 10
13287.552
 20
-4184.692
 10
13335.812
 20
-4182.152
 10
13381.532
 20
-4184.692
 10
13425.982
 20
-4189.772
 10
13467.892
 20
-4199.932
 10
13507.262
 20
-4213.902
 10
13544.092
 20
-4232.952
 10
13579.652
 20
-4254.542
 10
13612.672
 20
-4281.212
 10
13644.422
 20
-4310.422
 10
13672.362
 20
-4344.712
 10
13696.492
 20
-4381.542
 10
13716.812
 20
-4422.182
 10
13733.322
 20
-4465.362
 10
13747.292
 20
-4512.352
 10
13756.182
 20
-4563.152
 10
13762.532
 20
-4616.492
 10
13763.802
 20
-4673.642
 10
13763.802
 20
-4681.262
 10
13763.802
 20
-4691.422
 10
13763.802
 20
-4702.852
 10
13762.532
 20
-4715.552
 10
13058.952
 20
-4715.552
 10
13062.762
 20
-4753.652
 10
13067.842
 20
-4789.212
 10
13075.462
 20
-4822.232
 10
13085.622
 20
-4852.712
 10
13097.052
 20
-4880.652
 10
13112.292
 20
-4907.322
 10
13128.802
 20
-4931.452
 10
13146.582
 20
-4953.042
 10
13166.902
 20
-4972.092
 10
13188.492
 20
-4989.872
 10
13211.352
 20
-5003.842
 10
13235.482
 20
-5015.272
 10
13260.882
 20
-5024.162
 10
13287.552
 20
-5030.512
 10
13315.492
 20
-5034.322
 10
13344.702
 20
-5035.592
 10
13366.292
 20
-5034.322
 10
13386.612
 20
-5033.052
 10
13406.932
 20
-5029.242
 10
13425.982
 20
-5024.162
 10
13443.762
 20
-5017.812
 10
13461.542
 20
-5010.192
 10
13478.052
 20
-5000.032
 10
13494.562
 20
-4989.872
 10
13509.802
 20
-4977.172
 10
13523.772
 20
-4963.202
 10
13537.742
 20
-4946.692
 10
13550.442
 20
-4928.912
 10
13561.872
 20
-4909.862
 10
13573.302
 20
-4888.272
 10
13583.462
 20
-4865.412
 10
13593.622
 20
-4841.282
  0
LWPOLYLINE
  5
739
100
AcDbEntity
  8
SOLDERPASTE_TOP
100
AcDbPolyline
 90
        34
 70
         0
 43
100.0
 10
13067.842
 20
-4584.742
 10
13594.892
 20
-4584.742
 10
13591.082
 20
-4555.532
 10
13587.272
 20
-4528.862
 10
13580.922
 20
-4503.462
 10
13574.572
 20
-4480.602
 10
13565.682
 20
-4459.012
 10
13556.792
 20
-4438.692
 10
13546.632
 20
-4422.182
 10
13533.932
 20
-4405.672
 10
13514.882
 20
-4384.082
 10
13493.292
 20
-4365.032
 10
13470.432
 20
-4349.792
 10
13446.302
 20
-4335.822
 10
13420.902
 20
-4325.662
 10
13394.232
 20
-4319.312
 10
13366.292
 20
-4314.232
 10
13335.812
 20
-4312.962
 10
13309.142
 20
-4314.232
 10
13283.742
 20
-4318.042
 10
13258.342
 20
-4323.122
 10
13235.482
 20
-4332.012
 10
13212.622
 20
-4342.172
 10
13191.032
 20
-4354.872
 10
13170.712
 20
-4370.112
 10
13150.392
 20
-4386.622
 10
13133.882
 20
-4406.942
 10
13117.372
 20
-4427.262
 10
13104.672
 20
-4450.122
 10
13093.242
 20
-4472.982
 10
13083.082
 20
-4498.382
 10
13075.462
 20
-4526.322
 10
13070.382
 20
-4554.262
 10
13067.842
 20
-4584.742
  0
LWPOLYLINE
  5
73A
100
AcDbEntity
  8
SOLDERPASTE_TOP
100
AcDbPolyline
 90
        69
 70
         0
 43
100.0
 10
13958.112
 20
-5144.812
 10
13958.112
 20
-4203.742
 10
14101.622
 20
-4203.742
 10
14101.622
 20
-4337.092
 10
14129.562
 20
-4301.532
 10
14158.772
 20
-4269.782
 10
14193.062
 20
-4243.112
 10
14228.622
 20
-4221.522
 10
14267.992
 20
-4203.742
 10
14309.902
 20
-4192.312
 10
14354.352
 20
-4184.692
 10
14401.342
 20
-4182.152
 10
14443.252
 20
-4184.692
 10
14483.892
 20
-4189.772
 10
14521.992
 20
-4199.932
 10
14558.822
 20
-4212.632
 10
14591.842
 20
-4229.142
 10
14621.052
 20
-4248.192
 10
14645.182
 20
-4269.782
 10
14665.502
 20
-4292.642
 10
14682.012
 20
-4319.312
 10
14695.982
 20
-4347.252
 10
14706.142
 20
-4377.732
 10
14715.032
 20
-4410.752
 10
14717.572
 20
-4423.452
 10
14718.842
 20
-4437.422
 10
14720.112
 20
-4453.932
 10
14721.382
 20
-4471.712
 10
14722.652
 20
-4492.032
 10
14723.922
 20
-4514.892
 10
14723.922
 20
-4539.022
 10
14723.922
 20
-4565.692
 10
14723.922
 20
-5144.812
 10
14563.902
 20
-5144.812
 10
14563.902
 20
-4572.042
 10
14563.902
 20
-4549.182
 10
14562.632
 20
-4526.322
 10
14561.362
 20
-4506.002
 10
14558.822
 20
-4486.952
 10
14556.282
 20
-4469.172
 10
14553.742
 20
-4453.932
 10
14549.932
 20
-4439.962
 10
14544.852
 20
-4425.992
 10
14534.692
 20
-4403.132
 10
14519.452
 20
-4382.812
 10
14501.672
 20
-4365.032
 10
14478.812
 20
-4349.792
 10
14454.682
 20
-4337.092
 10
14428.012
 20
-4328.202
 10
14398.802
 20
-4321.852
 10
14368.322
 20
-4320.582
 10
14342.922
 20
-4321.852
 10
14318.792
 20
-4324.392
 10
14295.932
 20
-4329.472
 10
14273.072
 20
-4337.092
 10
14251.482
 20
-4345.982
 10
14231.162
 20
-4357.412
 10
14210.842
 20
-4370.112
 10
14191.792
 20
-4385.352
 10
14175.282
 20
-4403.132
 10
14160.042
 20
-4424.722
 10
14147.342
 20
-4450.122
 10
14137.182
 20
-4479.332
 10
14128.292
 20
-4511.082
 10
14123.212
 20
-4547.912
 10
14119.402
 20
-4587.282
 10
14118.132
 20
-4630.462
 10
14118.132
 20
-5144.812
 10
13958.112
 20
-5144.812
  0
LWPOLYLINE
  5
73B
100
AcDbEntity
  8
SOLDERPASTE_TOP
100
AcDbPolyline
 90
        139
 70
         0
 43
100.0
 10
15582.442
 20
-4800.642
 10
15739.922
 20
-4822.232
 10
15732.302
 20
-4861.602
 10
15722.142
 20
-4898.432
 10
15709.442
 20
-4933.992
 10
15694.202
 20
-4965.742
 10
15676.422
 20
-4996.222
 10
15656.102
 20
-5025.432
 10
15633.242
 20
-5050.832
 10
15607.842
 20
-5074.962
 10
15581.172
 20
-5096.552
 10
15551.962
 20
-5115.602
 10
15521.482
 20
-5130.842
 10
15489.732
 20
-5143.542
 10
15456.712
 20
-5153.702
 10
15422.422
 20
-5161.322
 10
15385.592
 20
-5165.132
 10
15347.492
 20
-5166.402
 10
15300.502
 20
-5163.862
 10
15256.052
 20
-5158.782
 10
15214.142
 20
-5148.622
 10
15173.502
 20
-5134.652
 10
15135.402
 20
-5116.872
 10
15101.112
 20
-5095.282
 10
15068.092
 20
-5069.882
 10
15037.612
 20
-5040.672
 10
15009.672
 20
-5006.382
 10
14985.542
 20
-4969.552
 10
14965.222
 20
-4930.182
 10
14948.712
 20
-4887.002
 10
14936.012
 20
-4840.012
 10
14927.122
 20
-4789.212
 10
14920.772
 20
-4734.602
 10
14919.502
 20
-4677.452
 10
14920.772
 20
-4640.622
 10
14923.312
 20
-4603.792
 10
14927.122
 20
-4569.502
 10
14932.202
 20
-4535.212
 10
14939.822
 20
-4502.192
 10
14947.442
 20
-4470.442
 10
14958.872
 20
-4439.962
 10
14970.302
 20
-4410.752
 10
14983.002
 20
-4382.812
 10
14998.242
 20
-4357.412
 10
15016.022
 20
-4333.282
 10
15033.802
 20
-4310.422
 10
15054.122
 20
-4290.102
 10
15075.712
 20
-4271.052
 10
15098.572
 20
-4254.542
 10
15123.972
 20
-4239.302
 10
15150.642
 20
-4226.602
 10
15177.312
 20
-4213.902
 10
15203.982
 20
-4205.012
 10
15231.922
 20
-4196.122
 10
15259.862
 20
-4189.772
 10
15289.072
 20
-4185.962
 10
15318.282
 20
-4183.422
 10
15348.762
 20
-4182.152
 10
15385.592
 20
-4183.422
 10
15422.422
 20
-4187.232
 10
15455.442
 20
-4193.582
 10
15488.462
 20
-4201.202
 10
15518.942
 20
-4212.632
 10
15546.882
 20
-4225.332
 10
15574.822
 20
-4241.842
 10
15600.222
 20
-4259.622
 10
15623.082
 20
-4279.942
 10
15644.672
 20
-4302.802
 10
15662.452
 20
-4326.932
 10
15680.232
 20
-4353.602
 10
15694.202
 20
-4381.542
 10
15706.902
 20
-4412.022
 10
15717.062
 20
-4445.042
 10
15724.682
 20
-4479.332
 10
15569.742
 20
-4503.462
 10
15563.392
 20
-4480.602
 10
15557.042
 20
-4459.012
 10
15548.152
 20
-4438.692
 10
15539.262
 20
-4420.912
 10
15529.102
 20
-4403.132
 10
15517.672
 20
-4387.892
 10
15504.972
 20
-4373.922
 10
15491.002
 20
-4361.222
 10
15477.032
 20
-4349.792
 10
15461.792
 20
-4339.632
 10
15445.282
 20
-4332.012
 10
15428.772
 20
-4325.662
 10
15410.992
 20
-4319.312
 10
15393.212
 20
-4315.502
 10
15374.162
 20
-4314.232
 10
15355.112
 20
-4312.962
 10
15325.902
 20
-4314.232
 10
15297.962
 20
-4318.042
 10
15271.292
 20
-4325.662
 10
15245.892
 20
-4334.552
 10
15221.762
 20
-4347.252
 10
15198.902
 20
-4361.222
 10
15178.582
 20
-4379.002
 10
15158.262
 20
-4399.322
 10
15141.752
 20
-4423.452
 10
15125.242
 20
-4448.852
 10
15112.542
 20
-4479.332
 10
15102.382
 20
-4511.082
 10
15093.492
 20
-4546.642
 10
15088.412
 20
-4586.012
 10
15084.602
 20
-4627.922
 10
15083.332
 20
-4673.642
 10
15084.602
 20
-4719.362
 10
15088.412
 20
-4762.542
 10
15093.492
 20
-4801.912
 10
15101.112
 20
-4837.472
 10
15111.272
 20
-4870.492
 10
15123.972
 20
-4899.702
 10
15139.212
 20
-4926.372
 10
15155.722
 20
-4949.232
 10
15174.772
 20
-4969.552
 10
15195.092
 20
-4987.332
 10
15216.682
 20
-5002.572
 10
15239.542
 20
-5014.002
 10
15263.672
 20
-5024.162
 10
15290.342
 20
-5030.512
 10
15317.012
 20
-5034.322
 10
15346.222
 20
-5035.592
 10
15369.082
 20
-5034.322
 10
15390.672
 20
-5031.782
 10
15412.262
 20
-5027.972
 10
15432.582
 20
-5021.622
 10
15451.632
 20
-5012.732
 10
15469.412
 20
-5003.842
 10
15485.922
 20
-4991.142
 10
15502.432
 20
-4978.442
 10
15517.672
 20
-4963.202
 10
15531.642
 20
-4945.422
 10
15543.072
 20
-4926.372
 10
15554.502
 20
-4904.782
 10
15563.392
 20
-4881.922
 10
15571.012
 20
-4856.522
 10
15577.362
 20
-4829.852
 10
15582.442
 20
-4800.642
  0
LWPOLYLINE
  5
73C
100
AcDbEntity
  8
SOLDERPASTE_TOP
100
AcDbPolyline
 90
        5
 70
         0
 43
100.0
 10
15877.082
 20
-4028.482
 10
15877.082
 20
-3845.602
 10
16037.102
 20
-3845.602
 10
16037.102
 20
-4028.482
 10
15877.082
 20
-4028.482
  0
LWPOLYLINE
  5
73D
100
AcDbEntity
  8
SOLDERPASTE_TOP
100
AcDbPolyline
 90
        5
 70
         0
 43
100.0
 10
15877.082
 20
-5144.812
 10
15877.082
 20
-4203.742
 10
16037.102
 20
-4203.742
 10
16037.102
 20
-5144.812
 10
15877.082
 20
-5144.812
  0
LWPOLYLINE
  5
73E
100
AcDbEntity
  8
SOLDERPASTE_TOP
100
AcDbPolyline
 90
        5
 70
         0
 43
100.0
 10
16274.592
 20
-5144.812
 10
16274.592
 20
-3845.602
 10
16434.612
 20
-3845.602
 10
16434.612
 20
-5144.812
 10
16274.592
 20
-5144.812
  0
LWPOLYLINE
  5
73F
100
AcDbEntity
  8
SOLDERPASTE_TOP
100
AcDbPolyline
 90
        26
 70
         0
 43
100.0
 10
17742.712
 20
-5144.812
 10
17582.692
 20
-5144.812
 10
17582.692
 20
-4128.812
 10
17552.212
 20
-4155.482
 10
17516.652
 20
-4183.422
 10
17476.012
 20
-4211.362
 10
17431.562
 20
-4238.032
 10
17385.842
 20
-4264.702
 10
17342.662
 20
-4286.292
 10
17302.022
 20
-4305.342
 10
17263.922
 20
-4320.582
 10
17263.922
 20
-4166.912
 10
17328.692
 20
-4133.892
 10
17389.652
 20
-4097.062
 10
17445.532
 20
-4057.692
 10
17497.602
 20
-4014.512
 10
17521.732
 20
-3991.652
 10
17544.592
 20
-3970.062
 10
17564.912
 20
-3948.472
 10
17583.962
 20
-3925.612
 10
17600.472
 20
-3904.022
 10
17615.712
 20
-3882.432
 10
17628.412
 20
-3862.112
 10
17639.842
 20
-3840.522
 10
17742.712
 20
-3840.522
 10
17742.712
 20
-5144.812
  0
LWPOLYLINE
  5
740
100
AcDbEntity
  8
SOLDERPASTE_TOP
100
AcDbPolyline
 90
        97
 70
         0
 43
100.0
 10
18150.382
 20
-4503.462
 10
18151.652
 20
-4447.582
 10
18152.922
 20
-4394.242
 10
18156.732
 20
-4343.442
 10
18161.812
 20
-4296.452
 10
18169.432
 20
-4250.732
 10
18177.052
 20
-4208.822
 10
18187.212
 20
-4169.452
 10
18197.372
 20
-4132.622
 10
18210.072
 20
-4098.332
 10
18224.042
 20
-4066.582
 10
18240.552
 20
-4036.102
 10
18257.062
 20
-4008.162
 10
18274.842
 20
-3982.762
 10
18295.162
 20
-3958.632
 10
18316.752
 20
-3937.042
 10
18339.612
 20
-3916.722
 10
18363.742
 20
-3898.942
 10
18389.142
 20
-3883.702
 10
18415.812
 20
-3869.732
 10
18445.022
 20
-3859.572
 10
18475.502
 20
-3850.682
 10
18507.252
 20
-3845.602
 10
18540.272
 20
-3841.792
 10
18574.562
 20
-3840.522
 10
18599.962
 20
-3841.792
 10
18625.362
 20
-3843.062
 10
18649.492
 20
-3846.872
 10
18672.352
 20
-3850.682
 10
18695.212
 20
-3857.032
 10
18716.802
 20
-3864.652
 10
18738.392
 20
-3872.272
 10
18758.712
 20
-3882.432
 10
18796.812
 20
-3906.562
 10
18831.102
 20
-3934.502
 10
18861.582
 20
-3966.252
 10
18889.522
 20
-4004.352
 10
18913.652
 20
-4046.262
 10
18935.242
 20
-4091.982
 10
18953.022
 20
-4142.782
 10
18969.532
 20
-4197.392
 10
18975.882
 20
-4226.602
 10
18982.232
 20
-4258.352
 10
18987.312
 20
-4293.912
 10
18991.122
 20
-4330.742
 10
18994.932
 20
-4370.112
 10
18997.472
 20
-4412.022
 10
18998.742
 20
-4456.472
 10
18998.742
 20
-4503.462
 10
18997.472
 20
-4559.342
 10
18996.202
 20
-4612.682
 10
18992.392
 20
-4663.482
 10
18987.312
 20
-4710.472
 10
18980.962
 20
-4754.922
 10
18972.072
 20
-4796.832
 10
18963.182
 20
-4836.202
 10
18951.752
 20
-4873.032
 10
18939.052
 20
-4907.322
 10
18925.082
 20
-4939.072
 10
18909.842
 20
-4969.552
 10
18893.332
 20
-4997.492
 10
18874.282
 20
-5024.162
 10
18855.232
 20
-5048.292
 10
18833.642
 20
-5069.882
 10
18810.782
 20
-5090.202
 10
18786.652
 20
-5107.982
 10
18761.252
 20
-5123.222
 10
18734.582
 20
-5137.192
 10
18705.372
 20
-5147.352
 10
18674.892
 20
-5156.242
 10
18643.142
 20
-5161.322
 10
18610.122
 20
-5165.132
 10
18574.562
 20
-5166.402
 10
18528.842
 20
-5163.862
 10
18485.662
 20
-5157.512
 10
18445.022
 20
-5147.352
 10
18406.922
 20
-5133.382
 10
18371.362
 20
-5114.332
 10
18338.342
 20
-5091.472
 10
18306.592
 20
-5063.532
 10
18278.652
 20
-5033.052
 10
18263.412
 20
-5011.462
 10
18249.442
 20
-4988.602
 10
18235.472
 20
-4964.472
 10
18222.772
 20
-4939.072
 10
18211.342
 20
-4911.132
 10
18201.182
 20
-4881.922
 10
18191.022
 20
-4851.442
 10
18182.132
 20
-4818.422
 10
18174.512
 20
-4785.402
 10
18168.162
 20
-4749.842
 10
18163.082
 20
-4713.012
 10
18158.002
 20
-4673.642
 10
18155.462
 20
-4634.272
 10
18152.922
 20
-4592.362
 10
18150.382
 20
-4549.182
 10
18150.382
 20
-4503.462
  0
LWPOLYLINE
  5
741
100
AcDbEntity
  8
SOLDERPASTE_TOP
100
AcDbPolyline
 90
        97
 70
         0
 43
100.0
 10
18314.212
 20
-4504.732
 10
18314.212
 20
-4542.832
 10
18315.482
 20
-4580.932
 10
18316.752
 20
-4616.492
 10
18319.292
 20
-4650.782
 10
18321.832
 20
-4683.802
 10
18324.372
 20
-4714.282
 10
18328.182
 20
-4743.492
 10
18333.262
 20
-4771.432
 10
18338.342
 20
-4796.832
 10
18343.422
 20
-4820.962
 10
18349.772
 20
-4843.822
 10
18356.122
 20
-4864.142
 10
18363.742
 20
-4883.192
 10
18371.362
 20
-4900.972
 10
18380.252
 20
-4916.212
 10
18389.142
 20
-4930.182
 10
18408.192
 20
-4954.312
 10
18428.512
 20
-4975.902
 10
18450.102
 20
-4994.952
 10
18472.962
 20
-5008.922
 10
18497.092
 20
-5020.352
 10
18521.222
 20
-5029.242
 10
18547.892
 20
-5034.322
 10
18574.562
 20
-5035.592
 10
18601.232
 20
-5034.322
 10
18627.902
 20
-5029.242
 10
18652.032
 20
-5020.352
 10
18676.162
 20
-5008.922
 10
18699.022
 20
-4993.682
 10
18720.612
 20
-4975.902
 10
18740.932
 20
-4954.312
 10
18759.982
 20
-4930.182
 10
18768.872
 20
-4916.212
 10
18777.762
 20
-4899.702
 10
18785.382
 20
-4881.922
 10
18793.002
 20
-4862.872
 10
18799.352
 20
-4842.552
 10
18805.702
 20
-4819.692
 10
18810.782
 20
-4795.562
 10
18815.862
 20
-4770.162
 10
18820.942
 20
-4743.492
 10
18824.752
 20
-4714.282
 10
18827.292
 20
-4682.532
 10
18829.832
 20
-4650.782
 10
18832.372
 20
-4616.492
 10
18833.642
 20
-4580.932
 10
18834.912
 20
-4542.832
 10
18834.912
 20
-4504.732
 10
18834.912
 20
-4465.362
 10
18833.642
 20
-4427.262
 10
18832.372
 20
-4391.702
 10
18829.832
 20
-4357.412
 10
18827.292
 20
-4324.392
 10
18824.752
 20
-4293.912
 10
18820.942
 20
-4264.702
 10
18815.862
 20
-4236.762
 10
18810.782
 20
-4211.362
 10
18805.702
 20
-4187.232
 10
18799.352
 20
-4165.642
 10
18793.002
 20
-4144.052
 10
18785.382
 20
-4125.002
 10
18777.762
 20
-4108.492
 10
18768.872
 20
-4091.982
 10
18759.982
 20
-4078.012
 10
18740.932
 20
-4053.882
 10
18720.612
 20
-4032.292
 10
18699.022
 20
-4014.512
 10
18676.162
 20
-3999.272
 10
18652.032
 20
-3987.842
 10
18626.632
 20
-3978.952
 10
18599.962
 20
-3973.872
 10
18573.292
 20
-3972.602
 10
18545.352
 20
-3973.872
 10
18519.952
 20
-3978.952
 10
18495.822
 20
-3985.302
 10
18474.232
 20
-3995.462
 10
18452.642
 20
-4009.432
 10
18432.322
 20
-4024.672
 10
18413.272
 20
-4043.722
 10
18396.762
 20
-4065.312
 10
18386.602
 20
-4081.822
 10
18377.712
 20
-4098.332
 10
18368.822
 20
-4117.382
 10
18359.932
 20
-4137.702
 10
18353.582
 20
-4159.292
 10
18345.962
 20
-4183.422
 10
18340.882
 20
-4207.552
 10
18334.532
 20
-4234.222
 10
18329.452
 20
-4263.432
 10
18325.642
 20
-4292.642
 10
18321.832
 20
-4324.392
 10
18319.292
 20
-4357.412
 10
18316.752
 20
-4391.702
 10
18315.482
 20
-4427.262
 10
18314.212
 20
-4465.362
 10
18314.212
 20
-4504.732
  0
LWPOLYLINE
  5
742
100
AcDbEntity
  8
SOLDERPASTE_TOP
100
AcDbPolyline
 90
        97
 70
         0
 43
100.0
 10
19160.032
 20
-4503.462
 10
19161.302
 20
-4447.582
 10
19162.572
 20
-4394.242
 10
19166.382
 20
-4343.442
 10
19171.462
 20
-4296.452
 10
19179.082
 20
-4250.732
 10
19186.702
 20
-4208.822
 10
19196.862
 20
-4169.452
 10
19207.022
 20
-4132.622
 10
19219.722
 20
-4098.332
 10
19233.692
 20
-4066.582
 10
19250.202
 20
-4036.102
 10
19266.712
 20
-4008.162
 10
19284.492
 20
-3982.762
 10
19304.812
 20
-3958.632
 10
19326.402
 20
-3937.042
 10
19349.262
 20
-3916.722
 10
19373.392
 20
-3898.942
 10
19398.792
 20
-3883.702
 10
19425.462
 20
-3869.732
 10
19454.672
 20
-3859.572
 10
19485.152
 20
-3850.682
 10
19516.902
 20
-3845.602
 10
19549.922
 20
-3841.792
 10
19584.212
 20
-3840.522
 10
19609.612
 20
-3841.792
 10
19635.012
 20
-3843.062
 10
19659.142
 20
-3846.872
 10
19682.002
 20
-3850.682
 10
19704.862
 20
-3857.032
 10
19726.452
 20
-3864.652
 10
19748.042
 20
-3872.272
 10
19768.362
 20
-3882.432
 10
19806.462
 20
-3906.562
 10
19840.752
 20
-3934.502
 10
19871.232
 20
-3966.252
 10
19899.172
 20
-4004.352
 10
19923.302
 20
-4046.262
 10
19944.892
 20
-4091.982
 10
19962.672
 20
-4142.782
 10
19979.182
 20
-4197.392
 10
19985.532
 20
-4226.602
 10
19991.882
 20
-4258.352
 10
19996.962
 20
-4293.912
 10
20000.772
 20
-4330.742
 10
20004.582
 20
-4370.112
 10
20007.122
 20
-4412.022
 10
20008.392
 20
-4456.472
 10
20008.392
 20
-4503.462
 10
20007.122
 20
-4559.342
 10
20005.852
 20
-4612.682
 10
20002.042
 20
-4663.482
 10
19996.962
 20
-4710.472
 10
19990.612
 20
-4754.922
 10
19981.722
 20
-4796.832
 10
19972.832
 20
-4836.202
 10
19961.402
 20
-4873.032
 10
19948.702
 20
-4907.322
 10
19934.732
 20
-4939.072
 10
19919.492
 20
-4969.552
 10
19902.982
 20
-4997.492
 10
19883.932
 20
-5024.162
 10
19864.882
 20
-5048.292
 10
19843.292
 20
-5069.882
 10
19820.432
 20
-5090.202
 10
19796.302
 20
-5107.982
 10
19770.902
 20
-5123.222
 10
19744.232
 20
-5137.192
 10
19715.022
 20
-5147.352
 10
19684.542
 20
-5156.242
 10
19652.792
 20
-5161.322
 10
19619.772
 20
-5165.132
 10
19584.212
 20
-5166.402
 10
19538.492
 20
-5163.862
 10
19495.312
 20
-5157.512
 10
19454.672
 20
-5147.352
 10
19416.572
 20
-5133.382
 10
19381.012
 20
-5114.332
 10
19347.992
 20
-5091.472
 10
19316.242
 20
-5063.532
 10
19288.302
 20
-5033.052
 10
19273.062
 20
-5011.462
 10
19259.092
 20
-4988.602
 10
19245.122
 20
-4964.472
 10
19232.422
 20
-4939.072
 10
19220.992
 20
-4911.132
 10
19210.832
 20
-4881.922
 10
19200.672
 20
-4851.442
 10
19191.782
 20
-4818.422
 10
19184.162
 20
-4785.402
 10
19177.812
 20
-4749.842
 10
19172.732
 20
-4713.012
 10
19167.652
 20
-4673.642
 10
19165.112
 20
-4634.272
 10
19162.572
 20
-4592.362
 10
19160.032
 20
-4549.182
 10
19160.032
 20
-4503.462
  0
LWPOLYLINE
  5
743
100
AcDbEntity
  8
SOLDERPASTE_TOP
100
AcDbPolyline
 90
        97
 70
         0
 43
100.0
 10
19323.862
 20
-4504.732
 10
19323.862
 20
-4542.832
 10
19325.132
 20
-4580.932
 10
19326.402
 20
-4616.492
 10
19328.942
 20
-4650.782
 10
19331.482
 20
-4683.802
 10
19334.022
 20
-4714.282
 10
19337.832
 20
-4743.492
 10
19342.912
 20
-4771.432
 10
19347.992
 20
-4796.832
 10
19353.072
 20
-4820.962
 10
19359.422
 20
-4843.822
 10
19365.772
 20
-4864.142
 10
19373.392
 20
-4883.192
 10
19381.012
 20
-4900.972
 10
19389.902
 20
-4916.212
 10
19398.792
 20
-4930.182
 10
19417.842
 20
-4954.312
 10
19438.162
 20
-4975.902
 10
19459.752
 20
-4994.952
 10
19482.612
 20
-5008.922
 10
19506.742
 20
-5020.352
 10
19530.872
 20
-5029.242
 10
19557.542
 20
-5034.322
 10
19584.212
 20
-5035.592
 10
19610.882
 20
-5034.322
 10
19637.552
 20
-5029.242
 10
19661.682
 20
-5020.352
 10
19685.812
 20
-5008.922
 10
19708.672
 20
-4993.682
 10
19730.262
 20
-4975.902
 10
19750.582
 20
-4954.312
 10
19769.632
 20
-4930.182
 10
19778.522
 20
-4916.212
 10
19787.412
 20
-4899.702
 10
19795.032
 20
-4881.922
 10
19802.652
 20
-4862.872
 10
19809.002
 20
-4842.552
 10
19815.352
 20
-4819.692
 10
19820.432
 20
-4795.562
 10
19825.512
 20
-4770.162
 10
19830.592
 20
-4743.492
 10
19834.402
 20
-4714.282
 10
19836.942
 20
-4682.532
 10
19839.482
 20
-4650.782
 10
19842.022
 20
-4616.492
 10
19843.292
 20
-4580.932
 10
19844.562
 20
-4542.832
 10
19844.562
 20
-4504.732
 10
19844.562
 20
-4465.362
 10
19843.292
 20
-4427.262
 10
19842.022
 20
-4391.702
 10
19839.482
 20
-4357.412
 10
19836.942
 20
-4324.392
 10
19834.402
 20
-4293.912
 10
19830.592
 20
-4264.702
 10
19825.512
 20
-4236.762
 10
19820.432
 20
-4211.362
 10
19815.352
 20
-4187.232
 10
19809.002
 20
-4165.642
 10
19802.652
 20
-4144.052
 10
19795.032
 20
-4125.002
 10
19787.412
 20
-4108.492
 10
19778.522
 20
-4091.982
 10
19769.632
 20
-4078.012
 10
19750.582
 20
-4053.882
 10
19730.262
 20
-4032.292
 10
19708.672
 20
-4014.512
 10
19685.812
 20
-3999.272
 10
19661.682
 20
-3987.842
 10
19636.282
 20
-3978.952
 10
19609.612
 20
-3973.872
 10
19582.942
 20
-3972.602
 10
19555.002
 20
-3973.872
 10
19529.602
 20
-3978.952
 10
19505.472
 20
-3985.302
 10
19483.882
 20
-3995.462
 10
19462.292
 20
-4009.432
 10
19441.972
 20
-4024.672
 10
19422.922
 20
-4043.722
 10
19406.412
 20
-4065.312
 10
19396.252
 20
-4081.822
 10
19387.362
 20
-4098.332
 10
19378.472
 20
-4117.382
 10
19369.582
 20
-4137.702
 10
19363.232
 20
-4159.292
 10
19355.612
 20
-4183.422
 10
19350.532
 20
-4207.552
 10
19344.182
 20
-4234.222
 10
19339.102
 20
-4263.432
 10
19335.292
 20
-4292.642
 10
19331.482
 20
-4324.392
 10
19328.942
 20
-4357.412
 10
19326.402
 20
-4391.702
 10
19325.132
 20
-4427.262
 10
19323.862
 20
-4465.362
 10
19323.862
 20
-4504.732
  0
LWPOLYLINE
  5
744
100
AcDbEntity
  8
SOLDERPASTE_TOP
100
AcDbPolyline
 90
        69
 70
         0
 43
100.0
 10
20830.082
 20
-5144.812
 10
20830.082
 20
-5007.652
 10
20800.872
 20
-5044.482
 10
20770.392
 20
-5076.232
 10
20736.102
 20
-5104.172
 10
20700.542
 20
-5127.032
 10
20662.442
 20
-5143.542
 10
20620.532
 20
-5156.242
 10
20577.352
 20
-5163.862
 10
20531.632
 20
-5166.402
 10
20490.992
 20
-5163.862
 10
20451.622
 20
-5158.782
 10
20413.522
 20
-5148.622
 10
20376.692
 20
-5134.652
 10
20342.402
 20
-5118.142
 10
20313.192
 20
-5099.092
 10
20289.062
 20
-5077.502
 10
20268.742
 20
-5054.642
 10
20253.502
 20
-5029.242
 10
20239.532
 20
-5001.302
 10
20228.102
 20
-4969.552
 10
20220.482
 20
-4936.532
 10
20217.942
 20
-4923.832
 10
20215.402
 20
-4908.592
 10
20214.132
 20
-4893.352
 10
20212.862
 20
-4875.572
 10
20211.592
 20
-4855.252
 10
20211.592
 20
-4834.932
 10
20210.322
 20
-4812.072
 10
20210.322
 20
-4786.672
 10
20210.322
 20
-4203.742
 10
20370.342
 20
-4203.742
 10
20370.342
 20
-4725.712
 10
20370.342
 20
-4756.192
 10
20371.612
 20
-4784.132
 10
20371.612
 20
-4808.262
 10
20372.882
 20
-4831.122
 10
20374.152
 20
-4850.172
 10
20375.422
 20
-4867.952
 10
20377.962
 20
-4881.922
 10
20380.502
 20
-4894.622
 10
20389.392
 20
-4923.832
 10
20403.362
 20
-4950.502
 10
20421.142
 20
-4973.362
 10
20444.002
 20
-4993.682
 10
20469.402
 20
-5008.922
 10
20498.612
 20
-5020.352
 10
20530.362
 20
-5026.702
 10
20564.652
 20
-5029.242
 10
20598.942
 20
-5026.702
 10
20633.232
 20
-5020.352
 10
20666.252
 20
-5008.922
 10
20698.002
 20
-4992.412
 10
20727.212
 20
-4972.092
 10
20752.612
 20
-4949.232
 10
20771.662
 20
-4922.562
 10
20786.902
 20
-4892.082
 10
20793.252
 20
-4875.572
 10
20798.332
 20
-4856.522
 10
20803.412
 20
-4836.202
 10
20807.222
 20
-4814.612
 10
20809.762
 20
-4790.482
 10
20812.302
 20
-4765.082
 10
20813.572
 20
-4737.142
 10
20813.572
 20
-4707.932
 10
20813.572
 20
-4203.742
 10
20973.592
 20
-4203.742
 10
20973.592
 20
-5144.812
 10
20830.082
 20
-5144.812
  0
LWPOLYLINE
  5
745
100
AcDbEntity
  8
SOLDERPASTE_TOP
100
AcDbPolyline
 90
        132
 70
         0
 43
100.0
 10
21223.782
 20
-5144.812
 10
21223.782
 20
-4203.742
 10
21367.292
 20
-4203.742
 10
21367.292
 20
-4335.822
 10
21391.422
 20
-4302.802
 10
21419.362
 20
-4273.592
 10
21449.842
 20
-4246.922
 10
21485.402
 20
-4224.062
 10
21504.452
 20
-4215.172
 10
21523.502
 20
-4206.282
 10
21543.822
 20
-4198.662
 10
21564.142
 20
-4192.312
 10
21584.462
 20
-4188.502
 10
21607.322
 20
-4184.692
 10
21628.912
 20
-4183.422
 10
21653.042
 20
-4182.152
 10
21678.442
 20
-4183.422
 10
21702.572
 20
-4184.692
 10
21725.432
 20
-4188.502
 10
21747.022
 20
-4193.582
 10
21768.612
 20
-4198.662
 10
21787.662
 20
-4206.282
 10
21806.712
 20
-4215.172
 10
21823.222
 20
-4225.332
 10
21854.972
 20
-4249.462
 10
21880.372
 20
-4277.402
 10
21901.962
 20
-4310.422
 10
21918.472
 20
-4347.252
 10
21932.442
 20
-4326.932
 10
21946.412
 20
-4309.152
 10
21962.922
 20
-4291.372
 10
21978.162
 20
-4274.862
 10
21994.672
 20
-4259.622
 10
22011.182
 20
-4246.922
 10
22028.962
 20
-4234.222
 10
22046.742
 20
-4224.062
 10
22065.792
 20
-4213.902
 10
22083.572
 20
-4205.012
 10
22103.892
 20
-4198.662
 10
22124.212
 20
-4192.312
 10
22144.532
 20
-4188.502
 10
22164.852
 20
-4184.692
 10
22186.442
 20
-4183.422
 10
22209.302
 20
-4182.152
 10
22243.592
 20
-4183.422
 10
22275.342
 20
-4187.232
 10
22305.822
 20
-4193.582
 10
22333.762
 20
-4201.202
 10
22359.162
 20
-4212.632
 10
22383.292
 20
-4225.332
 10
22404.882
 20
-4241.842
 10
22425.202
 20
-4259.622
 10
22442.982
 20
-4279.942
 10
22458.222
 20
-4304.072
 10
22470.922
 20
-4329.472
 10
22481.082
 20
-4358.682
 10
22489.972
 20
-4389.162
 10
22496.322
 20
-4423.452
 10
22498.862
 20
-4460.282
 10
22500.132
 20
-4498.382
 10
22500.132
 20
-5144.812
 10
22340.112
 20
-5144.812
 10
22340.112
 20
-4551.722
 10
22340.112
 20
-4528.862
 10
22338.842
 20
-4507.272
 10
22338.842
 20
-4488.222
 10
22336.302
 20
-4469.172
 10
22333.762
 20
-4453.932
 10
22331.222
 20
-4438.692
 10
22328.682
 20
-4425.992
 10
22324.872
 20
-4414.562
 10
22315.982
 20
-4394.242
 10
22303.282
 20
-4376.462
 10
22288.042
 20
-4359.952
 10
22268.992
 20
-4345.982
 10
22247.402
 20
-4334.552
 10
22224.542
 20
-4326.932
 10
22199.142
 20
-4321.852
 10
22172.472
 20
-4320.582
 10
22148.342
 20
-4321.852
 10
22125.482
 20
-4324.392
 10
22103.892
 20
-4329.472
 10
22082.302
 20
-4337.092
 10
22061.982
 20
-4345.982
 10
22042.932
 20
-4357.412
 10
22025.152
 20
-4371.382
 10
22008.642
 20
-4386.622
 10
21993.402
 20
-4404.402
 10
21979.432
 20
-4424.722
 10
21968.002
 20
-4447.582
 10
21959.112
 20
-4472.982
 10
21951.492
 20
-4499.652
 10
21946.412
 20
-4530.132
 10
21943.872
 20
-4563.152
 10
21942.602
 20
-4597.442
 10
21942.602
 20
-5144.812
 10
21782.582
 20
-5144.812
 10
21782.582
 20
-4533.942
 10
21782.582
 20
-4507.272
 10
21780.042
 20
-4483.142
 10
21777.502
 20
-4461.552
 10
21773.692
 20
-4439.962
 10
21767.342
 20
-4420.912
 10
21760.992
 20
-4404.402
 10
21753.372
 20
-4387.892
 10
21744.482
 20
-4373.922
 10
21733.052
 20
-4361.222
 10
21721.622
 20
-4351.062
 10
21707.652
 20
-4340.902
 10
21692.412
 20
-4334.552
 10
21675.902
 20
-4328.202
 10
21658.122
 20
-4324.392
 10
21637.802
 20
-4321.852
 10
21616.212
 20
-4320.582
 10
21583.192
 20
-4323.122
 10
21551.442
 20
-4329.472
 10
21520.962
 20
-4340.902
 10
21493.022
 20
-4356.142
 10
21466.352
 20
-4376.462
 10
21443.492
 20
-4399.322
 10
21424.442
 20
-4427.262
 10
21409.202
 20
-4460.282
 10
21404.122
 20
-4478.062
 10
21399.042
 20
-4498.382
 10
21393.962
 20
-4519.972
 10
21390.152
 20
-4542.832
 10
21387.612
 20
-4568.232
 10
21385.072
 20
-4596.172
 10
21385.072
 20
-4625.382
 10
21383.802
 20
-4657.132
 10
21383.802
 20
-5144.812
 10
21223.782
 20
-5144.812
  0
ENDSEC
  0
SECTION
  2
OBJECTS
  0
DICTIONARY
  5
16
100
AcDbDictionary
  3
ACAD_GROUP
350
17
  3
ACAD_MLINESTYLE
350
18
  0
DICTIONARY
  5
17
102
{ACAD_REACTORS
330
16
102
}
100
AcDbDictionary
  0
DICTIONARY
  5
18
102
{ACAD_REACTORS
330
16
102
}
100
AcDbDictionary
  3
STANDARD
350
19
  0
MLINESTYLE
  5
19
102
{ACAD_REACTORS
330
18
102
}
100
AcDbMlineStyle
  2
STANDARD
 70
         0
  3

 62
         0
 51
90.0
 52
90.0
 71
        2
 49
0.5
 62
         256
  6
BYLAYER
 49
-0.5
 62
         256
  6
BYLAYER
  0
DICTIONARY
  5
1A
102
{ACAD_REACTORS
330
16
102
}
100
AcDbDictionary
  0
ENDSEC
  0
EOF
