  0
SECTION
  2
HEADER
  9
$ACADVER
  1
AC1014
  9
$ACADMAINTVER
 70
         0
  9
$DWGCODEPAGE
  3
ANSI_1252
  9
$INSBASE
 10
0.0
 20
0.0
 30
0.0
  9
$EXTMIN
 10
-29300.0
 20
-28985.5
 30
0.0
  9
$EXTMAX
 10
29300.0
 20
24610.0
 30
0.0
  9
$LIMMIN
 10
0.0
 20
0.0
  9
$LIMMAX
 10
0.0
 20
0.0
  9
$ORTHOMODE
 70
         0
  9
$REGENMODE
 70
         1
  9
$FILLMODE
 70
         1
  9
$QTEXTMODE
 70
         0
  9
$MIRRTEXT
 70
         1
  9
$DRAGMODE
 70
         2
  9
$LTSCALE
 40
1.0
  9
$OSMODE
 70
         0
  9
$ATTMODE
 70
         1
  9
$TEXTSIZE
 40
0.2
  9
$TRACEWID
 40
0.05
  9
$TEXTSTYLE
  7
STANDARD
  9
$CLAYER
  8
0
  9
$CELTYPE
  6
CONTINUOUS
  9
$CECOLOR
 62
       256
  9
$CELTSCALE
 40
1.0
  9
$DELOBJ
 70
         1
  9
$DISPSILH
 70
         0
  9
$DIMSCALE
 40
1.0
  9
$DIMASZ
 40
0.18
  9
$DIMEXO
 40
0.0625
  9
$DIMDLI
 40
0.38
  9
$DIMRND
 40
0.0
  9
$DIMDLE
 40
0.0
  9
$DIMEXE
 40
0.18
  9
$DIMTP
 40
0.0
  9
$DIMTM
 40
0.0
  9
$DIMTXT
 40
0.18
  9
$DIMCEN
 40
0.09
  9
$DIMTSZ
 40
0.0
  9
$DIMTOL
 70
         0
  9
$DIMLIM
 70
         0
  9
$DIMTIH
 70
         1
  9
$DIMTOH
 70
         1
  9
$DIMSE1
 70
         0
  9
$DIMSE2
 70
         0
  9
$DIMTAD
 70
         0
  9
$DIMZIN
 70
         0
  9
$DIMBLK
  1

  9
$DIMASO
 70
         1
  9
$DIMSHO
 70
         1
  9
$DIMPOST
  1

  9
$DIMAPOST
  1

  9
$DIMALT
 70
         0
  9
$DIMALTD
 70
         2
  9
$DIMALTF
 40
25.4
  9
$DIMLFAC
 40
1.0
  9
$DIMTOFL
 70
         0
  9
$DIMTVP
 40
0.0
  9
$DIMTIX
 70
         0
  9
$DIMSOXD
 70
         0
  9
$DIMSAH
 70
         0
  9
$DIMBLK1
  1

  9
$DIMBLK2
  1

  9
$DIMSTYLE
  2
STANDARD
  9
$DIMCLRD
 70
         0
  9
$DIMCLRE
 70
         0
  9
$DIMCLRT
 70
         0
  9
$DIMTFAC
 40
1.0
  9
$DIMGAP
 40
0.09
  9
$DIMJUST
 70
         0
  9
$DIMSD1
 70
         0
  9
$DIMSD2
 70
         0
  9
$DIMTOLJ
 70
         1
  9
$DIMTZIN
 70
         0
  9
$DIMALTZ
 70
         0
  9
$DIMALTTZ
 70
         0
  9
$DIMFIT
 70
         3
  9
$DIMUPT
 70
         0
  9
$DIMUNIT
 70
         2
  9
$DIMDEC
 70
         4
  9
$DIMTDEC
 70
         4
  9
$DIMALTU
 70
         2
  9
$DIMALTTD
 70
         2
  9
$DIMTXSTY
  7
STANDARD
  9
$DIMAUNIT
 70
         0
  9
$LUNITS
 70
         2
  9
$LUPREC
 70
         4
  9
$SKETCHINC
 40
0.1
  9
$FILLETRAD
 40
0.0
  9
$AUNITS
 70
         0
  9
$AUPREC
 70
         0
  9
$MENU
  1
acad
  9
$ELEVATION
 40
0.0
  9
$PELEVATION
 40
0.0
  9
$THICKNESS
 40
0.0
  9
$LIMCHECK
 70
         0
  9
$BLIPMODE
 70
         1
  9
$CHAMFERA
 40
0.0
  9
$CHAMFERB
 40
0.0
  9
$CHAMFERC
 40
0.0
  9
$CHAMFERD
 40
0.0
  9
$SKPOLY
 70
         0
  9
$TDCREATE
 40
20250819.095849
  9
$TDUPDATE
 40
0.0
  9
$TDINDWG
 40
0.0
  9
$TDUSRTIMER
 40
0.0
  9
$USRTIMER
 70
         1
  9
$ANGBASE
 50
0.0
  9
$ANGDIR
 70
         0
  9
$PDMODE
 70
         0
  9
$PDSIZE
 40
0.0
  9
$PLINEWID
 40
0.0
  9
$COORDS
 70
         0
  9
$SPLFRAME
 70
         0
  9
$SPLINETYPE
 70
         6
  9
$SPLINESEGS
 70
         8
  9
$ATTDIA
 70
         0
  9
$ATTREQ
 70
         1
  9
$HANDLING
 70
         1
  9
$HANDSEED
  5
6BB
  9
$SURFTAB1
 70
         6
  9
$SURFTAB2
 70
         6
  9
$SURFTYPE
 70
         6
  9
$SURFU
 70
         6
  9
$SURFV
 70
         6
  9
$UCSNAME
  2

  9
$UCSORG
 10
0.0
 20
0.0
 30
0.0
  9
$UCSXDIR
 10
1.0
 20
0.0
 30
0.0
  9
$UCSYDIR
 10
0.0
 20
1.0
 30
0.0
  9
$PUCSNAME
  2

  9
$PUCSORG
 10
0.0
 20
0.0
 30
0.0
  9
$PUCSXDIR
 10
1.0
 20
0.0
 30
0.0
  9
$PUCSYDIR
 10
0.0
 20
1.0
 30
0.0
  9
$USERI1
 70
         -4
  9
$USERI2
 70
         0
  9
$USERI3
 70
         0
  9
$USERI4
 70
         0
  9
$USERI5
 70
         0
  9
$USERR1
 40
0.0
  9
$USERR2
 40
0.0
  9
$USERR3
 40
0.0
  9
$USERR4
 40
0.0
  9
$USERR5
 40
0.0
  9
$WORLDVIEW
 70
         1
  9
$SHADEDGE
 70
         3
  9
$SHADEDIF
 70
        70
  9
$TILEMODE
 70
         1
  9
$MAXACTVP
 70
         16
  9
$PINSBASE
 10
0.0
 20
0.0
 30
0.0
  9
$PLIMCHECK
 70
         0
  9
$PEXTMIN
 10
100000000000000000000.0
 20
100000000000000000000.0
 30
100000000000000000000.0
  9
$PEXTMAX
 10
-100000000000000000000.0
 20
-100000000000000000000.0
 30
-100000000000000000000.0
  9
$PLIMMIN
 10
0.0
 20
0.0
  9
$PLIMMAX
 10
12.0
 20
9.0
  9
$UNITMODE
 70
         0
  9
$VISRETAIN
 70
         0
  9
$PLINEGEN
 70
         1
  9
$PSLTSCALE
 70
         0
  9
$TREEDEPTH
 70
      3020
  9
$PICKSTYLE
 70
         1
  9
$CMLSTYLE
  2
STANDARD
  9
$CMLJUST
 70
         0
  9
$CMLSCALE
 40
1.0
  9
$PROXYGRAPHICS
 70
         0
  9
$MEASUREMENT
 70
         0
  0
ENDSEC
  0
SECTION
  2
CLASSES
  0
CLASS
  1
LWPOLYLINE
  2
AcDbPolyline
  3
"AutoCAD"
 90
        0
280
         0
281
         1
  0
CLASS
  1
IMAGE
  2
AcDbRasterImage
  3
ISM
 90
      127
280
         0
281
         1
  0
CLASS
  1
OLE2FRAME
  2
AcDbOle2Frame
  3
""
 90
        0
280
         0
281
         1
  0
CLASS
  1
HATCH
  2
AcDbHatch
  3
"ACAD_SEDONA"
 90
        0
280
         0
281
         1
  0
CLASS
  1
DICTIONARYVAR
  2
AcDbDictionaryVar
  3
"AutoCAD"
 90
        0
280
         0
281
         0
  0
CLASS
  1
RASTERVARIABLES
  2
AcDbRasterVariables
  3
ISM
 90
        0
280
         0
281
         0
  0
CLASS
  1
IMAGEDEF
  2
AcDbRasterImageDef
  3
ISM
 90
        0
280
         0
281
         0
  0
CLASS
  1
IMAGEDEF_REACTOR
  2
AcDbRasterImageDefReactor
  3
ISM
 90
        1
280
         0
281
         0
  0
CLASS
  1
IDBUFFER
  2
AcDbIdBuffer
  3
"Acad"
 90
        0
280
         0
281
         0
  0
CLASS
  1
SPATIAL_FILTER
  2
AcDbSpatialFilter
  3
"Acad"
 90
        0
280
         0
281
         0
  0
CLASS
  1
XRECORD
  2
AcDbXrecord
  3
"<Built In>"
 90
        0
280
         0
281
         0
  0
CLASS
  1
SORTENTSTABLE
  2
AcDbSortentsTable
  3
"AutoCAD"
 90
        0
280
         0
281
         0
  0
CLASS
  1
LAYER_INDEX
  2
AcDbLayerIndex
  3
"Acad"
 90
        0
280
         0
281
         0
  0
CLASS
  1
SPATIAL_INDEX
  2
AcDbSpatialIndex
  3
"Acad"
 90
        0
280
         0
281
         0
  0
CLASS
  1
OBJECT_PTR
  2
CAseDLPNTableRecord
  3
"ASE-LPNTableRecord"
 90
        1
280
         0
281
         0
  0
CLASS
  1
LAYOUT
  2
AcDbLayout
  3
"AutoCAD 2000"
 90
        0
280
         0
281
         0
  0
CLASS
  1
PLOTSETTINGS
  2
AcDbPlotSettings
  3
"AutoCAD 2000"
 90
        0
280
         0
281
         0
  0
CLASS
  1
ACDBDICTIONARYWDFLT
  2
AcDbDictionaryWithDefault
  3
"AutoCAD 2000"
 90
        0
280
         0
281
         0
  0
CLASS
  1
ACDBPLACEHOLDER
  2
AcDbPlaceHolder
  3
"AutoCAD 2000"
 90
        0
280
         0
281
         0
  0
CLASS
  1
VBA_PROJECT
  2
AcDbVbaProject
  3
"acadvba"
 90
        0
280
         0
281
         0
  0
CLASS
  1
WIPEOUT
  2
AcDbWipeout
  3
WipeOut|AutoCAD Express Tool|expresstools@autodesk.com
 90
      127
280
         0
281
         1
  0
CLASS
  1
WIPEOUTVARIABLES
  2
AcDbWipeoutVariables
  3
WipeOut|AutoCAD Express Tool|expresstools@autodesk.com
 90
        0
280
         0
281
         0
  0
CLASS
  1
RTEXT
  2
RText
  3
RText|AutoCAD Express Tool|expresstools@autodesk.com
 90
        0
280
         0
281
         1
  0
CLASS
  1
ARCALIGNEDTEXT
  2
AcDbArcAlignedText
  3
ATEXT|AutoCAD Express Tool|expresstools@autodesk.com
 90
        0
280
         0
281
         1
  0
ENDSEC
  0
SECTION
  2
TABLES
  0
TABLE
  2
VPORT
  5
7
100
AcDbSymbolTable
70
    1
  0
VPORT
  5
13
100
AcDbSymbolTableRecord
100
AcDbViewportTableRecord
  2
*ACTIVE
 70
         0
 10
0.0
 20
0.0
 11
1.0
 21
1.0
 12
6.591288
 22
4.579184
 13
0.0
 23
0.0
 14
1.0
 24
1.0
 15
0.0
 25
0.0
 16
0.0
 26
0.0
 36
1.0
 17
0.0
 27
0.0
 37
0.0
  40
9.158369
  41
0.688564
  42
50.0
  43
0.0
  44
0.0
  50
0.0
  51
0.0
 71
    0
 72
    100
 73
    1
 74
    1
 75
    0
 76
    0
 77
    0
 78
    0
  0
ENDTAB
  0
TABLE
  2
LTYPE
  5
4
100
AcDbSymbolTable
70
    3
  0
LTYPE
  5
10
100
AcDbSymbolTableRecord
100
AcDbLinetypeTableRecord
  2
BYBLOCK
 70
         64
  3

 72
       65
 73
       0
  40
0.0
  0
LTYPE
  5
11
100
AcDbSymbolTableRecord
100
AcDbLinetypeTableRecord
  2
BYLAYER
 70
         64
  3

 72
       65
 73
       0
  40
0.0
  0
LTYPE
  5
12
100
AcDbSymbolTableRecord
100
AcDbLinetypeTableRecord
  2
CONTINUOUS
 70
         64
  3
Solid Line
 72
       65
 73
       0
  40
0.0
  0
ENDTAB
  0
TABLE
  2
LAYER
  5
2
100
AcDbSymbolTable
 70
         10
  0
LAYER
  5
6AF
100
AcDbSymbolTableRecord
100
AcDbLayerTableRecord
  2
0
 70
         0
 62
         7
  6
CONTINUOUS
  0
LAYER
  5
6B0
100
AcDbSymbolTableRecord
100
AcDbLayerTableRecord
  2
ASSEMBLY_OUTLINES_TOP
 70
         0
 62
         104
  6
CONTINUOUS
  0
LAYER
  5
6B1
100
AcDbSymbolTableRecord
100
AcDbLayerTableRecord
  2
CONTOURS_LAYER_TOP
 70
         0
 62
         42
  6
CONTINUOUS
  0
LAYER
  5
6B2
100
AcDbSymbolTableRecord
100
AcDbLayerTableRecord
  2
PART_HOLES_LAYER_TOP
 70
         0
 62
         170
  6
CONTINUOUS
  0
LAYER
  5
6B3
100
AcDbSymbolTableRecord
100
AcDbLayerTableRecord
  2
PART_PADS_SMD_TOP
 70
         0
 62
         255
  6
CONTINUOUS
  0
LAYER
  5
6B4
100
AcDbSymbolTableRecord
100
AcDbLayerTableRecord
  2
PIN_NUMBERS_TOP
 70
         0
 62
         8
  6
CONTINUOUS
  0
LAYER
  5
6B5
100
AcDbSymbolTableRecord
100
AcDbLayerTableRecord
  2
PLACEMENT_OUTLINES_TOP
 70
         0
 62
         170
  6
CONTINUOUS
  0
LAYER
  5
6B6
100
AcDbSymbolTableRecord
100
AcDbLayerTableRecord
  2
ROUTE_OBSTRUCTS_LAYER_TOP
 70
         0
 62
         255
  6
CONTINUOUS
  0
LAYER
  5
6B7
100
AcDbSymbolTableRecord
100
AcDbLayerTableRecord
  2
SOLDERMASK_PADS_TOP
 70
         0
 62
         81
  6
CONTINUOUS
  0
LAYER
  5
6B8
100
AcDbSymbolTableRecord
100
AcDbLayerTableRecord
  2
SOLDERPASTE_TOP
 70
         0
 62
         81
  6
CONTINUOUS
  0
ENDTAB
  0
TABLE
  2
STYLE
  5
3
100
AcDbSymbolTable
 70
         2
  0
STYLE
  5
6B9
100
AcDbSymbolTableRecord
100
AcDbTextStyleTableRecord
  2
STANDARD
 70
         0
 40
0.0
 41
1.0
 50
0.0
 71
         0
 42
0.0
  3
txt
  4

  0
STYLE
  5
6BA
100
AcDbSymbolTableRecord
100
AcDbTextStyleTableRecord
  2
COURIER_NEW
 70
         0
 40
0.0
 41
1.0
 50
0.0
 71
         0
 42
0.0
  3
cour.ttf
  4

  0
ENDTAB
  0
TABLE
  2
VIEW
  5
5
100
AcDbSymbolTable
 70
         0
  0
ENDTAB
  0
TABLE
  2
UCS
  5
6
100
AcDbSymbolTable
 70
         0
  0
ENDTAB
  0
TABLE
  2
APPID
  5
8
100
AcDbSymbolTable
 70
         1
  0
APPID
  5
14
100
AcDbSymbolTableRecord
100
AcDbRegAppTableRecord
  2
ACAD
 70
         0
  0
ENDTAB
  0
TABLE
  2
DIMSTYLE
  5
9
100
AcDbSymbolTable
 70
         1
  0
DIMSTYLE
105
15
100
AcDbSymbolTableRecord
100
AcDbDimStyleTableRecord
  2
STANDARD
 70
         0
  3

  4

  5

  6

 7

 40
1.0
 41
0.18
 42
0.0625
 43
0.38
 44
0.18
 45
0.0
 46
0.0
 47
0.0
 48
0.0
 71
         0
 72
         0
 73
         1
 74
         1
 75
         0
 76
         0
 77
         0
 78
         0
140
0.18
141
0.09
142
0.0
143
25.4
144
1.0
145
0.0
146
1.0
147
0.09
170
         0
171
         2
172
         0
173
         0
174
         0
175
         0
176
         0
177
         0
178
         0
270
         2
271
         4
272
         4
273
         2
274
         2
275
         0
280
         0
281
         0
282
         0
283
         1
284
         0
285
         0
286
         0
287
         3
288
         0
340
17
  0
ENDTAB
  0
TABLE
  2
BLOCK_RECORD
  5
1
100
AcDbSymbolTable
 70
         0
  0
BLOCK_RECORD
  5
A
100
AcDbSymbolTableRecord
100
AcDbBlockTableRecord
  2
*MODEL_SPACE
  0
BLOCK_RECORD
  5
B
100
AcDbSymbolTableRecord
100
AcDbBlockTableRecord
  2
*PAPER_SPACE
  0
ENDTAB
  0
ENDSEC
  0
SECTION
  2
BLOCKS
  0
BLOCK
  5
C
100
AcDbEntity
  8
0
100
AcDbBlockBegin
  2
*MODEL_SPACE
 70
         0
 10
0.0
 20
0.0
 30
0.0
  3
*MODEL_SPACE
  1

  0
ENDBLK
  5
D
100
AcDbEntity
  8
0
100
AcDbBlockEnd
  0
BLOCK
  5
E
100
AcDbEntity
 67
        1
  8
0
100
AcDbBlockBegin
  2
*PAPER_SPACE
 70
         0
 10
0.0
 20
0.0
 30
0.0
  3
*PAPER_SPACE
  1

  0
ENDBLK
  5
F
100
AcDbEntity
 67
        1
  8
0
100
AcDbBlockEnd
  0
ENDSEC
  0
SECTION
  2
ENTITIES
  0
LWPOLYLINE
  5
1B
100
AcDbEntity
  8
ASSEMBLY_OUTLINES_TOP
100
AcDbPolyline
 90
        8
 70
         1
 43
100.0
 10
-7500.0
 20
-7000.0
 10
-7500.0
 20
7000.0
 42
-0.414214
 10
-5500.0
 20
9000.0
 10
5500.0
 20
9000.0
 42
-0.414214
 10
7500.0
 20
7000.0
 10
7500.0
 20
-7000.0
 42
-0.414214
 10
5500.0
 20
-9000.0
 10
-5500.0
 20
-9000.0
 42
-0.414214
  0
LWPOLYLINE
  5
1C
100
AcDbEntity
  8
ASSEMBLY_OUTLINES_TOP
100
AcDbPolyline
 90
        4
 70
         1
 43
100.0
 10
-18500.0
 20
-20000.0
 10
-18500.0
 20
20000.0
 10
18500.0
 20
20000.0
 10
18500.0
 20
-20000.0
  0
LWPOLYLINE
  5
1D
100
AcDbEntity
  8
ASSEMBLY_OUTLINES_TOP
100
AcDbPolyline
 90
        4
 70
         1
 43
100.0
 10
-22500.0
 20
-24000.0
 10
-22500.0
 20
24000.0
 10
22500.0
 20
24000.0
 10
22500.0
 20
-24000.0
  0
LWPOLYLINE
  5
1E
100
AcDbEntity
  8
ASSEMBLY_OUTLINES_TOP
100
AcDbPolyline
 90
        2
 70
         0
 43
200.0
 10
18510.0
 20
24510.0
 10
23010.0
 20
24510.0
  0
LWPOLYLINE
  5
1F
100
AcDbEntity
  8
ASSEMBLY_OUTLINES_TOP
100
AcDbPolyline
 90
        2
 70
         0
 43
200.0
 10
23010.0
 20
20010.0
 10
23010.0
 20
24510.0
  0
LWPOLYLINE
  5
20
100
AcDbEntity
  8
ASSEMBLY_OUTLINES_TOP
100
AcDbPolyline
 90
        5
 70
         1
 43
0.0
 10
-29000.0
 20
-16250.0
 42
1.000000
 10
-25875.0
 20
-16250.0
 10
-25875.0
 20
-13639.901
 42
-0.607381
 10
-27792.001
 20
-12356.013
 42
1.057091
 10
-29000.0
 20
-12288.909
  0
LWPOLYLINE
  5
21
100
AcDbEntity
  8
ASSEMBLY_OUTLINES_TOP
100
AcDbPolyline
 90
        5
 70
         1
 43
0.0
 10
-23000.0
 20
-16250.0
 42
1.000000
 10
-19875.0
 20
-16250.0
 10
-19875.0
 20
-13639.901
 42
-0.607381
 10
-21792.001
 20
-12356.013
 42
1.057091
 10
-23000.0
 20
-12288.909
  0
LWPOLYLINE
  5
22
100
AcDbEntity
  8
ASSEMBLY_OUTLINES_TOP
100
AcDbPolyline
 90
        5
 70
         1
 43
0.0
 10
-29000.0
 20
12288.909
 10
-29000.0
 20
16250.0
 42
-1.000000
 10
-25875.0
 20
16250.0
 10
-25875.0
 20
13639.901
 42
0.607381
 10
-27792.001
 20
12356.013
 42
-1.057091
  0
LWPOLYLINE
  5
23
100
AcDbEntity
  8
ASSEMBLY_OUTLINES_TOP
100
AcDbPolyline
 90
        5
 70
         1
 43
0.0
 10
-23000.0
 20
12288.909
 10
-23000.0
 20
16250.0
 42
-1.000000
 10
-19875.0
 20
16250.0
 10
-19875.0
 20
13639.901
 42
0.607381
 10
-21792.001
 20
12356.013
 42
-1.057091
  0
LWPOLYLINE
  5
24
100
AcDbEntity
  8
ASSEMBLY_OUTLINES_TOP
100
AcDbPolyline
 90
        5
 70
         1
 43
0.0
 10
19875.0
 20
13639.901
 42
-0.607381
 10
21792.001
 20
12356.013
 42
1.057091
 10
23000.0
 20
12288.909
 10
23000.0
 20
16250.0
 42
1.000000
 10
19875.0
 20
16250.0
  0
LWPOLYLINE
  5
25
100
AcDbEntity
  8
ASSEMBLY_OUTLINES_TOP
100
AcDbPolyline
 90
        5
 70
         1
 43
0.0
 10
25875.0
 20
13639.901
 42
-0.607381
 10
27792.001
 20
12356.013
 42
1.057091
 10
29000.0
 20
12288.909
 10
29000.0
 20
16250.0
 42
1.000000
 10
25875.0
 20
16250.0
  0
LWPOLYLINE
  5
26
100
AcDbEntity
  8
ASSEMBLY_OUTLINES_TOP
100
AcDbPolyline
 90
        5
 70
         1
 43
0.0
 10
25875.0
 20
-13639.901
 42
0.607381
 10
27792.001
 20
-12356.013
 42
-1.057091
 10
29000.0
 20
-12288.909
 10
29000.0
 20
-16250.0
 42
-1.000000
 10
25875.0
 20
-16250.0
  0
LWPOLYLINE
  5
27
100
AcDbEntity
  8
ASSEMBLY_OUTLINES_TOP
100
AcDbPolyline
 90
        5
 70
         1
 43
0.0
 10
19875.0
 20
-13639.901
 42
0.607381
 10
21792.001
 20
-12356.013
 42
-1.057091
 10
23000.0
 20
-12288.909
 10
23000.0
 20
-16250.0
 42
-1.000000
 10
19875.0
 20
-16250.0
  0
LWPOLYLINE
  5
28
100
AcDbEntity
  8
CONTOURS_LAYER_TOP
100
AcDbPolyline
 90
        8
 70
         1
 43
2000.0
 10
6500.0
 20
-7000.0
 42
-0.414214
 10
5500.0
 20
-8000.0
 10
-5500.0
 20
-8000.0
 42
-0.414214
 10
-6500.0
 20
-7000.0
 10
-6500.0
 20
7000.0
 42
-0.414214
 10
-5500.0
 20
8000.0
 10
5500.0
 20
8000.0
 42
-0.414214
 10
6500.0
 20
7000.0
  0
CIRCLE
  5
29
100
AcDbEntity
  8
PART_HOLES_LAYER_TOP
100
AcDbCircle
 10
20500.0
 20
12500.0
 30
0.0
 40
1300.0
  0
HATCH
  5
2A
100
AcDbEntity
  8
PART_HOLES_LAYER_TOP
100
AcDbHatch
 10
0.0
 20
0.0
 30
0.0
 210
0.0
 220
0.0
 230
1.0
  2
SOLID
 70
         1
 71
        1
 91
        1
  92
     1
  93
     1
 72
     2
 10
20500.0
 20
12500.0
  40
1300.0
  50
     0.0
  51
     360.0
 73
     0
  97
     1
  330
    41
 75
     0
 76
     1
  98
     1
 10
0.0
 20
0.0
  0
CIRCLE
  5
2B
100
AcDbEntity
  8
PART_HOLES_LAYER_TOP
100
AcDbCircle
 10
26500.0
 20
12500.0
 30
0.0
 40
1300.0
  0
HATCH
  5
2C
100
AcDbEntity
  8
PART_HOLES_LAYER_TOP
100
AcDbHatch
 10
0.0
 20
0.0
 30
0.0
 210
0.0
 220
0.0
 230
1.0
  2
SOLID
 70
         1
 71
        1
 91
        1
  92
     1
  93
     1
 72
     2
 10
26500.0
 20
12500.0
  40
1300.0
  50
     0.0
  51
     360.0
 73
     0
  97
     1
  330
    43
 75
     0
 76
     1
  98
     1
 10
0.0
 20
0.0
  0
CIRCLE
  5
2D
100
AcDbEntity
  8
PART_HOLES_LAYER_TOP
100
AcDbCircle
 10
20500.0
 20
-12500.0
 30
0.0
 40
1300.0
  0
HATCH
  5
2E
100
AcDbEntity
  8
PART_HOLES_LAYER_TOP
100
AcDbHatch
 10
0.0
 20
0.0
 30
0.0
 210
0.0
 220
0.0
 230
1.0
  2
SOLID
 70
         1
 71
        1
 91
        1
  92
     1
  93
     1
 72
     2
 10
20500.0
 20
-12500.0
  40
1300.0
  50
     0.0
  51
     360.0
 73
     0
  97
     1
  330
    45
 75
     0
 76
     1
  98
     1
 10
0.0
 20
0.0
  0
CIRCLE
  5
2F
100
AcDbEntity
  8
PART_HOLES_LAYER_TOP
100
AcDbCircle
 10
26500.0
 20
-12500.0
 30
0.0
 40
1300.0
  0
HATCH
  5
30
100
AcDbEntity
  8
PART_HOLES_LAYER_TOP
100
AcDbHatch
 10
0.0
 20
0.0
 30
0.0
 210
0.0
 220
0.0
 230
1.0
  2
SOLID
 70
         1
 71
        1
 91
        1
  92
     1
  93
     1
 72
     2
 10
26500.0
 20
-12500.0
  40
1300.0
  50
     0.0
  51
     360.0
 73
     0
  97
     1
  330
    47
 75
     0
 76
     1
  98
     1
 10
0.0
 20
0.0
  0
CIRCLE
  5
31
100
AcDbEntity
  8
PART_HOLES_LAYER_TOP
100
AcDbCircle
 10
-20500.0
 20
-12500.0
 30
0.0
 40
1300.0
  0
HATCH
  5
32
100
AcDbEntity
  8
PART_HOLES_LAYER_TOP
100
AcDbHatch
 10
0.0
 20
0.0
 30
0.0
 210
0.0
 220
0.0
 230
1.0
  2
SOLID
 70
         1
 71
        1
 91
        1
  92
     1
  93
     1
 72
     2
 10
-20500.0
 20
-12500.0
  40
1300.0
  50
     0.0
  51
     360.0
 73
     0
  97
     1
  330
    49
 75
     0
 76
     1
  98
     1
 10
0.0
 20
0.0
  0
CIRCLE
  5
33
100
AcDbEntity
  8
PART_HOLES_LAYER_TOP
100
AcDbCircle
 10
-26500.0
 20
-12500.0
 30
0.0
 40
1300.0
  0
HATCH
  5
34
100
AcDbEntity
  8
PART_HOLES_LAYER_TOP
100
AcDbHatch
 10
0.0
 20
0.0
 30
0.0
 210
0.0
 220
0.0
 230
1.0
  2
SOLID
 70
         1
 71
        1
 91
        1
  92
     1
  93
     1
 72
     2
 10
-26500.0
 20
-12500.0
  40
1300.0
  50
     0.0
  51
     360.0
 73
     0
  97
     1
  330
    51
 75
     0
 76
     1
  98
     1
 10
0.0
 20
0.0
  0
CIRCLE
  5
35
100
AcDbEntity
  8
PART_HOLES_LAYER_TOP
100
AcDbCircle
 10
-20500.0
 20
12500.0
 30
0.0
 40
1300.0
  0
HATCH
  5
36
100
AcDbEntity
  8
PART_HOLES_LAYER_TOP
100
AcDbHatch
 10
0.0
 20
0.0
 30
0.0
 210
0.0
 220
0.0
 230
1.0
  2
SOLID
 70
         1
 71
        1
 91
        1
  92
     1
  93
     1
 72
     2
 10
-20500.0
 20
12500.0
  40
1300.0
  50
     0.0
  51
     360.0
 73
     0
  97
     1
  330
    53
 75
     0
 76
     1
  98
     1
 10
0.0
 20
0.0
  0
CIRCLE
  5
37
100
AcDbEntity
  8
PART_HOLES_LAYER_TOP
100
AcDbCircle
 10
-26500.0
 20
12500.0
 30
0.0
 40
1300.0
  0
HATCH
  5
38
100
AcDbEntity
  8
PART_HOLES_LAYER_TOP
100
AcDbHatch
 10
0.0
 20
0.0
 30
0.0
 210
0.0
 220
0.0
 230
1.0
  2
SOLID
 70
         1
 71
        1
 91
        1
  92
     1
  93
     1
 72
     2
 10
-26500.0
 20
12500.0
  40
1300.0
  50
     0.0
  51
     360.0
 73
     0
  97
     1
  330
    55
 75
     0
 76
     1
  98
     1
 10
0.0
 20
0.0
  0
CIRCLE
  5
39
100
AcDbEntity
  8
PART_PADS_SMD_TOP
100
AcDbCircle
 10
-19050.0
 20
9525.0
 30
0.0
 40
325.0
  0
CIRCLE
  5
3A
100
AcDbEntity
  8
PART_PADS_SMD_TOP
100
AcDbCircle
 10
-19050.0
 20
8255.0
 30
0.0
 40
325.0
  0
CIRCLE
  5
3B
100
AcDbEntity
  8
PART_PADS_SMD_TOP
100
AcDbCircle
 10
-19050.0
 20
6985.0
 30
0.0
 40
325.0
  0
CIRCLE
  5
3C
100
AcDbEntity
  8
PART_PADS_SMD_TOP
100
AcDbCircle
 10
-19050.0
 20
5715.0
 30
0.0
 40
325.0
  0
CIRCLE
  5
3D
100
AcDbEntity
  8
PART_PADS_SMD_TOP
100
AcDbCircle
 10
-19050.0
 20
4445.0
 30
0.0
 40
325.0
  0
CIRCLE
  5
3E
100
AcDbEntity
  8
PART_PADS_SMD_TOP
100
AcDbCircle
 10
-19050.0
 20
3175.0
 30
0.0
 40
325.0
  0
CIRCLE
  5
3F
100
AcDbEntity
  8
PART_PADS_SMD_TOP
100
AcDbCircle
 10
-19050.0
 20
1905.0
 30
0.0
 40
325.0
  0
CIRCLE
  5
40
100
AcDbEntity
  8
PART_PADS_SMD_TOP
100
AcDbCircle
 10
-19050.0
 20
635.0
 30
0.0
 40
325.0
  0
CIRCLE
  5
41
100
AcDbEntity
  8
PART_PADS_SMD_TOP
100
AcDbCircle
 10
19050.0
 20
9525.0
 30
0.0
 40
325.0
  0
CIRCLE
  5
42
100
AcDbEntity
  8
PART_PADS_SMD_TOP
100
AcDbCircle
 10
19050.0
 20
8255.0
 30
0.0
 40
325.0
  0
CIRCLE
  5
43
100
AcDbEntity
  8
PART_PADS_SMD_TOP
100
AcDbCircle
 10
19050.0
 20
6985.0
 30
0.0
 40
325.0
  0
CIRCLE
  5
44
100
AcDbEntity
  8
PART_PADS_SMD_TOP
100
AcDbCircle
 10
19050.0
 20
5715.0
 30
0.0
 40
325.0
  0
CIRCLE
  5
45
100
AcDbEntity
  8
PART_PADS_SMD_TOP
100
AcDbCircle
 10
19050.0
 20
4445.0
 30
0.0
 40
325.0
  0
CIRCLE
  5
46
100
AcDbEntity
  8
PART_PADS_SMD_TOP
100
AcDbCircle
 10
19050.0
 20
3175.0
 30
0.0
 40
325.0
  0
CIRCLE
  5
47
100
AcDbEntity
  8
PART_PADS_SMD_TOP
100
AcDbCircle
 10
19050.0
 20
1905.0
 30
0.0
 40
325.0
  0
CIRCLE
  5
48
100
AcDbEntity
  8
PART_PADS_SMD_TOP
100
AcDbCircle
 10
19050.0
 20
635.0
 30
0.0
 40
325.0
  0
CIRCLE
  5
49
100
AcDbEntity
  8
PART_PADS_SMD_TOP
100
AcDbCircle
 10
19050.0
 20
-635.0
 30
0.0
 40
325.0
  0
CIRCLE
  5
4A
100
AcDbEntity
  8
PART_PADS_SMD_TOP
100
AcDbCircle
 10
19050.0
 20
-1905.0
 30
0.0
 40
325.0
  0
CIRCLE
  5
4B
100
AcDbEntity
  8
PART_PADS_SMD_TOP
100
AcDbCircle
 10
19050.0
 20
-3175.0
 30
0.0
 40
325.0
  0
CIRCLE
  5
4C
100
AcDbEntity
  8
PART_PADS_SMD_TOP
100
AcDbCircle
 10
19050.0
 20
-4445.0
 30
0.0
 40
325.0
  0
CIRCLE
  5
4D
100
AcDbEntity
  8
PART_PADS_SMD_TOP
100
AcDbCircle
 10
19050.0
 20
-5715.0
 30
0.0
 40
325.0
  0
CIRCLE
  5
4E
100
AcDbEntity
  8
PART_PADS_SMD_TOP
100
AcDbCircle
 10
19050.0
 20
-6985.0
 30
0.0
 40
325.0
  0
CIRCLE
  5
4F
100
AcDbEntity
  8
PART_PADS_SMD_TOP
100
AcDbCircle
 10
19050.0
 20
-8255.0
 30
0.0
 40
325.0
  0
CIRCLE
  5
50
100
AcDbEntity
  8
PART_PADS_SMD_TOP
100
AcDbCircle
 10
19050.0
 20
-9525.0
 30
0.0
 40
325.0
  0
CIRCLE
  5
51
100
AcDbEntity
  8
PART_PADS_SMD_TOP
100
AcDbCircle
 10
16510.0
 20
13335.0
 30
0.0
 40
325.0
  0
CIRCLE
  5
52
100
AcDbEntity
  8
PART_PADS_SMD_TOP
100
AcDbCircle
 10
16510.0
 20
12065.0
 30
0.0
 40
325.0
  0
CIRCLE
  5
53
100
AcDbEntity
  8
PART_PADS_SMD_TOP
100
AcDbCircle
 10
16510.0
 20
10795.0
 30
0.0
 40
325.0
  0
CIRCLE
  5
54
100
AcDbEntity
  8
PART_PADS_SMD_TOP
100
AcDbCircle
 10
16510.0
 20
9525.0
 30
0.0
 40
325.0
  0
CIRCLE
  5
55
100
AcDbEntity
  8
PART_PADS_SMD_TOP
100
AcDbCircle
 10
16510.0
 20
8255.0
 30
0.0
 40
325.0
  0
CIRCLE
  5
56
100
AcDbEntity
  8
PART_PADS_SMD_TOP
100
AcDbCircle
 10
16510.0
 20
6985.0
 30
0.0
 40
325.0
  0
CIRCLE
  5
57
100
AcDbEntity
  8
PART_PADS_SMD_TOP
100
AcDbCircle
 10
16510.0
 20
5715.0
 30
0.0
 40
325.0
  0
CIRCLE
  5
58
100
AcDbEntity
  8
PART_PADS_SMD_TOP
100
AcDbCircle
 10
16510.0
 20
4445.0
 30
0.0
 40
325.0
  0
CIRCLE
  5
59
100
AcDbEntity
  8
PART_PADS_SMD_TOP
100
AcDbCircle
 10
16510.0
 20
3175.0
 30
0.0
 40
325.0
  0
CIRCLE
  5
5A
100
AcDbEntity
  8
PART_PADS_SMD_TOP
100
AcDbCircle
 10
16510.0
 20
1905.0
 30
0.0
 40
325.0
  0
CIRCLE
  5
5B
100
AcDbEntity
  8
PART_PADS_SMD_TOP
100
AcDbCircle
 10
15240.0
 20
12700.0
 30
0.0
 40
325.0
  0
CIRCLE
  5
5C
100
AcDbEntity
  8
PART_PADS_SMD_TOP
100
AcDbCircle
 10
15240.0
 20
11430.0
 30
0.0
 40
325.0
  0
CIRCLE
  5
5D
100
AcDbEntity
  8
PART_PADS_SMD_TOP
100
AcDbCircle
 10
15240.0
 20
10160.0
 30
0.0
 40
325.0
  0
CIRCLE
  5
5E
100
AcDbEntity
  8
PART_PADS_SMD_TOP
100
AcDbCircle
 10
15240.0
 20
8890.0
 30
0.0
 40
325.0
  0
CIRCLE
  5
5F
100
AcDbEntity
  8
PART_PADS_SMD_TOP
100
AcDbCircle
 10
15240.0
 20
7620.0
 30
0.0
 40
325.0
  0
CIRCLE
  5
60
100
AcDbEntity
  8
PART_PADS_SMD_TOP
100
AcDbCircle
 10
15240.0
 20
6350.0
 30
0.0
 40
325.0
  0
CIRCLE
  5
61
100
AcDbEntity
  8
PART_PADS_SMD_TOP
100
AcDbCircle
 10
15240.0
 20
5080.0
 30
0.0
 40
325.0
  0
CIRCLE
  5
62
100
AcDbEntity
  8
PART_PADS_SMD_TOP
100
AcDbCircle
 10
15240.0
 20
3810.0
 30
0.0
 40
325.0
  0
CIRCLE
  5
63
100
AcDbEntity
  8
PART_PADS_SMD_TOP
100
AcDbCircle
 10
15240.0
 20
2540.0
 30
0.0
 40
325.0
  0
CIRCLE
  5
64
100
AcDbEntity
  8
PART_PADS_SMD_TOP
100
AcDbCircle
 10
13970.0
 20
10795.0
 30
0.0
 40
325.0
  0
CIRCLE
  5
65
100
AcDbEntity
  8
PART_PADS_SMD_TOP
100
AcDbCircle
 10
13970.0
 20
9525.0
 30
0.0
 40
325.0
  0
CIRCLE
  5
66
100
AcDbEntity
  8
PART_PADS_SMD_TOP
100
AcDbCircle
 10
13970.0
 20
8255.0
 30
0.0
 40
325.0
  0
CIRCLE
  5
67
100
AcDbEntity
  8
PART_PADS_SMD_TOP
100
AcDbCircle
 10
13970.0
 20
6985.0
 30
0.0
 40
325.0
  0
CIRCLE
  5
68
100
AcDbEntity
  8
PART_PADS_SMD_TOP
100
AcDbCircle
 10
13970.0
 20
5715.0
 30
0.0
 40
325.0
  0
CIRCLE
  5
69
100
AcDbEntity
  8
PART_PADS_SMD_TOP
100
AcDbCircle
 10
13970.0
 20
4445.0
 30
0.0
 40
325.0
  0
CIRCLE
  5
6A
100
AcDbEntity
  8
PART_PADS_SMD_TOP
100
AcDbCircle
 10
13970.0
 20
3175.0
 30
0.0
 40
325.0
  0
CIRCLE
  5
6B
100
AcDbEntity
  8
PART_PADS_SMD_TOP
100
AcDbCircle
 10
13970.0
 20
1905.0
 30
0.0
 40
325.0
  0
CIRCLE
  5
6C
100
AcDbEntity
  8
PART_PADS_SMD_TOP
100
AcDbCircle
 10
13970.0
 20
635.0
 30
0.0
 40
325.0
  0
CIRCLE
  5
6D
100
AcDbEntity
  8
PART_PADS_SMD_TOP
100
AcDbCircle
 10
13970.0
 20
-635.0
 30
0.0
 40
325.0
  0
CIRCLE
  5
6E
100
AcDbEntity
  8
PART_PADS_SMD_TOP
100
AcDbCircle
 10
13970.0
 20
-1905.0
 30
0.0
 40
325.0
  0
CIRCLE
  5
6F
100
AcDbEntity
  8
PART_PADS_SMD_TOP
100
AcDbCircle
 10
13970.0
 20
-3175.0
 30
0.0
 40
325.0
  0
CIRCLE
  5
70
100
AcDbEntity
  8
PART_PADS_SMD_TOP
100
AcDbCircle
 10
13970.0
 20
-4445.0
 30
0.0
 40
325.0
  0
CIRCLE
  5
71
100
AcDbEntity
  8
PART_PADS_SMD_TOP
100
AcDbCircle
 10
13970.0
 20
-5715.0
 30
0.0
 40
325.0
  0
CIRCLE
  5
72
100
AcDbEntity
  8
PART_PADS_SMD_TOP
100
AcDbCircle
 10
13970.0
 20
-6985.0
 30
0.0
 40
325.0
  0
CIRCLE
  5
73
100
AcDbEntity
  8
PART_PADS_SMD_TOP
100
AcDbCircle
 10
13970.0
 20
-8255.0
 30
0.0
 40
325.0
  0
CIRCLE
  5
74
100
AcDbEntity
  8
PART_PADS_SMD_TOP
100
AcDbCircle
 10
13970.0
 20
-9525.0
 30
0.0
 40
325.0
  0
CIRCLE
  5
75
100
AcDbEntity
  8
PART_PADS_SMD_TOP
100
AcDbCircle
 10
13970.0
 20
-10795.0
 30
0.0
 40
325.0
  0
CIRCLE
  5
76
100
AcDbEntity
  8
PART_PADS_SMD_TOP
100
AcDbCircle
 10
-13970.0
 20
10795.0
 30
0.0
 40
325.0
  0
CIRCLE
  5
77
100
AcDbEntity
  8
PART_PADS_SMD_TOP
100
AcDbCircle
 10
-13970.0
 20
9525.0
 30
0.0
 40
325.0
  0
CIRCLE
  5
78
100
AcDbEntity
  8
PART_PADS_SMD_TOP
100
AcDbCircle
 10
-13970.0
 20
8255.0
 30
0.0
 40
325.0
  0
CIRCLE
  5
79
100
AcDbEntity
  8
PART_PADS_SMD_TOP
100
AcDbCircle
 10
-13970.0
 20
6985.0
 30
0.0
 40
325.0
  0
CIRCLE
  5
7A
100
AcDbEntity
  8
PART_PADS_SMD_TOP
100
AcDbCircle
 10
-13970.0
 20
5715.0
 30
0.0
 40
325.0
  0
CIRCLE
  5
7B
100
AcDbEntity
  8
PART_PADS_SMD_TOP
100
AcDbCircle
 10
-13970.0
 20
4445.0
 30
0.0
 40
325.0
  0
CIRCLE
  5
7C
100
AcDbEntity
  8
PART_PADS_SMD_TOP
100
AcDbCircle
 10
-13970.0
 20
3175.0
 30
0.0
 40
325.0
  0
CIRCLE
  5
7D
100
AcDbEntity
  8
PART_PADS_SMD_TOP
100
AcDbCircle
 10
-13970.0
 20
1905.0
 30
0.0
 40
325.0
  0
CIRCLE
  5
7E
100
AcDbEntity
  8
PART_PADS_SMD_TOP
100
AcDbCircle
 10
-13970.0
 20
635.0
 30
0.0
 40
325.0
  0
CIRCLE
  5
7F
100
AcDbEntity
  8
PART_PADS_SMD_TOP
100
AcDbCircle
 10
-13970.0
 20
-635.0
 30
0.0
 40
325.0
  0
CIRCLE
  5
80
100
AcDbEntity
  8
PART_PADS_SMD_TOP
100
AcDbCircle
 10
-13970.0
 20
-1905.0
 30
0.0
 40
325.0
  0
CIRCLE
  5
81
100
AcDbEntity
  8
PART_PADS_SMD_TOP
100
AcDbCircle
 10
-13970.0
 20
-3175.0
 30
0.0
 40
325.0
  0
CIRCLE
  5
82
100
AcDbEntity
  8
PART_PADS_SMD_TOP
100
AcDbCircle
 10
-13970.0
 20
-4445.0
 30
0.0
 40
325.0
  0
CIRCLE
  5
83
100
AcDbEntity
  8
PART_PADS_SMD_TOP
100
AcDbCircle
 10
-13970.0
 20
-5715.0
 30
0.0
 40
325.0
  0
CIRCLE
  5
84
100
AcDbEntity
  8
PART_PADS_SMD_TOP
100
AcDbCircle
 10
-13970.0
 20
-6985.0
 30
0.0
 40
325.0
  0
CIRCLE
  5
85
100
AcDbEntity
  8
PART_PADS_SMD_TOP
100
AcDbCircle
 10
-13970.0
 20
-8255.0
 30
0.0
 40
325.0
  0
CIRCLE
  5
86
100
AcDbEntity
  8
PART_PADS_SMD_TOP
100
AcDbCircle
 10
-13970.0
 20
-9525.0
 30
0.0
 40
325.0
  0
CIRCLE
  5
87
100
AcDbEntity
  8
PART_PADS_SMD_TOP
100
AcDbCircle
 10
-13970.0
 20
-10795.0
 30
0.0
 40
325.0
  0
CIRCLE
  5
88
100
AcDbEntity
  8
PART_PADS_SMD_TOP
100
AcDbCircle
 10
-15240.0
 20
12700.0
 30
0.0
 40
325.0
  0
CIRCLE
  5
89
100
AcDbEntity
  8
PART_PADS_SMD_TOP
100
AcDbCircle
 10
-15240.0
 20
11430.0
 30
0.0
 40
325.0
  0
CIRCLE
  5
8A
100
AcDbEntity
  8
PART_PADS_SMD_TOP
100
AcDbCircle
 10
-15240.0
 20
10160.0
 30
0.0
 40
325.0
  0
CIRCLE
  5
8B
100
AcDbEntity
  8
PART_PADS_SMD_TOP
100
AcDbCircle
 10
-15240.0
 20
8890.0
 30
0.0
 40
325.0
  0
CIRCLE
  5
8C
100
AcDbEntity
  8
PART_PADS_SMD_TOP
100
AcDbCircle
 10
-15240.0
 20
7620.0
 30
0.0
 40
325.0
  0
CIRCLE
  5
8D
100
AcDbEntity
  8
PART_PADS_SMD_TOP
100
AcDbCircle
 10
-15240.0
 20
6350.0
 30
0.0
 40
325.0
  0
CIRCLE
  5
8E
100
AcDbEntity
  8
PART_PADS_SMD_TOP
100
AcDbCircle
 10
-15240.0
 20
5080.0
 30
0.0
 40
325.0
  0
CIRCLE
  5
8F
100
AcDbEntity
  8
PART_PADS_SMD_TOP
100
AcDbCircle
 10
-15240.0
 20
3810.0
 30
0.0
 40
325.0
  0
CIRCLE
  5
90
100
AcDbEntity
  8
PART_PADS_SMD_TOP
100
AcDbCircle
 10
-15240.0
 20
2540.0
 30
0.0
 40
325.0
  0
CIRCLE
  5
91
100
AcDbEntity
  8
PART_PADS_SMD_TOP
100
AcDbCircle
 10
-15240.0
 20
1270.0
 30
0.0
 40
325.0
  0
CIRCLE
  5
92
100
AcDbEntity
  8
PART_PADS_SMD_TOP
100
AcDbCircle
 10
-15240.0
 20
0.0
 30
0.0
 40
325.0
  0
CIRCLE
  5
93
100
AcDbEntity
  8
PART_PADS_SMD_TOP
100
AcDbCircle
 10
-15240.0
 20
-1270.0
 30
0.0
 40
325.0
  0
CIRCLE
  5
94
100
AcDbEntity
  8
PART_PADS_SMD_TOP
100
AcDbCircle
 10
-15240.0
 20
-2540.0
 30
0.0
 40
325.0
  0
CIRCLE
  5
95
100
AcDbEntity
  8
PART_PADS_SMD_TOP
100
AcDbCircle
 10
-15240.0
 20
-3810.0
 30
0.0
 40
325.0
  0
CIRCLE
  5
96
100
AcDbEntity
  8
PART_PADS_SMD_TOP
100
AcDbCircle
 10
-15240.0
 20
-5080.0
 30
0.0
 40
325.0
  0
CIRCLE
  5
97
100
AcDbEntity
  8
PART_PADS_SMD_TOP
100
AcDbCircle
 10
-15240.0
 20
-6350.0
 30
0.0
 40
325.0
  0
CIRCLE
  5
98
100
AcDbEntity
  8
PART_PADS_SMD_TOP
100
AcDbCircle
 10
-15240.0
 20
-7620.0
 30
0.0
 40
325.0
  0
CIRCLE
  5
99
100
AcDbEntity
  8
PART_PADS_SMD_TOP
100
AcDbCircle
 10
-15240.0
 20
-8890.0
 30
0.0
 40
325.0
  0
CIRCLE
  5
9A
100
AcDbEntity
  8
PART_PADS_SMD_TOP
100
AcDbCircle
 10
-15240.0
 20
-10160.0
 30
0.0
 40
325.0
  0
CIRCLE
  5
9B
100
AcDbEntity
  8
PART_PADS_SMD_TOP
100
AcDbCircle
 10
-15240.0
 20
-11430.0
 30
0.0
 40
325.0
  0
CIRCLE
  5
9C
100
AcDbEntity
  8
PART_PADS_SMD_TOP
100
AcDbCircle
 10
-15240.0
 20
-12700.0
 30
0.0
 40
325.0
  0
CIRCLE
  5
9D
100
AcDbEntity
  8
PART_PADS_SMD_TOP
100
AcDbCircle
 10
-16510.0
 20
13335.0
 30
0.0
 40
325.0
  0
CIRCLE
  5
9E
100
AcDbEntity
  8
PART_PADS_SMD_TOP
100
AcDbCircle
 10
-16510.0
 20
12065.0
 30
0.0
 40
325.0
  0
CIRCLE
  5
9F
100
AcDbEntity
  8
PART_PADS_SMD_TOP
100
AcDbCircle
 10
-16510.0
 20
10795.0
 30
0.0
 40
325.0
  0
CIRCLE
  5
A0
100
AcDbEntity
  8
PART_PADS_SMD_TOP
100
AcDbCircle
 10
-16510.0
 20
9525.0
 30
0.0
 40
325.0
  0
CIRCLE
  5
A1
100
AcDbEntity
  8
PART_PADS_SMD_TOP
100
AcDbCircle
 10
-16510.0
 20
8255.0
 30
0.0
 40
325.0
  0
CIRCLE
  5
A2
100
AcDbEntity
  8
PART_PADS_SMD_TOP
100
AcDbCircle
 10
-16510.0
 20
6985.0
 30
0.0
 40
325.0
  0
CIRCLE
  5
A3
100
AcDbEntity
  8
PART_PADS_SMD_TOP
100
AcDbCircle
 10
-16510.0
 20
5715.0
 30
0.0
 40
325.0
  0
CIRCLE
  5
A4
100
AcDbEntity
  8
PART_PADS_SMD_TOP
100
AcDbCircle
 10
-16510.0
 20
4445.0
 30
0.0
 40
325.0
  0
CIRCLE
  5
A5
100
AcDbEntity
  8
PART_PADS_SMD_TOP
100
AcDbCircle
 10
-16510.0
 20
3175.0
 30
0.0
 40
325.0
  0
CIRCLE
  5
A6
100
AcDbEntity
  8
PART_PADS_SMD_TOP
100
AcDbCircle
 10
-16510.0
 20
1905.0
 30
0.0
 40
325.0
  0
CIRCLE
  5
A7
100
AcDbEntity
  8
PART_PADS_SMD_TOP
100
AcDbCircle
 10
-16510.0
 20
635.0
 30
0.0
 40
325.0
  0
CIRCLE
  5
A8
100
AcDbEntity
  8
PART_PADS_SMD_TOP
100
AcDbCircle
 10
-16510.0
 20
-635.0
 30
0.0
 40
325.0
  0
CIRCLE
  5
A9
100
AcDbEntity
  8
PART_PADS_SMD_TOP
100
AcDbCircle
 10
-16510.0
 20
-1905.0
 30
0.0
 40
325.0
  0
CIRCLE
  5
AA
100
AcDbEntity
  8
PART_PADS_SMD_TOP
100
AcDbCircle
 10
-16510.0
 20
-3175.0
 30
0.0
 40
325.0
  0
CIRCLE
  5
AB
100
AcDbEntity
  8
PART_PADS_SMD_TOP
100
AcDbCircle
 10
-16510.0
 20
-4445.0
 30
0.0
 40
325.0
  0
CIRCLE
  5
AC
100
AcDbEntity
  8
PART_PADS_SMD_TOP
100
AcDbCircle
 10
-16510.0
 20
-5715.0
 30
0.0
 40
325.0
  0
CIRCLE
  5
AD
100
AcDbEntity
  8
PART_PADS_SMD_TOP
100
AcDbCircle
 10
-16510.0
 20
-6985.0
 30
0.0
 40
325.0
  0
CIRCLE
  5
AE
100
AcDbEntity
  8
PART_PADS_SMD_TOP
100
AcDbCircle
 10
-16510.0
 20
-8255.0
 30
0.0
 40
325.0
  0
CIRCLE
  5
AF
100
AcDbEntity
  8
PART_PADS_SMD_TOP
100
AcDbCircle
 10
-16510.0
 20
-9525.0
 30
0.0
 40
325.0
  0
CIRCLE
  5
B0
100
AcDbEntity
  8
PART_PADS_SMD_TOP
100
AcDbCircle
 10
-16510.0
 20
-10795.0
 30
0.0
 40
325.0
  0
CIRCLE
  5
B1
100
AcDbEntity
  8
PART_PADS_SMD_TOP
100
AcDbCircle
 10
-16510.0
 20
-12065.0
 30
0.0
 40
325.0
  0
CIRCLE
  5
B2
100
AcDbEntity
  8
PART_PADS_SMD_TOP
100
AcDbCircle
 10
-16510.0
 20
-13335.0
 30
0.0
 40
325.0
  0
CIRCLE
  5
B3
100
AcDbEntity
  8
PART_PADS_SMD_TOP
100
AcDbCircle
 10
16510.0
 20
635.0
 30
0.0
 40
325.0
  0
CIRCLE
  5
B4
100
AcDbEntity
  8
PART_PADS_SMD_TOP
100
AcDbCircle
 10
16510.0
 20
-635.0
 30
0.0
 40
325.0
  0
CIRCLE
  5
B5
100
AcDbEntity
  8
PART_PADS_SMD_TOP
100
AcDbCircle
 10
16510.0
 20
-1905.0
 30
0.0
 40
325.0
  0
CIRCLE
  5
B6
100
AcDbEntity
  8
PART_PADS_SMD_TOP
100
AcDbCircle
 10
16510.0
 20
-3175.0
 30
0.0
 40
325.0
  0
CIRCLE
  5
B7
100
AcDbEntity
  8
PART_PADS_SMD_TOP
100
AcDbCircle
 10
16510.0
 20
-4445.0
 30
0.0
 40
325.0
  0
CIRCLE
  5
B8
100
AcDbEntity
  8
PART_PADS_SMD_TOP
100
AcDbCircle
 10
16510.0
 20
-5715.0
 30
0.0
 40
325.0
  0
CIRCLE
  5
B9
100
AcDbEntity
  8
PART_PADS_SMD_TOP
100
AcDbCircle
 10
16510.0
 20
-6985.0
 30
0.0
 40
325.0
  0
CIRCLE
  5
BA
100
AcDbEntity
  8
PART_PADS_SMD_TOP
100
AcDbCircle
 10
16510.0
 20
-8255.0
 30
0.0
 40
325.0
  0
CIRCLE
  5
BB
100
AcDbEntity
  8
PART_PADS_SMD_TOP
100
AcDbCircle
 10
16510.0
 20
-9525.0
 30
0.0
 40
325.0
  0
CIRCLE
  5
BC
100
AcDbEntity
  8
PART_PADS_SMD_TOP
100
AcDbCircle
 10
16510.0
 20
-10795.0
 30
0.0
 40
325.0
  0
CIRCLE
  5
BD
100
AcDbEntity
  8
PART_PADS_SMD_TOP
100
AcDbCircle
 10
16510.0
 20
-12065.0
 30
0.0
 40
325.0
  0
CIRCLE
  5
BE
100
AcDbEntity
  8
PART_PADS_SMD_TOP
100
AcDbCircle
 10
16510.0
 20
-13335.0
 30
0.0
 40
325.0
  0
CIRCLE
  5
BF
100
AcDbEntity
  8
PART_PADS_SMD_TOP
100
AcDbCircle
 10
-19050.0
 20
-635.0
 30
0.0
 40
325.0
  0
CIRCLE
  5
C0
100
AcDbEntity
  8
PART_PADS_SMD_TOP
100
AcDbCircle
 10
-19050.0
 20
-1905.0
 30
0.0
 40
325.0
  0
CIRCLE
  5
C1
100
AcDbEntity
  8
PART_PADS_SMD_TOP
100
AcDbCircle
 10
-19050.0
 20
-3175.0
 30
0.0
 40
325.0
  0
CIRCLE
  5
C2
100
AcDbEntity
  8
PART_PADS_SMD_TOP
100
AcDbCircle
 10
-19050.0
 20
-4445.0
 30
0.0
 40
325.0
  0
CIRCLE
  5
C3
100
AcDbEntity
  8
PART_PADS_SMD_TOP
100
AcDbCircle
 10
-19050.0
 20
-5715.0
 30
0.0
 40
325.0
  0
CIRCLE
  5
C4
100
AcDbEntity
  8
PART_PADS_SMD_TOP
100
AcDbCircle
 10
-19050.0
 20
-6985.0
 30
0.0
 40
325.0
  0
CIRCLE
  5
C5
100
AcDbEntity
  8
PART_PADS_SMD_TOP
100
AcDbCircle
 10
-19050.0
 20
-8255.0
 30
0.0
 40
325.0
  0
CIRCLE
  5
C6
100
AcDbEntity
  8
PART_PADS_SMD_TOP
100
AcDbCircle
 10
-19050.0
 20
-9525.0
 30
0.0
 40
325.0
  0
CIRCLE
  5
C7
100
AcDbEntity
  8
PART_PADS_SMD_TOP
100
AcDbCircle
 10
-15240.0
 20
21590.0
 30
0.0
 40
325.0
  0
CIRCLE
  5
C8
100
AcDbEntity
  8
PART_PADS_SMD_TOP
100
AcDbCircle
 10
-13970.0
 20
20955.0
 30
0.0
 40
325.0
  0
CIRCLE
  5
C9
100
AcDbEntity
  8
PART_PADS_SMD_TOP
100
AcDbCircle
 10
-12700.0
 20
21590.0
 30
0.0
 40
325.0
  0
CIRCLE
  5
CA
100
AcDbEntity
  8
PART_PADS_SMD_TOP
100
AcDbCircle
 10
-11430.0
 20
20955.0
 30
0.0
 40
325.0
  0
CIRCLE
  5
CB
100
AcDbEntity
  8
PART_PADS_SMD_TOP
100
AcDbCircle
 10
-10160.0
 20
21590.0
 30
0.0
 40
325.0
  0
CIRCLE
  5
CC
100
AcDbEntity
  8
PART_PADS_SMD_TOP
100
AcDbCircle
 10
-8890.0
 20
20955.0
 30
0.0
 40
325.0
  0
CIRCLE
  5
CD
100
AcDbEntity
  8
PART_PADS_SMD_TOP
100
AcDbCircle
 10
-7620.0
 20
21590.0
 30
0.0
 40
325.0
  0
CIRCLE
  5
CE
100
AcDbEntity
  8
PART_PADS_SMD_TOP
100
AcDbCircle
 10
-6350.0
 20
20955.0
 30
0.0
 40
325.0
  0
CIRCLE
  5
CF
100
AcDbEntity
  8
PART_PADS_SMD_TOP
100
AcDbCircle
 10
-5080.0
 20
21590.0
 30
0.0
 40
325.0
  0
CIRCLE
  5
D0
100
AcDbEntity
  8
PART_PADS_SMD_TOP
100
AcDbCircle
 10
-3810.0
 20
20955.0
 30
0.0
 40
325.0
  0
CIRCLE
  5
D1
100
AcDbEntity
  8
PART_PADS_SMD_TOP
100
AcDbCircle
 10
-2540.0
 20
21590.0
 30
0.0
 40
325.0
  0
CIRCLE
  5
D2
100
AcDbEntity
  8
PART_PADS_SMD_TOP
100
AcDbCircle
 10
-1270.0
 20
20955.0
 30
0.0
 40
325.0
  0
CIRCLE
  5
D3
100
AcDbEntity
  8
PART_PADS_SMD_TOP
100
AcDbCircle
 10
0.0
 20
21590.0
 30
0.0
 40
325.0
  0
CIRCLE
  5
D4
100
AcDbEntity
  8
PART_PADS_SMD_TOP
100
AcDbCircle
 10
1270.0
 20
20955.0
 30
0.0
 40
325.0
  0
CIRCLE
  5
D5
100
AcDbEntity
  8
PART_PADS_SMD_TOP
100
AcDbCircle
 10
2540.0
 20
21590.0
 30
0.0
 40
325.0
  0
CIRCLE
  5
D6
100
AcDbEntity
  8
PART_PADS_SMD_TOP
100
AcDbCircle
 10
3810.0
 20
20955.0
 30
0.0
 40
325.0
  0
CIRCLE
  5
D7
100
AcDbEntity
  8
PART_PADS_SMD_TOP
100
AcDbCircle
 10
5080.0
 20
21590.0
 30
0.0
 40
325.0
  0
CIRCLE
  5
D8
100
AcDbEntity
  8
PART_PADS_SMD_TOP
100
AcDbCircle
 10
6350.0
 20
20955.0
 30
0.0
 40
325.0
  0
CIRCLE
  5
D9
100
AcDbEntity
  8
PART_PADS_SMD_TOP
100
AcDbCircle
 10
7620.0
 20
21590.0
 30
0.0
 40
325.0
  0
CIRCLE
  5
DA
100
AcDbEntity
  8
PART_PADS_SMD_TOP
100
AcDbCircle
 10
8890.0
 20
20955.0
 30
0.0
 40
325.0
  0
CIRCLE
  5
DB
100
AcDbEntity
  8
PART_PADS_SMD_TOP
100
AcDbCircle
 10
10160.0
 20
21590.0
 30
0.0
 40
325.0
  0
CIRCLE
  5
DC
100
AcDbEntity
  8
PART_PADS_SMD_TOP
100
AcDbCircle
 10
11430.0
 20
20955.0
 30
0.0
 40
325.0
  0
CIRCLE
  5
DD
100
AcDbEntity
  8
PART_PADS_SMD_TOP
100
AcDbCircle
 10
12700.0
 20
21590.0
 30
0.0
 40
325.0
  0
CIRCLE
  5
DE
100
AcDbEntity
  8
PART_PADS_SMD_TOP
100
AcDbCircle
 10
13970.0
 20
20955.0
 30
0.0
 40
325.0
  0
CIRCLE
  5
DF
100
AcDbEntity
  8
PART_PADS_SMD_TOP
100
AcDbCircle
 10
15240.0
 20
21590.0
 30
0.0
 40
325.0
  0
CIRCLE
  5
E0
100
AcDbEntity
  8
PART_PADS_SMD_TOP
100
AcDbCircle
 10
-11430.0
 20
18415.0
 30
0.0
 40
325.0
  0
CIRCLE
  5
E1
100
AcDbEntity
  8
PART_PADS_SMD_TOP
100
AcDbCircle
 10
-11430.0
 20
17145.0
 30
0.0
 40
325.0
  0
CIRCLE
  5
E2
100
AcDbEntity
  8
PART_PADS_SMD_TOP
100
AcDbCircle
 10
-10160.0
 20
19050.0
 30
0.0
 40
325.0
  0
CIRCLE
  5
E3
100
AcDbEntity
  8
PART_PADS_SMD_TOP
100
AcDbCircle
 10
-10160.0
 20
17780.0
 30
0.0
 40
325.0
  0
CIRCLE
  5
E4
100
AcDbEntity
  8
PART_PADS_SMD_TOP
100
AcDbCircle
 10
-10160.0
 20
16510.0
 30
0.0
 40
325.0
  0
CIRCLE
  5
E5
100
AcDbEntity
  8
PART_PADS_SMD_TOP
100
AcDbCircle
 10
-8890.0
 20
18415.0
 30
0.0
 40
325.0
  0
CIRCLE
  5
E6
100
AcDbEntity
  8
PART_PADS_SMD_TOP
100
AcDbCircle
 10
-8890.0
 20
17145.0
 30
0.0
 40
325.0
  0
CIRCLE
  5
E7
100
AcDbEntity
  8
PART_PADS_SMD_TOP
100
AcDbCircle
 10
-8890.0
 20
15875.0
 30
0.0
 40
325.0
  0
CIRCLE
  5
E8
100
AcDbEntity
  8
PART_PADS_SMD_TOP
100
AcDbCircle
 10
-7620.0
 20
19050.0
 30
0.0
 40
325.0
  0
CIRCLE
  5
E9
100
AcDbEntity
  8
PART_PADS_SMD_TOP
100
AcDbCircle
 10
-7620.0
 20
17780.0
 30
0.0
 40
325.0
  0
CIRCLE
  5
EA
100
AcDbEntity
  8
PART_PADS_SMD_TOP
100
AcDbCircle
 10
-7620.0
 20
16510.0
 30
0.0
 40
325.0
  0
CIRCLE
  5
EB
100
AcDbEntity
  8
PART_PADS_SMD_TOP
100
AcDbCircle
 10
-6350.0
 20
18415.0
 30
0.0
 40
325.0
  0
CIRCLE
  5
EC
100
AcDbEntity
  8
PART_PADS_SMD_TOP
100
AcDbCircle
 10
-6350.0
 20
17145.0
 30
0.0
 40
325.0
  0
CIRCLE
  5
ED
100
AcDbEntity
  8
PART_PADS_SMD_TOP
100
AcDbCircle
 10
-6350.0
 20
15875.0
 30
0.0
 40
325.0
  0
CIRCLE
  5
EE
100
AcDbEntity
  8
PART_PADS_SMD_TOP
100
AcDbCircle
 10
-5080.0
 20
19050.0
 30
0.0
 40
325.0
  0
CIRCLE
  5
EF
100
AcDbEntity
  8
PART_PADS_SMD_TOP
100
AcDbCircle
 10
-5080.0
 20
17780.0
 30
0.0
 40
325.0
  0
CIRCLE
  5
F0
100
AcDbEntity
  8
PART_PADS_SMD_TOP
100
AcDbCircle
 10
-5080.0
 20
16510.0
 30
0.0
 40
325.0
  0
CIRCLE
  5
F1
100
AcDbEntity
  8
PART_PADS_SMD_TOP
100
AcDbCircle
 10
-3810.0
 20
18415.0
 30
0.0
 40
325.0
  0
CIRCLE
  5
F2
100
AcDbEntity
  8
PART_PADS_SMD_TOP
100
AcDbCircle
 10
-3810.0
 20
17145.0
 30
0.0
 40
325.0
  0
CIRCLE
  5
F3
100
AcDbEntity
  8
PART_PADS_SMD_TOP
100
AcDbCircle
 10
-3810.0
 20
15875.0
 30
0.0
 40
325.0
  0
CIRCLE
  5
F4
100
AcDbEntity
  8
PART_PADS_SMD_TOP
100
AcDbCircle
 10
-2540.0
 20
19050.0
 30
0.0
 40
325.0
  0
CIRCLE
  5
F5
100
AcDbEntity
  8
PART_PADS_SMD_TOP
100
AcDbCircle
 10
-2540.0
 20
17780.0
 30
0.0
 40
325.0
  0
CIRCLE
  5
F6
100
AcDbEntity
  8
PART_PADS_SMD_TOP
100
AcDbCircle
 10
-2540.0
 20
16510.0
 30
0.0
 40
325.0
  0
CIRCLE
  5
F7
100
AcDbEntity
  8
PART_PADS_SMD_TOP
100
AcDbCircle
 10
-1270.0
 20
18415.0
 30
0.0
 40
325.0
  0
CIRCLE
  5
F8
100
AcDbEntity
  8
PART_PADS_SMD_TOP
100
AcDbCircle
 10
-1270.0
 20
17145.0
 30
0.0
 40
325.0
  0
CIRCLE
  5
F9
100
AcDbEntity
  8
PART_PADS_SMD_TOP
100
AcDbCircle
 10
-1270.0
 20
15875.0
 30
0.0
 40
325.0
  0
CIRCLE
  5
FA
100
AcDbEntity
  8
PART_PADS_SMD_TOP
100
AcDbCircle
 10
0.0
 20
19050.0
 30
0.0
 40
325.0
  0
CIRCLE
  5
FB
100
AcDbEntity
  8
PART_PADS_SMD_TOP
100
AcDbCircle
 10
0.0
 20
17780.0
 30
0.0
 40
325.0
  0
CIRCLE
  5
FC
100
AcDbEntity
  8
PART_PADS_SMD_TOP
100
AcDbCircle
 10
0.0
 20
16510.0
 30
0.0
 40
325.0
  0
CIRCLE
  5
FD
100
AcDbEntity
  8
PART_PADS_SMD_TOP
100
AcDbCircle
 10
1270.0
 20
18415.0
 30
0.0
 40
325.0
  0
CIRCLE
  5
FE
100
AcDbEntity
  8
PART_PADS_SMD_TOP
100
AcDbCircle
 10
1270.0
 20
17145.0
 30
0.0
 40
325.0
  0
CIRCLE
  5
FF
100
AcDbEntity
  8
PART_PADS_SMD_TOP
100
AcDbCircle
 10
1270.0
 20
15875.0
 30
0.0
 40
325.0
  0
CIRCLE
  5
100
100
AcDbEntity
  8
PART_PADS_SMD_TOP
100
AcDbCircle
 10
2540.0
 20
19050.0
 30
0.0
 40
325.0
  0
CIRCLE
  5
101
100
AcDbEntity
  8
PART_PADS_SMD_TOP
100
AcDbCircle
 10
2540.0
 20
17780.0
 30
0.0
 40
325.0
  0
CIRCLE
  5
102
100
AcDbEntity
  8
PART_PADS_SMD_TOP
100
AcDbCircle
 10
2540.0
 20
16510.0
 30
0.0
 40
325.0
  0
CIRCLE
  5
103
100
AcDbEntity
  8
PART_PADS_SMD_TOP
100
AcDbCircle
 10
3810.0
 20
18415.0
 30
0.0
 40
325.0
  0
CIRCLE
  5
104
100
AcDbEntity
  8
PART_PADS_SMD_TOP
100
AcDbCircle
 10
3810.0
 20
17145.0
 30
0.0
 40
325.0
  0
CIRCLE
  5
105
100
AcDbEntity
  8
PART_PADS_SMD_TOP
100
AcDbCircle
 10
3810.0
 20
15875.0
 30
0.0
 40
325.0
  0
CIRCLE
  5
106
100
AcDbEntity
  8
PART_PADS_SMD_TOP
100
AcDbCircle
 10
5080.0
 20
19050.0
 30
0.0
 40
325.0
  0
CIRCLE
  5
107
100
AcDbEntity
  8
PART_PADS_SMD_TOP
100
AcDbCircle
 10
5080.0
 20
17780.0
 30
0.0
 40
325.0
  0
CIRCLE
  5
108
100
AcDbEntity
  8
PART_PADS_SMD_TOP
100
AcDbCircle
 10
5080.0
 20
16510.0
 30
0.0
 40
325.0
  0
CIRCLE
  5
109
100
AcDbEntity
  8
PART_PADS_SMD_TOP
100
AcDbCircle
 10
6350.0
 20
18415.0
 30
0.0
 40
325.0
  0
CIRCLE
  5
10A
100
AcDbEntity
  8
PART_PADS_SMD_TOP
100
AcDbCircle
 10
6350.0
 20
17145.0
 30
0.0
 40
325.0
  0
CIRCLE
  5
10B
100
AcDbEntity
  8
PART_PADS_SMD_TOP
100
AcDbCircle
 10
6350.0
 20
15875.0
 30
0.0
 40
325.0
  0
CIRCLE
  5
10C
100
AcDbEntity
  8
PART_PADS_SMD_TOP
100
AcDbCircle
 10
7620.0
 20
19050.0
 30
0.0
 40
325.0
  0
CIRCLE
  5
10D
100
AcDbEntity
  8
PART_PADS_SMD_TOP
100
AcDbCircle
 10
7620.0
 20
17780.0
 30
0.0
 40
325.0
  0
CIRCLE
  5
10E
100
AcDbEntity
  8
PART_PADS_SMD_TOP
100
AcDbCircle
 10
7620.0
 20
16510.0
 30
0.0
 40
325.0
  0
CIRCLE
  5
10F
100
AcDbEntity
  8
PART_PADS_SMD_TOP
100
AcDbCircle
 10
8890.0
 20
18415.0
 30
0.0
 40
325.0
  0
CIRCLE
  5
110
100
AcDbEntity
  8
PART_PADS_SMD_TOP
100
AcDbCircle
 10
8890.0
 20
17145.0
 30
0.0
 40
325.0
  0
CIRCLE
  5
111
100
AcDbEntity
  8
PART_PADS_SMD_TOP
100
AcDbCircle
 10
8890.0
 20
15875.0
 30
0.0
 40
325.0
  0
CIRCLE
  5
112
100
AcDbEntity
  8
PART_PADS_SMD_TOP
100
AcDbCircle
 10
10160.0
 20
19050.0
 30
0.0
 40
325.0
  0
CIRCLE
  5
113
100
AcDbEntity
  8
PART_PADS_SMD_TOP
100
AcDbCircle
 10
10160.0
 20
17780.0
 30
0.0
 40
325.0
  0
CIRCLE
  5
114
100
AcDbEntity
  8
PART_PADS_SMD_TOP
100
AcDbCircle
 10
10160.0
 20
16510.0
 30
0.0
 40
325.0
  0
CIRCLE
  5
115
100
AcDbEntity
  8
PART_PADS_SMD_TOP
100
AcDbCircle
 10
11430.0
 20
18415.0
 30
0.0
 40
325.0
  0
CIRCLE
  5
116
100
AcDbEntity
  8
PART_PADS_SMD_TOP
100
AcDbCircle
 10
11430.0
 20
17145.0
 30
0.0
 40
325.0
  0
CIRCLE
  5
117
100
AcDbEntity
  8
PART_PADS_SMD_TOP
100
AcDbCircle
 10
-11430.0
 20
12065.0
 30
0.0
 40
325.0
  0
CIRCLE
  5
118
100
AcDbEntity
  8
PART_PADS_SMD_TOP
100
AcDbCircle
 10
-11430.0
 20
10795.0
 30
0.0
 40
325.0
  0
CIRCLE
  5
119
100
AcDbEntity
  8
PART_PADS_SMD_TOP
100
AcDbCircle
 10
-11430.0
 20
9525.0
 30
0.0
 40
325.0
  0
CIRCLE
  5
11A
100
AcDbEntity
  8
PART_PADS_SMD_TOP
100
AcDbCircle
 10
-11430.0
 20
8255.0
 30
0.0
 40
325.0
  0
CIRCLE
  5
11B
100
AcDbEntity
  8
PART_PADS_SMD_TOP
100
AcDbCircle
 10
-11430.0
 20
6985.0
 30
0.0
 40
325.0
  0
CIRCLE
  5
11C
100
AcDbEntity
  8
PART_PADS_SMD_TOP
100
AcDbCircle
 10
-11430.0
 20
5715.0
 30
0.0
 40
325.0
  0
CIRCLE
  5
11D
100
AcDbEntity
  8
PART_PADS_SMD_TOP
100
AcDbCircle
 10
-11430.0
 20
4445.0
 30
0.0
 40
325.0
  0
CIRCLE
  5
11E
100
AcDbEntity
  8
PART_PADS_SMD_TOP
100
AcDbCircle
 10
-11430.0
 20
3175.0
 30
0.0
 40
325.0
  0
CIRCLE
  5
11F
100
AcDbEntity
  8
PART_PADS_SMD_TOP
100
AcDbCircle
 10
-11430.0
 20
1905.0
 30
0.0
 40
325.0
  0
CIRCLE
  5
120
100
AcDbEntity
  8
PART_PADS_SMD_TOP
100
AcDbCircle
 10
-11430.0
 20
635.0
 30
0.0
 40
325.0
  0
CIRCLE
  5
121
100
AcDbEntity
  8
PART_PADS_SMD_TOP
100
AcDbCircle
 10
-11430.0
 20
-635.0
 30
0.0
 40
325.0
  0
CIRCLE
  5
122
100
AcDbEntity
  8
PART_PADS_SMD_TOP
100
AcDbCircle
 10
-11430.0
 20
-1905.0
 30
0.0
 40
325.0
  0
CIRCLE
  5
123
100
AcDbEntity
  8
PART_PADS_SMD_TOP
100
AcDbCircle
 10
-11430.0
 20
-3175.0
 30
0.0
 40
325.0
  0
CIRCLE
  5
124
100
AcDbEntity
  8
PART_PADS_SMD_TOP
100
AcDbCircle
 10
-11430.0
 20
-4445.0
 30
0.0
 40
325.0
  0
CIRCLE
  5
125
100
AcDbEntity
  8
PART_PADS_SMD_TOP
100
AcDbCircle
 10
-11430.0
 20
-5715.0
 30
0.0
 40
325.0
  0
CIRCLE
  5
126
100
AcDbEntity
  8
PART_PADS_SMD_TOP
100
AcDbCircle
 10
-11430.0
 20
-6985.0
 30
0.0
 40
325.0
  0
CIRCLE
  5
127
100
AcDbEntity
  8
PART_PADS_SMD_TOP
100
AcDbCircle
 10
-11430.0
 20
-8255.0
 30
0.0
 40
325.0
  0
CIRCLE
  5
128
100
AcDbEntity
  8
PART_PADS_SMD_TOP
100
AcDbCircle
 10
-11430.0
 20
-9525.0
 30
0.0
 40
325.0
  0
CIRCLE
  5
129
100
AcDbEntity
  8
PART_PADS_SMD_TOP
100
AcDbCircle
 10
-11430.0
 20
-10795.0
 30
0.0
 40
325.0
  0
CIRCLE
  5
12A
100
AcDbEntity
  8
PART_PADS_SMD_TOP
100
AcDbCircle
 10
-11430.0
 20
-12065.0
 30
0.0
 40
325.0
  0
CIRCLE
  5
12B
100
AcDbEntity
  8
PART_PADS_SMD_TOP
100
AcDbCircle
 10
-10160.0
 20
12700.0
 30
0.0
 40
325.0
  0
CIRCLE
  5
12C
100
AcDbEntity
  8
PART_PADS_SMD_TOP
100
AcDbCircle
 10
-10160.0
 20
11430.0
 30
0.0
 40
325.0
  0
CIRCLE
  5
12D
100
AcDbEntity
  8
PART_PADS_SMD_TOP
100
AcDbCircle
 10
-10160.0
 20
10160.0
 30
0.0
 40
325.0
  0
CIRCLE
  5
12E
100
AcDbEntity
  8
PART_PADS_SMD_TOP
100
AcDbCircle
 10
-10160.0
 20
8890.0
 30
0.0
 40
325.0
  0
CIRCLE
  5
12F
100
AcDbEntity
  8
PART_PADS_SMD_TOP
100
AcDbCircle
 10
-10160.0
 20
7620.0
 30
0.0
 40
325.0
  0
CIRCLE
  5
130
100
AcDbEntity
  8
PART_PADS_SMD_TOP
100
AcDbCircle
 10
-10160.0
 20
6350.0
 30
0.0
 40
325.0
  0
CIRCLE
  5
131
100
AcDbEntity
  8
PART_PADS_SMD_TOP
100
AcDbCircle
 10
-10160.0
 20
5080.0
 30
0.0
 40
325.0
  0
CIRCLE
  5
132
100
AcDbEntity
  8
PART_PADS_SMD_TOP
100
AcDbCircle
 10
-10160.0
 20
3810.0
 30
0.0
 40
325.0
  0
CIRCLE
  5
133
100
AcDbEntity
  8
PART_PADS_SMD_TOP
100
AcDbCircle
 10
-10160.0
 20
2540.0
 30
0.0
 40
325.0
  0
CIRCLE
  5
134
100
AcDbEntity
  8
PART_PADS_SMD_TOP
100
AcDbCircle
 10
-10160.0
 20
1270.0
 30
0.0
 40
325.0
  0
CIRCLE
  5
135
100
AcDbEntity
  8
PART_PADS_SMD_TOP
100
AcDbCircle
 10
-10160.0
 20
0.0
 30
0.0
 40
325.0
  0
CIRCLE
  5
136
100
AcDbEntity
  8
PART_PADS_SMD_TOP
100
AcDbCircle
 10
-10160.0
 20
-1270.0
 30
0.0
 40
325.0
  0
CIRCLE
  5
137
100
AcDbEntity
  8
PART_PADS_SMD_TOP
100
AcDbCircle
 10
-10160.0
 20
-2540.0
 30
0.0
 40
325.0
  0
CIRCLE
  5
138
100
AcDbEntity
  8
PART_PADS_SMD_TOP
100
AcDbCircle
 10
-10160.0
 20
-3810.0
 30
0.0
 40
325.0
  0
CIRCLE
  5
139
100
AcDbEntity
  8
PART_PADS_SMD_TOP
100
AcDbCircle
 10
-10160.0
 20
-5080.0
 30
0.0
 40
325.0
  0
CIRCLE
  5
13A
100
AcDbEntity
  8
PART_PADS_SMD_TOP
100
AcDbCircle
 10
-10160.0
 20
-6350.0
 30
0.0
 40
325.0
  0
CIRCLE
  5
13B
100
AcDbEntity
  8
PART_PADS_SMD_TOP
100
AcDbCircle
 10
-10160.0
 20
-7620.0
 30
0.0
 40
325.0
  0
CIRCLE
  5
13C
100
AcDbEntity
  8
PART_PADS_SMD_TOP
100
AcDbCircle
 10
-10160.0
 20
-8890.0
 30
0.0
 40
325.0
  0
CIRCLE
  5
13D
100
AcDbEntity
  8
PART_PADS_SMD_TOP
100
AcDbCircle
 10
-10160.0
 20
-10160.0
 30
0.0
 40
325.0
  0
CIRCLE
  5
13E
100
AcDbEntity
  8
PART_PADS_SMD_TOP
100
AcDbCircle
 10
-10160.0
 20
-11430.0
 30
0.0
 40
325.0
  0
CIRCLE
  5
13F
100
AcDbEntity
  8
PART_PADS_SMD_TOP
100
AcDbCircle
 10
-10160.0
 20
-12700.0
 30
0.0
 40
325.0
  0
CIRCLE
  5
140
100
AcDbEntity
  8
PART_PADS_SMD_TOP
100
AcDbCircle
 10
-8890.0
 20
13335.0
 30
0.0
 40
325.0
  0
CIRCLE
  5
141
100
AcDbEntity
  8
PART_PADS_SMD_TOP
100
AcDbCircle
 10
-8890.0
 20
12065.0
 30
0.0
 40
325.0
  0
CIRCLE
  5
142
100
AcDbEntity
  8
PART_PADS_SMD_TOP
100
AcDbCircle
 10
-8890.0
 20
10795.0
 30
0.0
 40
325.0
  0
CIRCLE
  5
143
100
AcDbEntity
  8
PART_PADS_SMD_TOP
100
AcDbCircle
 10
-8890.0
 20
9525.0
 30
0.0
 40
325.0
  0
CIRCLE
  5
144
100
AcDbEntity
  8
PART_PADS_SMD_TOP
100
AcDbCircle
 10
-8890.0
 20
8255.0
 30
0.0
 40
325.0
  0
CIRCLE
  5
145
100
AcDbEntity
  8
PART_PADS_SMD_TOP
100
AcDbCircle
 10
-8890.0
 20
6985.0
 30
0.0
 40
325.0
  0
CIRCLE
  5
146
100
AcDbEntity
  8
PART_PADS_SMD_TOP
100
AcDbCircle
 10
-8890.0
 20
5715.0
 30
0.0
 40
325.0
  0
CIRCLE
  5
147
100
AcDbEntity
  8
PART_PADS_SMD_TOP
100
AcDbCircle
 10
-8890.0
 20
4445.0
 30
0.0
 40
325.0
  0
CIRCLE
  5
148
100
AcDbEntity
  8
PART_PADS_SMD_TOP
100
AcDbCircle
 10
-8890.0
 20
3175.0
 30
0.0
 40
325.0
  0
CIRCLE
  5
149
100
AcDbEntity
  8
PART_PADS_SMD_TOP
100
AcDbCircle
 10
-8890.0
 20
1905.0
 30
0.0
 40
325.0
  0
CIRCLE
  5
14A
100
AcDbEntity
  8
PART_PADS_SMD_TOP
100
AcDbCircle
 10
-8890.0
 20
635.0
 30
0.0
 40
325.0
  0
CIRCLE
  5
14B
100
AcDbEntity
  8
PART_PADS_SMD_TOP
100
AcDbCircle
 10
-8890.0
 20
-635.0
 30
0.0
 40
325.0
  0
CIRCLE
  5
14C
100
AcDbEntity
  8
PART_PADS_SMD_TOP
100
AcDbCircle
 10
-8890.0
 20
-1905.0
 30
0.0
 40
325.0
  0
CIRCLE
  5
14D
100
AcDbEntity
  8
PART_PADS_SMD_TOP
100
AcDbCircle
 10
-8890.0
 20
-3175.0
 30
0.0
 40
325.0
  0
CIRCLE
  5
14E
100
AcDbEntity
  8
PART_PADS_SMD_TOP
100
AcDbCircle
 10
-8890.0
 20
-4445.0
 30
0.0
 40
325.0
  0
CIRCLE
  5
14F
100
AcDbEntity
  8
PART_PADS_SMD_TOP
100
AcDbCircle
 10
-8890.0
 20
-5715.0
 30
0.0
 40
325.0
  0
CIRCLE
  5
150
100
AcDbEntity
  8
PART_PADS_SMD_TOP
100
AcDbCircle
 10
-8890.0
 20
-6985.0
 30
0.0
 40
325.0
  0
CIRCLE
  5
151
100
AcDbEntity
  8
PART_PADS_SMD_TOP
100
AcDbCircle
 10
-8890.0
 20
-8255.0
 30
0.0
 40
325.0
  0
CIRCLE
  5
152
100
AcDbEntity
  8
PART_PADS_SMD_TOP
100
AcDbCircle
 10
-8890.0
 20
-9525.0
 30
0.0
 40
325.0
  0
CIRCLE
  5
153
100
AcDbEntity
  8
PART_PADS_SMD_TOP
100
AcDbCircle
 10
-8890.0
 20
-10795.0
 30
0.0
 40
325.0
  0
CIRCLE
  5
154
100
AcDbEntity
  8
PART_PADS_SMD_TOP
100
AcDbCircle
 10
-8890.0
 20
-12065.0
 30
0.0
 40
325.0
  0
CIRCLE
  5
155
100
AcDbEntity
  8
PART_PADS_SMD_TOP
100
AcDbCircle
 10
-8890.0
 20
-13335.0
 30
0.0
 40
325.0
  0
CIRCLE
  5
156
100
AcDbEntity
  8
PART_PADS_SMD_TOP
100
AcDbCircle
 10
-7620.0
 20
12700.0
 30
0.0
 40
325.0
  0
CIRCLE
  5
157
100
AcDbEntity
  8
PART_PADS_SMD_TOP
100
AcDbCircle
 10
-7620.0
 20
11430.0
 30
0.0
 40
325.0
  0
CIRCLE
  5
158
100
AcDbEntity
  8
PART_PADS_SMD_TOP
100
AcDbCircle
 10
-7620.0
 20
10160.0
 30
0.0
 40
325.0
  0
CIRCLE
  5
159
100
AcDbEntity
  8
PART_PADS_SMD_TOP
100
AcDbCircle
 10
-6350.0
 20
13335.0
 30
0.0
 40
325.0
  0
CIRCLE
  5
15A
100
AcDbEntity
  8
PART_PADS_SMD_TOP
100
AcDbCircle
 10
-6350.0
 20
12065.0
 30
0.0
 40
325.0
  0
CIRCLE
  5
15B
100
AcDbEntity
  8
PART_PADS_SMD_TOP
100
AcDbCircle
 10
-6350.0
 20
10795.0
 30
0.0
 40
325.0
  0
CIRCLE
  5
15C
100
AcDbEntity
  8
PART_PADS_SMD_TOP
100
AcDbCircle
 10
-5080.0
 20
12700.0
 30
0.0
 40
325.0
  0
CIRCLE
  5
15D
100
AcDbEntity
  8
PART_PADS_SMD_TOP
100
AcDbCircle
 10
-5080.0
 20
11430.0
 30
0.0
 40
325.0
  0
CIRCLE
  5
15E
100
AcDbEntity
  8
PART_PADS_SMD_TOP
100
AcDbCircle
 10
-5080.0
 20
10160.0
 30
0.0
 40
325.0
  0
CIRCLE
  5
15F
100
AcDbEntity
  8
PART_PADS_SMD_TOP
100
AcDbCircle
 10
-3810.0
 20
13335.0
 30
0.0
 40
325.0
  0
CIRCLE
  5
160
100
AcDbEntity
  8
PART_PADS_SMD_TOP
100
AcDbCircle
 10
-3810.0
 20
12065.0
 30
0.0
 40
325.0
  0
CIRCLE
  5
161
100
AcDbEntity
  8
PART_PADS_SMD_TOP
100
AcDbCircle
 10
-3810.0
 20
10795.0
 30
0.0
 40
325.0
  0
CIRCLE
  5
162
100
AcDbEntity
  8
PART_PADS_SMD_TOP
100
AcDbCircle
 10
-2540.0
 20
12700.0
 30
0.0
 40
325.0
  0
CIRCLE
  5
163
100
AcDbEntity
  8
PART_PADS_SMD_TOP
100
AcDbCircle
 10
-2540.0
 20
11430.0
 30
0.0
 40
325.0
  0
CIRCLE
  5
164
100
AcDbEntity
  8
PART_PADS_SMD_TOP
100
AcDbCircle
 10
-2540.0
 20
10160.0
 30
0.0
 40
325.0
  0
CIRCLE
  5
165
100
AcDbEntity
  8
PART_PADS_SMD_TOP
100
AcDbCircle
 10
-1270.0
 20
13335.0
 30
0.0
 40
325.0
  0
CIRCLE
  5
166
100
AcDbEntity
  8
PART_PADS_SMD_TOP
100
AcDbCircle
 10
-1270.0
 20
12065.0
 30
0.0
 40
325.0
  0
CIRCLE
  5
167
100
AcDbEntity
  8
PART_PADS_SMD_TOP
100
AcDbCircle
 10
-1270.0
 20
10795.0
 30
0.0
 40
325.0
  0
CIRCLE
  5
168
100
AcDbEntity
  8
PART_PADS_SMD_TOP
100
AcDbCircle
 10
0.0
 20
12700.0
 30
0.0
 40
325.0
  0
CIRCLE
  5
169
100
AcDbEntity
  8
PART_PADS_SMD_TOP
100
AcDbCircle
 10
0.0
 20
11430.0
 30
0.0
 40
325.0
  0
CIRCLE
  5
16A
100
AcDbEntity
  8
PART_PADS_SMD_TOP
100
AcDbCircle
 10
0.0
 20
10160.0
 30
0.0
 40
325.0
  0
CIRCLE
  5
16B
100
AcDbEntity
  8
PART_PADS_SMD_TOP
100
AcDbCircle
 10
1270.0
 20
13335.0
 30
0.0
 40
325.0
  0
CIRCLE
  5
16C
100
AcDbEntity
  8
PART_PADS_SMD_TOP
100
AcDbCircle
 10
1270.0
 20
12065.0
 30
0.0
 40
325.0
  0
CIRCLE
  5
16D
100
AcDbEntity
  8
PART_PADS_SMD_TOP
100
AcDbCircle
 10
1270.0
 20
10795.0
 30
0.0
 40
325.0
  0
CIRCLE
  5
16E
100
AcDbEntity
  8
PART_PADS_SMD_TOP
100
AcDbCircle
 10
2540.0
 20
12700.0
 30
0.0
 40
325.0
  0
CIRCLE
  5
16F
100
AcDbEntity
  8
PART_PADS_SMD_TOP
100
AcDbCircle
 10
2540.0
 20
11430.0
 30
0.0
 40
325.0
  0
CIRCLE
  5
170
100
AcDbEntity
  8
PART_PADS_SMD_TOP
100
AcDbCircle
 10
2540.0
 20
10160.0
 30
0.0
 40
325.0
  0
CIRCLE
  5
171
100
AcDbEntity
  8
PART_PADS_SMD_TOP
100
AcDbCircle
 10
5080.0
 20
12700.0
 30
0.0
 40
325.0
  0
CIRCLE
  5
172
100
AcDbEntity
  8
PART_PADS_SMD_TOP
100
AcDbCircle
 10
5080.0
 20
11430.0
 30
0.0
 40
325.0
  0
CIRCLE
  5
173
100
AcDbEntity
  8
PART_PADS_SMD_TOP
100
AcDbCircle
 10
5080.0
 20
10160.0
 30
0.0
 40
325.0
  0
CIRCLE
  5
174
100
AcDbEntity
  8
PART_PADS_SMD_TOP
100
AcDbCircle
 10
6350.0
 20
13335.0
 30
0.0
 40
325.0
  0
CIRCLE
  5
175
100
AcDbEntity
  8
PART_PADS_SMD_TOP
100
AcDbCircle
 10
6350.0
 20
12065.0
 30
0.0
 40
325.0
  0
CIRCLE
  5
176
100
AcDbEntity
  8
PART_PADS_SMD_TOP
100
AcDbCircle
 10
6350.0
 20
10795.0
 30
0.0
 40
325.0
  0
CIRCLE
  5
177
100
AcDbEntity
  8
PART_PADS_SMD_TOP
100
AcDbCircle
 10
7620.0
 20
12700.0
 30
0.0
 40
325.0
  0
CIRCLE
  5
178
100
AcDbEntity
  8
PART_PADS_SMD_TOP
100
AcDbCircle
 10
7620.0
 20
11430.0
 30
0.0
 40
325.0
  0
CIRCLE
  5
179
100
AcDbEntity
  8
PART_PADS_SMD_TOP
100
AcDbCircle
 10
7620.0
 20
10160.0
 30
0.0
 40
325.0
  0
CIRCLE
  5
17A
100
AcDbEntity
  8
PART_PADS_SMD_TOP
100
AcDbCircle
 10
8890.0
 20
13335.0
 30
0.0
 40
325.0
  0
CIRCLE
  5
17B
100
AcDbEntity
  8
PART_PADS_SMD_TOP
100
AcDbCircle
 10
8890.0
 20
12065.0
 30
0.0
 40
325.0
  0
CIRCLE
  5
17C
100
AcDbEntity
  8
PART_PADS_SMD_TOP
100
AcDbCircle
 10
8890.0
 20
10795.0
 30
0.0
 40
325.0
  0
CIRCLE
  5
17D
100
AcDbEntity
  8
PART_PADS_SMD_TOP
100
AcDbCircle
 10
8890.0
 20
8255.0
 30
0.0
 40
325.0
  0
CIRCLE
  5
17E
100
AcDbEntity
  8
PART_PADS_SMD_TOP
100
AcDbCircle
 10
8890.0
 20
6985.0
 30
0.0
 40
325.0
  0
CIRCLE
  5
17F
100
AcDbEntity
  8
PART_PADS_SMD_TOP
100
AcDbCircle
 10
8890.0
 20
5715.0
 30
0.0
 40
325.0
  0
CIRCLE
  5
180
100
AcDbEntity
  8
PART_PADS_SMD_TOP
100
AcDbCircle
 10
8890.0
 20
4445.0
 30
0.0
 40
325.0
  0
CIRCLE
  5
181
100
AcDbEntity
  8
PART_PADS_SMD_TOP
100
AcDbCircle
 10
8890.0
 20
3175.0
 30
0.0
 40
325.0
  0
CIRCLE
  5
182
100
AcDbEntity
  8
PART_PADS_SMD_TOP
100
AcDbCircle
 10
8890.0
 20
1905.0
 30
0.0
 40
325.0
  0
CIRCLE
  5
183
100
AcDbEntity
  8
PART_PADS_SMD_TOP
100
AcDbCircle
 10
8890.0
 20
635.0
 30
0.0
 40
325.0
  0
CIRCLE
  5
184
100
AcDbEntity
  8
PART_PADS_SMD_TOP
100
AcDbCircle
 10
8890.0
 20
-635.0
 30
0.0
 40
325.0
  0
CIRCLE
  5
185
100
AcDbEntity
  8
PART_PADS_SMD_TOP
100
AcDbCircle
 10
8890.0
 20
-1905.0
 30
0.0
 40
325.0
  0
CIRCLE
  5
186
100
AcDbEntity
  8
PART_PADS_SMD_TOP
100
AcDbCircle
 10
8890.0
 20
-3175.0
 30
0.0
 40
325.0
  0
CIRCLE
  5
187
100
AcDbEntity
  8
PART_PADS_SMD_TOP
100
AcDbCircle
 10
8890.0
 20
-4445.0
 30
0.0
 40
325.0
  0
CIRCLE
  5
188
100
AcDbEntity
  8
PART_PADS_SMD_TOP
100
AcDbCircle
 10
8890.0
 20
-5715.0
 30
0.0
 40
325.0
  0
CIRCLE
  5
189
100
AcDbEntity
  8
PART_PADS_SMD_TOP
100
AcDbCircle
 10
8890.0
 20
-6985.0
 30
0.0
 40
325.0
  0
CIRCLE
  5
18A
100
AcDbEntity
  8
PART_PADS_SMD_TOP
100
AcDbCircle
 10
8890.0
 20
-8255.0
 30
0.0
 40
325.0
  0
CIRCLE
  5
18B
100
AcDbEntity
  8
PART_PADS_SMD_TOP
100
AcDbCircle
 10
8890.0
 20
-9525.0
 30
0.0
 40
325.0
  0
CIRCLE
  5
18C
100
AcDbEntity
  8
PART_PADS_SMD_TOP
100
AcDbCircle
 10
8890.0
 20
-10795.0
 30
0.0
 40
325.0
  0
CIRCLE
  5
18D
100
AcDbEntity
  8
PART_PADS_SMD_TOP
100
AcDbCircle
 10
8890.0
 20
-12065.0
 30
0.0
 40
325.0
  0
CIRCLE
  5
18E
100
AcDbEntity
  8
PART_PADS_SMD_TOP
100
AcDbCircle
 10
8890.0
 20
-13335.0
 30
0.0
 40
325.0
  0
CIRCLE
  5
18F
100
AcDbEntity
  8
PART_PADS_SMD_TOP
100
AcDbCircle
 10
10160.0
 20
12700.0
 30
0.0
 40
325.0
  0
CIRCLE
  5
190
100
AcDbEntity
  8
PART_PADS_SMD_TOP
100
AcDbCircle
 10
10160.0
 20
11430.0
 30
0.0
 40
325.0
  0
CIRCLE
  5
191
100
AcDbEntity
  8
PART_PADS_SMD_TOP
100
AcDbCircle
 10
10160.0
 20
10160.0
 30
0.0
 40
325.0
  0
CIRCLE
  5
192
100
AcDbEntity
  8
PART_PADS_SMD_TOP
100
AcDbCircle
 10
10160.0
 20
8890.0
 30
0.0
 40
325.0
  0
CIRCLE
  5
193
100
AcDbEntity
  8
PART_PADS_SMD_TOP
100
AcDbCircle
 10
10160.0
 20
7620.0
 30
0.0
 40
325.0
  0
CIRCLE
  5
194
100
AcDbEntity
  8
PART_PADS_SMD_TOP
100
AcDbCircle
 10
10160.0
 20
6350.0
 30
0.0
 40
325.0
  0
CIRCLE
  5
195
100
AcDbEntity
  8
PART_PADS_SMD_TOP
100
AcDbCircle
 10
10160.0
 20
5080.0
 30
0.0
 40
325.0
  0
CIRCLE
  5
196
100
AcDbEntity
  8
PART_PADS_SMD_TOP
100
AcDbCircle
 10
10160.0
 20
3810.0
 30
0.0
 40
325.0
  0
CIRCLE
  5
197
100
AcDbEntity
  8
PART_PADS_SMD_TOP
100
AcDbCircle
 10
10160.0
 20
2540.0
 30
0.0
 40
325.0
  0
CIRCLE
  5
198
100
AcDbEntity
  8
PART_PADS_SMD_TOP
100
AcDbCircle
 10
10160.0
 20
1270.0
 30
0.0
 40
325.0
  0
CIRCLE
  5
199
100
AcDbEntity
  8
PART_PADS_SMD_TOP
100
AcDbCircle
 10
10160.0
 20
0.0
 30
0.0
 40
325.0
  0
CIRCLE
  5
19A
100
AcDbEntity
  8
PART_PADS_SMD_TOP
100
AcDbCircle
 10
10160.0
 20
-1270.0
 30
0.0
 40
325.0
  0
CIRCLE
  5
19B
100
AcDbEntity
  8
PART_PADS_SMD_TOP
100
AcDbCircle
 10
10160.0
 20
-2540.0
 30
0.0
 40
325.0
  0
CIRCLE
  5
19C
100
AcDbEntity
  8
PART_PADS_SMD_TOP
100
AcDbCircle
 10
10160.0
 20
-3810.0
 30
0.0
 40
325.0
  0
CIRCLE
  5
19D
100
AcDbEntity
  8
PART_PADS_SMD_TOP
100
AcDbCircle
 10
10160.0
 20
-5080.0
 30
0.0
 40
325.0
  0
CIRCLE
  5
19E
100
AcDbEntity
  8
PART_PADS_SMD_TOP
100
AcDbCircle
 10
10160.0
 20
-6350.0
 30
0.0
 40
325.0
  0
CIRCLE
  5
19F
100
AcDbEntity
  8
PART_PADS_SMD_TOP
100
AcDbCircle
 10
10160.0
 20
-7620.0
 30
0.0
 40
325.0
  0
CIRCLE
  5
1A0
100
AcDbEntity
  8
PART_PADS_SMD_TOP
100
AcDbCircle
 10
10160.0
 20
-8890.0
 30
0.0
 40
325.0
  0
CIRCLE
  5
1A1
100
AcDbEntity
  8
PART_PADS_SMD_TOP
100
AcDbCircle
 10
10160.0
 20
-10160.0
 30
0.0
 40
325.0
  0
CIRCLE
  5
1A2
100
AcDbEntity
  8
PART_PADS_SMD_TOP
100
AcDbCircle
 10
10160.0
 20
-11430.0
 30
0.0
 40
325.0
  0
CIRCLE
  5
1A3
100
AcDbEntity
  8
PART_PADS_SMD_TOP
100
AcDbCircle
 10
10160.0
 20
-12700.0
 30
0.0
 40
325.0
  0
CIRCLE
  5
1A4
100
AcDbEntity
  8
PART_PADS_SMD_TOP
100
AcDbCircle
 10
11430.0
 20
12065.0
 30
0.0
 40
325.0
  0
CIRCLE
  5
1A5
100
AcDbEntity
  8
PART_PADS_SMD_TOP
100
AcDbCircle
 10
11430.0
 20
10795.0
 30
0.0
 40
325.0
  0
CIRCLE
  5
1A6
100
AcDbEntity
  8
PART_PADS_SMD_TOP
100
AcDbCircle
 10
11430.0
 20
9525.0
 30
0.0
 40
325.0
  0
CIRCLE
  5
1A7
100
AcDbEntity
  8
PART_PADS_SMD_TOP
100
AcDbCircle
 10
11430.0
 20
8255.0
 30
0.0
 40
325.0
  0
CIRCLE
  5
1A8
100
AcDbEntity
  8
PART_PADS_SMD_TOP
100
AcDbCircle
 10
11430.0
 20
6985.0
 30
0.0
 40
325.0
  0
CIRCLE
  5
1A9
100
AcDbEntity
  8
PART_PADS_SMD_TOP
100
AcDbCircle
 10
11430.0
 20
5715.0
 30
0.0
 40
325.0
  0
CIRCLE
  5
1AA
100
AcDbEntity
  8
PART_PADS_SMD_TOP
100
AcDbCircle
 10
11430.0
 20
4445.0
 30
0.0
 40
325.0
  0
CIRCLE
  5
1AB
100
AcDbEntity
  8
PART_PADS_SMD_TOP
100
AcDbCircle
 10
11430.0
 20
3175.0
 30
0.0
 40
325.0
  0
CIRCLE
  5
1AC
100
AcDbEntity
  8
PART_PADS_SMD_TOP
100
AcDbCircle
 10
11430.0
 20
1905.0
 30
0.0
 40
325.0
  0
CIRCLE
  5
1AD
100
AcDbEntity
  8
PART_PADS_SMD_TOP
100
AcDbCircle
 10
11430.0
 20
635.0
 30
0.0
 40
325.0
  0
CIRCLE
  5
1AE
100
AcDbEntity
  8
PART_PADS_SMD_TOP
100
AcDbCircle
 10
11430.0
 20
-635.0
 30
0.0
 40
325.0
  0
CIRCLE
  5
1AF
100
AcDbEntity
  8
PART_PADS_SMD_TOP
100
AcDbCircle
 10
11430.0
 20
-1905.0
 30
0.0
 40
325.0
  0
CIRCLE
  5
1B0
100
AcDbEntity
  8
PART_PADS_SMD_TOP
100
AcDbCircle
 10
11430.0
 20
-3175.0
 30
0.0
 40
325.0
  0
CIRCLE
  5
1B1
100
AcDbEntity
  8
PART_PADS_SMD_TOP
100
AcDbCircle
 10
11430.0
 20
-4445.0
 30
0.0
 40
325.0
  0
CIRCLE
  5
1B2
100
AcDbEntity
  8
PART_PADS_SMD_TOP
100
AcDbCircle
 10
11430.0
 20
-5715.0
 30
0.0
 40
325.0
  0
CIRCLE
  5
1B3
100
AcDbEntity
  8
PART_PADS_SMD_TOP
100
AcDbCircle
 10
11430.0
 20
-6985.0
 30
0.0
 40
325.0
  0
CIRCLE
  5
1B4
100
AcDbEntity
  8
PART_PADS_SMD_TOP
100
AcDbCircle
 10
11430.0
 20
-8255.0
 30
0.0
 40
325.0
  0
CIRCLE
  5
1B5
100
AcDbEntity
  8
PART_PADS_SMD_TOP
100
AcDbCircle
 10
11430.0
 20
-9525.0
 30
0.0
 40
325.0
  0
CIRCLE
  5
1B6
100
AcDbEntity
  8
PART_PADS_SMD_TOP
100
AcDbCircle
 10
11430.0
 20
-10795.0
 30
0.0
 40
325.0
  0
CIRCLE
  5
1B7
100
AcDbEntity
  8
PART_PADS_SMD_TOP
100
AcDbCircle
 10
11430.0
 20
-12065.0
 30
0.0
 40
325.0
  0
CIRCLE
  5
1B8
100
AcDbEntity
  8
PART_PADS_SMD_TOP
100
AcDbCircle
 10
3810.0
 20
13335.0
 30
0.0
 40
325.0
  0
CIRCLE
  5
1B9
100
AcDbEntity
  8
PART_PADS_SMD_TOP
100
AcDbCircle
 10
3810.0
 20
12065.0
 30
0.0
 40
325.0
  0
CIRCLE
  5
1BA
100
AcDbEntity
  8
PART_PADS_SMD_TOP
100
AcDbCircle
 10
3810.0
 20
10795.0
 30
0.0
 40
325.0
  0
CIRCLE
  5
1BB
100
AcDbEntity
  8
PART_PADS_SMD_TOP
100
AcDbCircle
 10
-7620.0
 20
-10160.0
 30
0.0
 40
325.0
  0
CIRCLE
  5
1BC
100
AcDbEntity
  8
PART_PADS_SMD_TOP
100
AcDbCircle
 10
-7620.0
 20
-11430.0
 30
0.0
 40
325.0
  0
CIRCLE
  5
1BD
100
AcDbEntity
  8
PART_PADS_SMD_TOP
100
AcDbCircle
 10
-7620.0
 20
-12700.0
 30
0.0
 40
325.0
  0
CIRCLE
  5
1BE
100
AcDbEntity
  8
PART_PADS_SMD_TOP
100
AcDbCircle
 10
7620.0
 20
-10160.0
 30
0.0
 40
325.0
  0
CIRCLE
  5
1BF
100
AcDbEntity
  8
PART_PADS_SMD_TOP
100
AcDbCircle
 10
7620.0
 20
-11430.0
 30
0.0
 40
325.0
  0
CIRCLE
  5
1C0
100
AcDbEntity
  8
PART_PADS_SMD_TOP
100
AcDbCircle
 10
7620.0
 20
-12700.0
 30
0.0
 40
325.0
  0
CIRCLE
  5
1C1
100
AcDbEntity
  8
PART_PADS_SMD_TOP
100
AcDbCircle
 10
6350.0
 20
-10795.0
 30
0.0
 40
325.0
  0
CIRCLE
  5
1C2
100
AcDbEntity
  8
PART_PADS_SMD_TOP
100
AcDbCircle
 10
6350.0
 20
-12065.0
 30
0.0
 40
325.0
  0
CIRCLE
  5
1C3
100
AcDbEntity
  8
PART_PADS_SMD_TOP
100
AcDbCircle
 10
6350.0
 20
-13335.0
 30
0.0
 40
325.0
  0
CIRCLE
  5
1C4
100
AcDbEntity
  8
PART_PADS_SMD_TOP
100
AcDbCircle
 10
5080.0
 20
-10160.0
 30
0.0
 40
325.0
  0
CIRCLE
  5
1C5
100
AcDbEntity
  8
PART_PADS_SMD_TOP
100
AcDbCircle
 10
5080.0
 20
-11430.0
 30
0.0
 40
325.0
  0
CIRCLE
  5
1C6
100
AcDbEntity
  8
PART_PADS_SMD_TOP
100
AcDbCircle
 10
5080.0
 20
-12700.0
 30
0.0
 40
325.0
  0
CIRCLE
  5
1C7
100
AcDbEntity
  8
PART_PADS_SMD_TOP
100
AcDbCircle
 10
3810.0
 20
-10795.0
 30
0.0
 40
325.0
  0
CIRCLE
  5
1C8
100
AcDbEntity
  8
PART_PADS_SMD_TOP
100
AcDbCircle
 10
3810.0
 20
-12065.0
 30
0.0
 40
325.0
  0
CIRCLE
  5
1C9
100
AcDbEntity
  8
PART_PADS_SMD_TOP
100
AcDbCircle
 10
3810.0
 20
-13335.0
 30
0.0
 40
325.0
  0
CIRCLE
  5
1CA
100
AcDbEntity
  8
PART_PADS_SMD_TOP
100
AcDbCircle
 10
2540.0
 20
-10160.0
 30
0.0
 40
325.0
  0
CIRCLE
  5
1CB
100
AcDbEntity
  8
PART_PADS_SMD_TOP
100
AcDbCircle
 10
2540.0
 20
-11430.0
 30
0.0
 40
325.0
  0
CIRCLE
  5
1CC
100
AcDbEntity
  8
PART_PADS_SMD_TOP
100
AcDbCircle
 10
2540.0
 20
-12700.0
 30
0.0
 40
325.0
  0
CIRCLE
  5
1CD
100
AcDbEntity
  8
PART_PADS_SMD_TOP
100
AcDbCircle
 10
1270.0
 20
-10795.0
 30
0.0
 40
325.0
  0
CIRCLE
  5
1CE
100
AcDbEntity
  8
PART_PADS_SMD_TOP
100
AcDbCircle
 10
1270.0
 20
-12065.0
 30
0.0
 40
325.0
  0
CIRCLE
  5
1CF
100
AcDbEntity
  8
PART_PADS_SMD_TOP
100
AcDbCircle
 10
1270.0
 20
-13335.0
 30
0.0
 40
325.0
  0
CIRCLE
  5
1D0
100
AcDbEntity
  8
PART_PADS_SMD_TOP
100
AcDbCircle
 10
0.0
 20
-10160.0
 30
0.0
 40
325.0
  0
CIRCLE
  5
1D1
100
AcDbEntity
  8
PART_PADS_SMD_TOP
100
AcDbCircle
 10
0.0
 20
-11430.0
 30
0.0
 40
325.0
  0
CIRCLE
  5
1D2
100
AcDbEntity
  8
PART_PADS_SMD_TOP
100
AcDbCircle
 10
0.0
 20
-12700.0
 30
0.0
 40
325.0
  0
CIRCLE
  5
1D3
100
AcDbEntity
  8
PART_PADS_SMD_TOP
100
AcDbCircle
 10
-1270.0
 20
-10795.0
 30
0.0
 40
325.0
  0
CIRCLE
  5
1D4
100
AcDbEntity
  8
PART_PADS_SMD_TOP
100
AcDbCircle
 10
-1270.0
 20
-12065.0
 30
0.0
 40
325.0
  0
CIRCLE
  5
1D5
100
AcDbEntity
  8
PART_PADS_SMD_TOP
100
AcDbCircle
 10
-1270.0
 20
-13335.0
 30
0.0
 40
325.0
  0
CIRCLE
  5
1D6
100
AcDbEntity
  8
PART_PADS_SMD_TOP
100
AcDbCircle
 10
-2540.0
 20
-10160.0
 30
0.0
 40
325.0
  0
CIRCLE
  5
1D7
100
AcDbEntity
  8
PART_PADS_SMD_TOP
100
AcDbCircle
 10
-2540.0
 20
-11430.0
 30
0.0
 40
325.0
  0
CIRCLE
  5
1D8
100
AcDbEntity
  8
PART_PADS_SMD_TOP
100
AcDbCircle
 10
-2540.0
 20
-12700.0
 30
0.0
 40
325.0
  0
CIRCLE
  5
1D9
100
AcDbEntity
  8
PART_PADS_SMD_TOP
100
AcDbCircle
 10
-3810.0
 20
-10795.0
 30
0.0
 40
325.0
  0
CIRCLE
  5
1DA
100
AcDbEntity
  8
PART_PADS_SMD_TOP
100
AcDbCircle
 10
-3810.0
 20
-12065.0
 30
0.0
 40
325.0
  0
CIRCLE
  5
1DB
100
AcDbEntity
  8
PART_PADS_SMD_TOP
100
AcDbCircle
 10
-3810.0
 20
-13335.0
 30
0.0
 40
325.0
  0
CIRCLE
  5
1DC
100
AcDbEntity
  8
PART_PADS_SMD_TOP
100
AcDbCircle
 10
-5080.0
 20
-10160.0
 30
0.0
 40
325.0
  0
CIRCLE
  5
1DD
100
AcDbEntity
  8
PART_PADS_SMD_TOP
100
AcDbCircle
 10
-5080.0
 20
-11430.0
 30
0.0
 40
325.0
  0
CIRCLE
  5
1DE
100
AcDbEntity
  8
PART_PADS_SMD_TOP
100
AcDbCircle
 10
-5080.0
 20
-12700.0
 30
0.0
 40
325.0
  0
CIRCLE
  5
1DF
100
AcDbEntity
  8
PART_PADS_SMD_TOP
100
AcDbCircle
 10
-6350.0
 20
-10795.0
 30
0.0
 40
325.0
  0
CIRCLE
  5
1E0
100
AcDbEntity
  8
PART_PADS_SMD_TOP
100
AcDbCircle
 10
-6350.0
 20
-12065.0
 30
0.0
 40
325.0
  0
CIRCLE
  5
1E1
100
AcDbEntity
  8
PART_PADS_SMD_TOP
100
AcDbCircle
 10
-6350.0
 20
-13335.0
 30
0.0
 40
325.0
  0
CIRCLE
  5
1E2
100
AcDbEntity
  8
PART_PADS_SMD_TOP
100
AcDbCircle
 10
-6350.0
 20
-15875.0
 30
0.0
 40
325.0
  0
CIRCLE
  5
1E3
100
AcDbEntity
  8
PART_PADS_SMD_TOP
100
AcDbCircle
 10
-6350.0
 20
-17145.0
 30
0.0
 40
325.0
  0
CIRCLE
  5
1E4
100
AcDbEntity
  8
PART_PADS_SMD_TOP
100
AcDbCircle
 10
-6350.0
 20
-18415.0
 30
0.0
 40
325.0
  0
CIRCLE
  5
1E5
100
AcDbEntity
  8
PART_PADS_SMD_TOP
100
AcDbCircle
 10
-7620.0
 20
-16510.0
 30
0.0
 40
325.0
  0
CIRCLE
  5
1E6
100
AcDbEntity
  8
PART_PADS_SMD_TOP
100
AcDbCircle
 10
-7620.0
 20
-17780.0
 30
0.0
 40
325.0
  0
CIRCLE
  5
1E7
100
AcDbEntity
  8
PART_PADS_SMD_TOP
100
AcDbCircle
 10
-7620.0
 20
-19050.0
 30
0.0
 40
325.0
  0
CIRCLE
  5
1E8
100
AcDbEntity
  8
PART_PADS_SMD_TOP
100
AcDbCircle
 10
-8890.0
 20
-15875.0
 30
0.0
 40
325.0
  0
CIRCLE
  5
1E9
100
AcDbEntity
  8
PART_PADS_SMD_TOP
100
AcDbCircle
 10
-8890.0
 20
-17145.0
 30
0.0
 40
325.0
  0
CIRCLE
  5
1EA
100
AcDbEntity
  8
PART_PADS_SMD_TOP
100
AcDbCircle
 10
-8890.0
 20
-18415.0
 30
0.0
 40
325.0
  0
CIRCLE
  5
1EB
100
AcDbEntity
  8
PART_PADS_SMD_TOP
100
AcDbCircle
 10
-10160.0
 20
-16510.0
 30
0.0
 40
325.0
  0
CIRCLE
  5
1EC
100
AcDbEntity
  8
PART_PADS_SMD_TOP
100
AcDbCircle
 10
-10160.0
 20
-17780.0
 30
0.0
 40
325.0
  0
CIRCLE
  5
1ED
100
AcDbEntity
  8
PART_PADS_SMD_TOP
100
AcDbCircle
 10
-10160.0
 20
-19050.0
 30
0.0
 40
325.0
  0
CIRCLE
  5
1EE
100
AcDbEntity
  8
PART_PADS_SMD_TOP
100
AcDbCircle
 10
-11430.0
 20
-17145.0
 30
0.0
 40
325.0
  0
CIRCLE
  5
1EF
100
AcDbEntity
  8
PART_PADS_SMD_TOP
100
AcDbCircle
 10
-11430.0
 20
-18415.0
 30
0.0
 40
325.0
  0
CIRCLE
  5
1F0
100
AcDbEntity
  8
PART_PADS_SMD_TOP
100
AcDbCircle
 10
-5080.0
 20
-16510.0
 30
0.0
 40
325.0
  0
CIRCLE
  5
1F1
100
AcDbEntity
  8
PART_PADS_SMD_TOP
100
AcDbCircle
 10
-5080.0
 20
-17780.0
 30
0.0
 40
325.0
  0
CIRCLE
  5
1F2
100
AcDbEntity
  8
PART_PADS_SMD_TOP
100
AcDbCircle
 10
-5080.0
 20
-19050.0
 30
0.0
 40
325.0
  0
CIRCLE
  5
1F3
100
AcDbEntity
  8
PART_PADS_SMD_TOP
100
AcDbCircle
 10
-3810.0
 20
-15875.0
 30
0.0
 40
325.0
  0
CIRCLE
  5
1F4
100
AcDbEntity
  8
PART_PADS_SMD_TOP
100
AcDbCircle
 10
-3810.0
 20
-17145.0
 30
0.0
 40
325.0
  0
CIRCLE
  5
1F5
100
AcDbEntity
  8
PART_PADS_SMD_TOP
100
AcDbCircle
 10
-3810.0
 20
-18415.0
 30
0.0
 40
325.0
  0
CIRCLE
  5
1F6
100
AcDbEntity
  8
PART_PADS_SMD_TOP
100
AcDbCircle
 10
-2540.0
 20
-16510.0
 30
0.0
 40
325.0
  0
CIRCLE
  5
1F7
100
AcDbEntity
  8
PART_PADS_SMD_TOP
100
AcDbCircle
 10
-2540.0
 20
-17780.0
 30
0.0
 40
325.0
  0
CIRCLE
  5
1F8
100
AcDbEntity
  8
PART_PADS_SMD_TOP
100
AcDbCircle
 10
-2540.0
 20
-19050.0
 30
0.0
 40
325.0
  0
CIRCLE
  5
1F9
100
AcDbEntity
  8
PART_PADS_SMD_TOP
100
AcDbCircle
 10
-1270.0
 20
-15875.0
 30
0.0
 40
325.0
  0
CIRCLE
  5
1FA
100
AcDbEntity
  8
PART_PADS_SMD_TOP
100
AcDbCircle
 10
-1270.0
 20
-17145.0
 30
0.0
 40
325.0
  0
CIRCLE
  5
1FB
100
AcDbEntity
  8
PART_PADS_SMD_TOP
100
AcDbCircle
 10
-1270.0
 20
-18415.0
 30
0.0
 40
325.0
  0
CIRCLE
  5
1FC
100
AcDbEntity
  8
PART_PADS_SMD_TOP
100
AcDbCircle
 10
0.0
 20
-16510.0
 30
0.0
 40
325.0
  0
CIRCLE
  5
1FD
100
AcDbEntity
  8
PART_PADS_SMD_TOP
100
AcDbCircle
 10
0.0
 20
-17780.0
 30
0.0
 40
325.0
  0
CIRCLE
  5
1FE
100
AcDbEntity
  8
PART_PADS_SMD_TOP
100
AcDbCircle
 10
0.0
 20
-19050.0
 30
0.0
 40
325.0
  0
CIRCLE
  5
1FF
100
AcDbEntity
  8
PART_PADS_SMD_TOP
100
AcDbCircle
 10
1270.0
 20
-15875.0
 30
0.0
 40
325.0
  0
CIRCLE
  5
200
100
AcDbEntity
  8
PART_PADS_SMD_TOP
100
AcDbCircle
 10
1270.0
 20
-17145.0
 30
0.0
 40
325.0
  0
CIRCLE
  5
201
100
AcDbEntity
  8
PART_PADS_SMD_TOP
100
AcDbCircle
 10
1270.0
 20
-18415.0
 30
0.0
 40
325.0
  0
CIRCLE
  5
202
100
AcDbEntity
  8
PART_PADS_SMD_TOP
100
AcDbCircle
 10
2540.0
 20
-16510.0
 30
0.0
 40
325.0
  0
CIRCLE
  5
203
100
AcDbEntity
  8
PART_PADS_SMD_TOP
100
AcDbCircle
 10
2540.0
 20
-17780.0
 30
0.0
 40
325.0
  0
CIRCLE
  5
204
100
AcDbEntity
  8
PART_PADS_SMD_TOP
100
AcDbCircle
 10
2540.0
 20
-19050.0
 30
0.0
 40
325.0
  0
CIRCLE
  5
205
100
AcDbEntity
  8
PART_PADS_SMD_TOP
100
AcDbCircle
 10
3810.0
 20
-15875.0
 30
0.0
 40
325.0
  0
CIRCLE
  5
206
100
AcDbEntity
  8
PART_PADS_SMD_TOP
100
AcDbCircle
 10
3810.0
 20
-17145.0
 30
0.0
 40
325.0
  0
CIRCLE
  5
207
100
AcDbEntity
  8
PART_PADS_SMD_TOP
100
AcDbCircle
 10
3810.0
 20
-18415.0
 30
0.0
 40
325.0
  0
CIRCLE
  5
208
100
AcDbEntity
  8
PART_PADS_SMD_TOP
100
AcDbCircle
 10
5080.0
 20
-16510.0
 30
0.0
 40
325.0
  0
CIRCLE
  5
209
100
AcDbEntity
  8
PART_PADS_SMD_TOP
100
AcDbCircle
 10
5080.0
 20
-17780.0
 30
0.0
 40
325.0
  0
CIRCLE
  5
20A
100
AcDbEntity
  8
PART_PADS_SMD_TOP
100
AcDbCircle
 10
5080.0
 20
-19050.0
 30
0.0
 40
325.0
  0
CIRCLE
  5
20B
100
AcDbEntity
  8
PART_PADS_SMD_TOP
100
AcDbCircle
 10
6350.0
 20
-15875.0
 30
0.0
 40
325.0
  0
CIRCLE
  5
20C
100
AcDbEntity
  8
PART_PADS_SMD_TOP
100
AcDbCircle
 10
6350.0
 20
-17145.0
 30
0.0
 40
325.0
  0
CIRCLE
  5
20D
100
AcDbEntity
  8
PART_PADS_SMD_TOP
100
AcDbCircle
 10
6350.0
 20
-18415.0
 30
0.0
 40
325.0
  0
CIRCLE
  5
20E
100
AcDbEntity
  8
PART_PADS_SMD_TOP
100
AcDbCircle
 10
7620.0
 20
-16510.0
 30
0.0
 40
325.0
  0
CIRCLE
  5
20F
100
AcDbEntity
  8
PART_PADS_SMD_TOP
100
AcDbCircle
 10
7620.0
 20
-17780.0
 30
0.0
 40
325.0
  0
CIRCLE
  5
210
100
AcDbEntity
  8
PART_PADS_SMD_TOP
100
AcDbCircle
 10
7620.0
 20
-19050.0
 30
0.0
 40
325.0
  0
CIRCLE
  5
211
100
AcDbEntity
  8
PART_PADS_SMD_TOP
100
AcDbCircle
 10
8890.0
 20
-15875.0
 30
0.0
 40
325.0
  0
CIRCLE
  5
212
100
AcDbEntity
  8
PART_PADS_SMD_TOP
100
AcDbCircle
 10
8890.0
 20
-17145.0
 30
0.0
 40
325.0
  0
CIRCLE
  5
213
100
AcDbEntity
  8
PART_PADS_SMD_TOP
100
AcDbCircle
 10
8890.0
 20
-18415.0
 30
0.0
 40
325.0
  0
CIRCLE
  5
214
100
AcDbEntity
  8
PART_PADS_SMD_TOP
100
AcDbCircle
 10
10160.0
 20
-16510.0
 30
0.0
 40
325.0
  0
CIRCLE
  5
215
100
AcDbEntity
  8
PART_PADS_SMD_TOP
100
AcDbCircle
 10
10160.0
 20
-17780.0
 30
0.0
 40
325.0
  0
CIRCLE
  5
216
100
AcDbEntity
  8
PART_PADS_SMD_TOP
100
AcDbCircle
 10
10160.0
 20
-19050.0
 30
0.0
 40
325.0
  0
CIRCLE
  5
217
100
AcDbEntity
  8
PART_PADS_SMD_TOP
100
AcDbCircle
 10
11430.0
 20
-17145.0
 30
0.0
 40
325.0
  0
CIRCLE
  5
218
100
AcDbEntity
  8
PART_PADS_SMD_TOP
100
AcDbCircle
 10
11430.0
 20
-18415.0
 30
0.0
 40
325.0
  0
CIRCLE
  5
219
100
AcDbEntity
  8
PART_PADS_SMD_TOP
100
AcDbCircle
 10
11430.0
 20
-20955.0
 30
0.0
 40
325.0
  0
CIRCLE
  5
21A
100
AcDbEntity
  8
PART_PADS_SMD_TOP
100
AcDbCircle
 10
10160.0
 20
-21590.0
 30
0.0
 40
325.0
  0
CIRCLE
  5
21B
100
AcDbEntity
  8
PART_PADS_SMD_TOP
100
AcDbCircle
 10
8890.0
 20
-20955.0
 30
0.0
 40
325.0
  0
CIRCLE
  5
21C
100
AcDbEntity
  8
PART_PADS_SMD_TOP
100
AcDbCircle
 10
7620.0
 20
-21590.0
 30
0.0
 40
325.0
  0
CIRCLE
  5
21D
100
AcDbEntity
  8
PART_PADS_SMD_TOP
100
AcDbCircle
 10
6350.0
 20
-20955.0
 30
0.0
 40
325.0
  0
CIRCLE
  5
21E
100
AcDbEntity
  8
PART_PADS_SMD_TOP
100
AcDbCircle
 10
5080.0
 20
-21590.0
 30
0.0
 40
325.0
  0
CIRCLE
  5
21F
100
AcDbEntity
  8
PART_PADS_SMD_TOP
100
AcDbCircle
 10
3810.0
 20
-20955.0
 30
0.0
 40
325.0
  0
CIRCLE
  5
220
100
AcDbEntity
  8
PART_PADS_SMD_TOP
100
AcDbCircle
 10
2540.0
 20
-21590.0
 30
0.0
 40
325.0
  0
CIRCLE
  5
221
100
AcDbEntity
  8
PART_PADS_SMD_TOP
100
AcDbCircle
 10
0.0
 20
-21590.0
 30
0.0
 40
325.0
  0
CIRCLE
  5
222
100
AcDbEntity
  8
PART_PADS_SMD_TOP
100
AcDbCircle
 10
1270.0
 20
-20955.0
 30
0.0
 40
325.0
  0
CIRCLE
  5
223
100
AcDbEntity
  8
PART_PADS_SMD_TOP
100
AcDbCircle
 10
-1270.0
 20
-20955.0
 30
0.0
 40
325.0
  0
CIRCLE
  5
224
100
AcDbEntity
  8
PART_PADS_SMD_TOP
100
AcDbCircle
 10
-2540.0
 20
-21590.0
 30
0.0
 40
325.0
  0
CIRCLE
  5
225
100
AcDbEntity
  8
PART_PADS_SMD_TOP
100
AcDbCircle
 10
-3810.0
 20
-20955.0
 30
0.0
 40
325.0
  0
CIRCLE
  5
226
100
AcDbEntity
  8
PART_PADS_SMD_TOP
100
AcDbCircle
 10
-5080.0
 20
-21590.0
 30
0.0
 40
325.0
  0
CIRCLE
  5
227
100
AcDbEntity
  8
PART_PADS_SMD_TOP
100
AcDbCircle
 10
-6350.0
 20
-20955.0
 30
0.0
 40
325.0
  0
CIRCLE
  5
228
100
AcDbEntity
  8
PART_PADS_SMD_TOP
100
AcDbCircle
 10
-7620.0
 20
-21590.0
 30
0.0
 40
325.0
  0
CIRCLE
  5
229
100
AcDbEntity
  8
PART_PADS_SMD_TOP
100
AcDbCircle
 10
-8890.0
 20
-20955.0
 30
0.0
 40
325.0
  0
CIRCLE
  5
22A
100
AcDbEntity
  8
PART_PADS_SMD_TOP
100
AcDbCircle
 10
-10160.0
 20
-21590.0
 30
0.0
 40
325.0
  0
CIRCLE
  5
22B
100
AcDbEntity
  8
PART_PADS_SMD_TOP
100
AcDbCircle
 10
-11430.0
 20
-20955.0
 30
0.0
 40
325.0
  0
CIRCLE
  5
22C
100
AcDbEntity
  8
PART_PADS_SMD_TOP
100
AcDbCircle
 10
-12700.0
 20
-21590.0
 30
0.0
 40
325.0
  0
CIRCLE
  5
22D
100
AcDbEntity
  8
PART_PADS_SMD_TOP
100
AcDbCircle
 10
-13970.0
 20
-20955.0
 30
0.0
 40
325.0
  0
CIRCLE
  5
22E
100
AcDbEntity
  8
PART_PADS_SMD_TOP
100
AcDbCircle
 10
-15240.0
 20
-21590.0
 30
0.0
 40
325.0
  0
CIRCLE
  5
22F
100
AcDbEntity
  8
PART_PADS_SMD_TOP
100
AcDbCircle
 10
12700.0
 20
-21590.0
 30
0.0
 40
325.0
  0
CIRCLE
  5
230
100
AcDbEntity
  8
PART_PADS_SMD_TOP
100
AcDbCircle
 10
13970.0
 20
-20955.0
 30
0.0
 40
325.0
  0
CIRCLE
  5
231
100
AcDbEntity
  8
PART_PADS_SMD_TOP
100
AcDbCircle
 10
15240.0
 20
-21590.0
 30
0.0
 40
325.0
  0
CIRCLE
  5
232
100
AcDbEntity
  8
PART_PADS_SMD_TOP
100
AcDbCircle
 10
15240.0
 20
1270.0
 30
0.0
 40
325.0
  0
CIRCLE
  5
233
100
AcDbEntity
  8
PART_PADS_SMD_TOP
100
AcDbCircle
 10
15240.0
 20
0.0
 30
0.0
 40
325.0
  0
CIRCLE
  5
234
100
AcDbEntity
  8
PART_PADS_SMD_TOP
100
AcDbCircle
 10
15240.0
 20
-1270.0
 30
0.0
 40
325.0
  0
CIRCLE
  5
235
100
AcDbEntity
  8
PART_PADS_SMD_TOP
100
AcDbCircle
 10
15240.0
 20
-2540.0
 30
0.0
 40
325.0
  0
CIRCLE
  5
236
100
AcDbEntity
  8
PART_PADS_SMD_TOP
100
AcDbCircle
 10
15240.0
 20
-3810.0
 30
0.0
 40
325.0
  0
CIRCLE
  5
237
100
AcDbEntity
  8
PART_PADS_SMD_TOP
100
AcDbCircle
 10
15240.0
 20
-5080.0
 30
0.0
 40
325.0
  0
CIRCLE
  5
238
100
AcDbEntity
  8
PART_PADS_SMD_TOP
100
AcDbCircle
 10
15240.0
 20
-6350.0
 30
0.0
 40
325.0
  0
CIRCLE
  5
239
100
AcDbEntity
  8
PART_PADS_SMD_TOP
100
AcDbCircle
 10
15240.0
 20
-7620.0
 30
0.0
 40
325.0
  0
CIRCLE
  5
23A
100
AcDbEntity
  8
PART_PADS_SMD_TOP
100
AcDbCircle
 10
15240.0
 20
-8890.0
 30
0.0
 40
325.0
  0
CIRCLE
  5
23B
100
AcDbEntity
  8
PART_PADS_SMD_TOP
100
AcDbCircle
 10
15240.0
 20
-10160.0
 30
0.0
 40
325.0
  0
CIRCLE
  5
23C
100
AcDbEntity
  8
PART_PADS_SMD_TOP
100
AcDbCircle
 10
15240.0
 20
-11430.0
 30
0.0
 40
325.0
  0
CIRCLE
  5
23D
100
AcDbEntity
  8
PART_PADS_SMD_TOP
100
AcDbCircle
 10
15240.0
 20
-12700.0
 30
0.0
 40
325.0
  0
CIRCLE
  5
23E
100
AcDbEntity
  8
PART_PADS_SMD_TOP
100
AcDbCircle
 10
-21590.0
 20
9525.0
 30
0.0
 40
325.0
  0
CIRCLE
  5
23F
100
AcDbEntity
  8
PART_PADS_SMD_TOP
100
AcDbCircle
 10
-21590.0
 20
6985.0
 30
0.0
 40
325.0
  0
CIRCLE
  5
240
100
AcDbEntity
  8
PART_PADS_SMD_TOP
100
AcDbCircle
 10
-21590.0
 20
4445.0
 30
0.0
 40
325.0
  0
CIRCLE
  5
241
100
AcDbEntity
  8
PART_PADS_SMD_TOP
100
AcDbCircle
 10
-21590.0
 20
1905.0
 30
0.0
 40
325.0
  0
CIRCLE
  5
242
100
AcDbEntity
  8
PART_PADS_SMD_TOP
100
AcDbCircle
 10
-21590.0
 20
-1905.0
 30
0.0
 40
325.0
  0
CIRCLE
  5
243
100
AcDbEntity
  8
PART_PADS_SMD_TOP
100
AcDbCircle
 10
-21590.0
 20
-4445.0
 30
0.0
 40
325.0
  0
CIRCLE
  5
244
100
AcDbEntity
  8
PART_PADS_SMD_TOP
100
AcDbCircle
 10
-21590.0
 20
-6985.0
 30
0.0
 40
325.0
  0
CIRCLE
  5
245
100
AcDbEntity
  8
PART_PADS_SMD_TOP
100
AcDbCircle
 10
-21590.0
 20
-9525.0
 30
0.0
 40
325.0
  0
CIRCLE
  5
246
100
AcDbEntity
  8
PART_PADS_SMD_TOP
100
AcDbCircle
 10
21590.0
 20
9525.0
 30
0.0
 40
325.0
  0
CIRCLE
  5
247
100
AcDbEntity
  8
PART_PADS_SMD_TOP
100
AcDbCircle
 10
21590.0
 20
6985.0
 30
0.0
 40
325.0
  0
CIRCLE
  5
248
100
AcDbEntity
  8
PART_PADS_SMD_TOP
100
AcDbCircle
 10
21590.0
 20
4445.0
 30
0.0
 40
325.0
  0
CIRCLE
  5
249
100
AcDbEntity
  8
PART_PADS_SMD_TOP
100
AcDbCircle
 10
21590.0
 20
1905.0
 30
0.0
 40
325.0
  0
CIRCLE
  5
24A
100
AcDbEntity
  8
PART_PADS_SMD_TOP
100
AcDbCircle
 10
21590.0
 20
-1905.0
 30
0.0
 40
325.0
  0
CIRCLE
  5
24B
100
AcDbEntity
  8
PART_PADS_SMD_TOP
100
AcDbCircle
 10
21590.0
 20
-4445.0
 30
0.0
 40
325.0
  0
CIRCLE
  5
24C
100
AcDbEntity
  8
PART_PADS_SMD_TOP
100
AcDbCircle
 10
21590.0
 20
-6985.0
 30
0.0
 40
325.0
  0
CIRCLE
  5
24D
100
AcDbEntity
  8
PART_PADS_SMD_TOP
100
AcDbCircle
 10
21590.0
 20
-9525.0
 30
0.0
 40
325.0
  0
LWPOLYLINE
  5
24E
100
AcDbEntity
  8
PART_PADS_SMD_TOP
100
AcDbPolyline
 90
        8
 70
         1
 43
0.0
 10
10746.0
 20
14746.0
 10
20000.0
 20
24000.0
 10
22500.0
 20
24000.0
 10
22500.0
 20
21500.0
 10
13245.0
 20
12245.0
 10
12246.0
 20
12245.0
 10
12246.0
 20
13746.0
 10
10746.0
 20
13746.0
  0
LWPOLYLINE
  5
24F
100
AcDbEntity
  8
PART_PADS_SMD_TOP
100
AcDbPolyline
 90
        8
 70
         1
 43
0.0
 10
13246.0
 20
-12246.0
 10
22500.0
 20
-21500.0
 10
22500.0
 20
-24000.0
 10
20000.0
 20
-24000.0
 10
10745.0
 20
-14745.0
 10
10745.0
 20
-13746.0
 10
12246.0
 20
-13746.0
 10
12246.0
 20
-12246.0
  0
LWPOLYLINE
  5
250
100
AcDbEntity
  8
PART_PADS_SMD_TOP
100
AcDbPolyline
 90
        8
 70
         1
 43
0.0
 10
-10746.0
 20
-14746.0
 10
-20000.0
 20
-24000.0
 10
-22500.0
 20
-24000.0
 10
-22500.0
 20
-21500.0
 10
-13245.0
 20
-12245.0
 10
-12246.0
 20
-12245.0
 10
-12246.0
 20
-13746.0
 10
-10746.0
 20
-13746.0
  0
LWPOLYLINE
  5
251
100
AcDbEntity
  8
PART_PADS_SMD_TOP
100
AcDbPolyline
 90
        8
 70
         1
 43
0.0
 10
-13246.0
 20
12246.0
 10
-22500.0
 20
21500.0
 10
-22500.0
 20
24000.0
 10
-20000.0
 20
24000.0
 10
-10745.0
 20
14745.0
 10
-10745.0
 20
13746.0
 10
-12246.0
 20
13746.0
 10
-12246.0
 20
12246.0
  0
TEXT
  5
252
100
AcDbEntity
  8
PIN_NUMBERS_TOP
100
AcDbText
 10
-19921.728
 20
9302.496
 30
0.0
 40
508.000000
 41
1.000000
  1
AR26
  7
COURIER_NEW
 72
 1
 11
-19050.0
 21
9525.0
 31
0.0
100
AcDbText
 73
 2
  0
TEXT
  5
253
100
AcDbEntity
  8
PIN_NUMBERS_TOP
100
AcDbText
 10
-19921.728
 20
8032.496
 30
0.0
 40
508.000000
 41
1.000000
  1
AR28
  7
COURIER_NEW
 72
 1
 11
-19050.0
 21
8255.0
 31
0.0
100
AcDbText
 73
 2
  0
TEXT
  5
254
100
AcDbEntity
  8
PIN_NUMBERS_TOP
100
AcDbText
 10
-19921.728
 20
6762.496
 30
0.0
 40
508.000000
 41
1.000000
  1
AR30
  7
COURIER_NEW
 72
 1
 11
-19050.0
 21
6985.0
 31
0.0
100
AcDbText
 73
 2
  0
TEXT
  5
255
100
AcDbEntity
  8
PIN_NUMBERS_TOP
100
AcDbText
 10
-19921.728
 20
5492.496
 30
0.0
 40
508.000000
 41
1.000000
  1
AR32
  7
COURIER_NEW
 72
 1
 11
-19050.0
 21
5715.0
 31
0.0
100
AcDbText
 73
 2
  0
TEXT
  5
256
100
AcDbEntity
  8
PIN_NUMBERS_TOP
100
AcDbText
 10
-19921.728
 20
4222.496
 30
0.0
 40
508.000000
 41
1.000000
  1
AR34
  7
COURIER_NEW
 72
 1
 11
-19050.0
 21
4445.0
 31
0.0
100
AcDbText
 73
 2
  0
TEXT
  5
257
100
AcDbEntity
  8
PIN_NUMBERS_TOP
100
AcDbText
 10
-19921.728
 20
2952.496
 30
0.0
 40
508.000000
 41
1.000000
  1
AR36
  7
COURIER_NEW
 72
 1
 11
-19050.0
 21
3175.0
 31
0.0
100
AcDbText
 73
 2
  0
TEXT
  5
258
100
AcDbEntity
  8
PIN_NUMBERS_TOP
100
AcDbText
 10
-19921.728
 20
1682.496
 30
0.0
 40
508.000000
 41
1.000000
  1
AR38
  7
COURIER_NEW
 72
 1
 11
-19050.0
 21
1905.0
 31
0.0
100
AcDbText
 73
 2
  0
TEXT
  5
259
100
AcDbEntity
  8
PIN_NUMBERS_TOP
100
AcDbText
 10
-19921.728
 20
412.496
 30
0.0
 40
508.000000
 41
1.000000
  1
AR40
  7
COURIER_NEW
 72
 1
 11
-19050.0
 21
635.0
 31
0.0
100
AcDbText
 73
 2
  0
TEXT
  5
25A
100
AcDbEntity
  8
PIN_NUMBERS_TOP
100
AcDbText
 10
18396.204
 20
9302.496
 30
0.0
 40
508.000000
 41
1.000000
  1
E26
  7
COURIER_NEW
 72
 1
 11
19050.0
 21
9525.0
 31
0.0
100
AcDbText
 73
 2
  0
TEXT
  5
25B
100
AcDbEntity
  8
PIN_NUMBERS_TOP
100
AcDbText
 10
18396.204
 20
8032.496
 30
0.0
 40
508.000000
 41
1.000000
  1
E28
  7
COURIER_NEW
 72
 1
 11
19050.0
 21
8255.0
 31
0.0
100
AcDbText
 73
 2
  0
TEXT
  5
25C
100
AcDbEntity
  8
PIN_NUMBERS_TOP
100
AcDbText
 10
18396.204
 20
6762.496
 30
0.0
 40
508.000000
 41
1.000000
  1
E30
  7
COURIER_NEW
 72
 1
 11
19050.0
 21
6985.0
 31
0.0
100
AcDbText
 73
 2
  0
TEXT
  5
25D
100
AcDbEntity
  8
PIN_NUMBERS_TOP
100
AcDbText
 10
18396.204
 20
5492.496
 30
0.0
 40
508.000000
 41
1.000000
  1
E32
  7
COURIER_NEW
 72
 1
 11
19050.0
 21
5715.0
 31
0.0
100
AcDbText
 73
 2
  0
TEXT
  5
25E
100
AcDbEntity
  8
PIN_NUMBERS_TOP
100
AcDbText
 10
18396.204
 20
4222.496
 30
0.0
 40
508.000000
 41
1.000000
  1
E34
  7
COURIER_NEW
 72
 1
 11
19050.0
 21
4445.0
 31
0.0
100
AcDbText
 73
 2
  0
TEXT
  5
25F
100
AcDbEntity
  8
PIN_NUMBERS_TOP
100
AcDbText
 10
18396.204
 20
2952.496
 30
0.0
 40
508.000000
 41
1.000000
  1
E36
  7
COURIER_NEW
 72
 1
 11
19050.0
 21
3175.0
 31
0.0
100
AcDbText
 73
 2
  0
TEXT
  5
260
100
AcDbEntity
  8
PIN_NUMBERS_TOP
100
AcDbText
 10
18396.204
 20
1682.496
 30
0.0
 40
508.000000
 41
1.000000
  1
E38
  7
COURIER_NEW
 72
 1
 11
19050.0
 21
1905.0
 31
0.0
100
AcDbText
 73
 2
  0
TEXT
  5
261
100
AcDbEntity
  8
PIN_NUMBERS_TOP
100
AcDbText
 10
18396.204
 20
412.496
 30
0.0
 40
508.000000
 41
1.000000
  1
E40
  7
COURIER_NEW
 72
 1
 11
19050.0
 21
635.0
 31
0.0
100
AcDbText
 73
 2
  0
TEXT
  5
262
100
AcDbEntity
  8
PIN_NUMBERS_TOP
100
AcDbText
 10
18396.204
 20
-857.504
 30
0.0
 40
508.000000
 41
1.000000
  1
E42
  7
COURIER_NEW
 72
 1
 11
19050.0
 21
-635.0
 31
0.0
100
AcDbText
 73
 2
  0
TEXT
  5
263
100
AcDbEntity
  8
PIN_NUMBERS_TOP
100
AcDbText
 10
18396.204
 20
-2127.504
 30
0.0
 40
508.000000
 41
1.000000
  1
E44
  7
COURIER_NEW
 72
 1
 11
19050.0
 21
-1905.0
 31
0.0
100
AcDbText
 73
 2
  0
TEXT
  5
264
100
AcDbEntity
  8
PIN_NUMBERS_TOP
100
AcDbText
 10
18396.204
 20
-3397.504
 30
0.0
 40
508.000000
 41
1.000000
  1
E46
  7
COURIER_NEW
 72
 1
 11
19050.0
 21
-3175.0
 31
0.0
100
AcDbText
 73
 2
  0
TEXT
  5
265
100
AcDbEntity
  8
PIN_NUMBERS_TOP
100
AcDbText
 10
18396.204
 20
-4667.504
 30
0.0
 40
508.000000
 41
1.000000
  1
E48
  7
COURIER_NEW
 72
 1
 11
19050.0
 21
-4445.0
 31
0.0
100
AcDbText
 73
 2
  0
TEXT
  5
266
100
AcDbEntity
  8
PIN_NUMBERS_TOP
100
AcDbText
 10
18396.204
 20
-5937.504
 30
0.0
 40
508.000000
 41
1.000000
  1
E50
  7
COURIER_NEW
 72
 1
 11
19050.0
 21
-5715.0
 31
0.0
100
AcDbText
 73
 2
  0
TEXT
  5
267
100
AcDbEntity
  8
PIN_NUMBERS_TOP
100
AcDbText
 10
18396.204
 20
-7207.504
 30
0.0
 40
508.000000
 41
1.000000
  1
E52
  7
COURIER_NEW
 72
 1
 11
19050.0
 21
-6985.0
 31
0.0
100
AcDbText
 73
 2
  0
TEXT
  5
268
100
AcDbEntity
  8
PIN_NUMBERS_TOP
100
AcDbText
 10
18396.204
 20
-8477.504
 30
0.0
 40
508.000000
 41
1.000000
  1
E54
  7
COURIER_NEW
 72
 1
 11
19050.0
 21
-8255.0
 31
0.0
100
AcDbText
 73
 2
  0
TEXT
  5
269
100
AcDbEntity
  8
PIN_NUMBERS_TOP
100
AcDbText
 10
18396.204
 20
-9747.504
 30
0.0
 40
508.000000
 41
1.000000
  1
E56
  7
COURIER_NEW
 72
 1
 11
19050.0
 21
-9525.0
 31
0.0
100
AcDbText
 73
 2
  0
TEXT
  5
26A
100
AcDbEntity
  8
PIN_NUMBERS_TOP
100
AcDbText
 10
15856.204
 20
13112.496
 30
0.0
 40
508.000000
 41
1.000000
  1
G20
  7
COURIER_NEW
 72
 1
 11
16510.0
 21
13335.0
 31
0.0
100
AcDbText
 73
 2
  0
TEXT
  5
26B
100
AcDbEntity
  8
PIN_NUMBERS_TOP
100
AcDbText
 10
15856.204
 20
11842.496
 30
0.0
 40
508.000000
 41
1.000000
  1
G22
  7
COURIER_NEW
 72
 1
 11
16510.0
 21
12065.0
 31
0.0
100
AcDbText
 73
 2
  0
TEXT
  5
26C
100
AcDbEntity
  8
PIN_NUMBERS_TOP
100
AcDbText
 10
15856.204
 20
10572.496
 30
0.0
 40
508.000000
 41
1.000000
  1
G24
  7
COURIER_NEW
 72
 1
 11
16510.0
 21
10795.0
 31
0.0
100
AcDbText
 73
 2
  0
TEXT
  5
26D
100
AcDbEntity
  8
PIN_NUMBERS_TOP
100
AcDbText
 10
15856.204
 20
9302.496
 30
0.0
 40
508.000000
 41
1.000000
  1
G26
  7
COURIER_NEW
 72
 1
 11
16510.0
 21
9525.0
 31
0.0
100
AcDbText
 73
 2
  0
TEXT
  5
26E
100
AcDbEntity
  8
PIN_NUMBERS_TOP
100
AcDbText
 10
15856.204
 20
8032.496
 30
0.0
 40
508.000000
 41
1.000000
  1
G28
  7
COURIER_NEW
 72
 1
 11
16510.0
 21
8255.0
 31
0.0
100
AcDbText
 73
 2
  0
TEXT
  5
26F
100
AcDbEntity
  8
PIN_NUMBERS_TOP
100
AcDbText
 10
15856.204
 20
6762.496
 30
0.0
 40
508.000000
 41
1.000000
  1
G30
  7
COURIER_NEW
 72
 1
 11
16510.0
 21
6985.0
 31
0.0
100
AcDbText
 73
 2
  0
TEXT
  5
270
100
AcDbEntity
  8
PIN_NUMBERS_TOP
100
AcDbText
 10
15856.204
 20
5492.496
 30
0.0
 40
508.000000
 41
1.000000
  1
G32
  7
COURIER_NEW
 72
 1
 11
16510.0
 21
5715.0
 31
0.0
100
AcDbText
 73
 2
  0
TEXT
  5
271
100
AcDbEntity
  8
PIN_NUMBERS_TOP
100
AcDbText
 10
15856.204
 20
4222.496
 30
0.0
 40
508.000000
 41
1.000000
  1
G34
  7
COURIER_NEW
 72
 1
 11
16510.0
 21
4445.0
 31
0.0
100
AcDbText
 73
 2
  0
TEXT
  5
272
100
AcDbEntity
  8
PIN_NUMBERS_TOP
100
AcDbText
 10
15856.204
 20
2952.496
 30
0.0
 40
508.000000
 41
1.000000
  1
G36
  7
COURIER_NEW
 72
 1
 11
16510.0
 21
3175.0
 31
0.0
100
AcDbText
 73
 2
  0
TEXT
  5
273
100
AcDbEntity
  8
PIN_NUMBERS_TOP
100
AcDbText
 10
15856.204
 20
1682.496
 30
0.0
 40
508.000000
 41
1.000000
  1
G38
  7
COURIER_NEW
 72
 1
 11
16510.0
 21
1905.0
 31
0.0
100
AcDbText
 73
 2
  0
TEXT
  5
274
100
AcDbEntity
  8
PIN_NUMBERS_TOP
100
AcDbText
 10
14586.204
 20
12477.496
 30
0.0
 40
508.000000
 41
1.000000
  1
H21
  7
COURIER_NEW
 72
 1
 11
15240.0
 21
12700.0
 31
0.0
100
AcDbText
 73
 2
  0
TEXT
  5
275
100
AcDbEntity
  8
PIN_NUMBERS_TOP
100
AcDbText
 10
14586.204
 20
11207.496
 30
0.0
 40
508.000000
 41
1.000000
  1
H23
  7
COURIER_NEW
 72
 1
 11
15240.0
 21
11430.0
 31
0.0
100
AcDbText
 73
 2
  0
TEXT
  5
276
100
AcDbEntity
  8
PIN_NUMBERS_TOP
100
AcDbText
 10
14586.204
 20
9937.496
 30
0.0
 40
508.000000
 41
1.000000
  1
H25
  7
COURIER_NEW
 72
 1
 11
15240.0
 21
10160.0
 31
0.0
100
AcDbText
 73
 2
  0
TEXT
  5
277
100
AcDbEntity
  8
PIN_NUMBERS_TOP
100
AcDbText
 10
14586.204
 20
8667.496
 30
0.0
 40
508.000000
 41
1.000000
  1
H27
  7
COURIER_NEW
 72
 1
 11
15240.0
 21
8890.0
 31
0.0
100
AcDbText
 73
 2
  0
TEXT
  5
278
100
AcDbEntity
  8
PIN_NUMBERS_TOP
100
AcDbText
 10
14586.204
 20
7397.496
 30
0.0
 40
508.000000
 41
1.000000
  1
H29
  7
COURIER_NEW
 72
 1
 11
15240.0
 21
7620.0
 31
0.0
100
AcDbText
 73
 2
  0
TEXT
  5
279
100
AcDbEntity
  8
PIN_NUMBERS_TOP
100
AcDbText
 10
14586.204
 20
6127.496
 30
0.0
 40
508.000000
 41
1.000000
  1
H31
  7
COURIER_NEW
 72
 1
 11
15240.0
 21
6350.0
 31
0.0
100
AcDbText
 73
 2
  0
TEXT
  5
27A
100
AcDbEntity
  8
PIN_NUMBERS_TOP
100
AcDbText
 10
14586.204
 20
4857.496
 30
0.0
 40
508.000000
 41
1.000000
  1
H33
  7
COURIER_NEW
 72
 1
 11
15240.0
 21
5080.0
 31
0.0
100
AcDbText
 73
 2
  0
TEXT
  5
27B
100
AcDbEntity
  8
PIN_NUMBERS_TOP
100
AcDbText
 10
14586.204
 20
3587.496
 30
0.0
 40
508.000000
 41
1.000000
  1
H35
  7
COURIER_NEW
 72
 1
 11
15240.0
 21
3810.0
 31
0.0
100
AcDbText
 73
 2
  0
TEXT
  5
27C
100
AcDbEntity
  8
PIN_NUMBERS_TOP
100
AcDbText
 10
14586.204
 20
2317.496
 30
0.0
 40
508.000000
 41
1.000000
  1
H37
  7
COURIER_NEW
 72
 1
 11
15240.0
 21
2540.0
 31
0.0
100
AcDbText
 73
 2
  0
TEXT
  5
27D
100
AcDbEntity
  8
PIN_NUMBERS_TOP
100
AcDbText
 10
13316.204
 20
10572.496
 30
0.0
 40
508.000000
 41
1.000000
  1
J24
  7
COURIER_NEW
 72
 1
 11
13970.0
 21
10795.0
 31
0.0
100
AcDbText
 73
 2
  0
TEXT
  5
27E
100
AcDbEntity
  8
PIN_NUMBERS_TOP
100
AcDbText
 10
13316.204
 20
9302.496
 30
0.0
 40
508.000000
 41
1.000000
  1
J26
  7
COURIER_NEW
 72
 1
 11
13970.0
 21
9525.0
 31
0.0
100
AcDbText
 73
 2
  0
TEXT
  5
27F
100
AcDbEntity
  8
PIN_NUMBERS_TOP
100
AcDbText
 10
13316.204
 20
8032.496
 30
0.0
 40
508.000000
 41
1.000000
  1
J28
  7
COURIER_NEW
 72
 1
 11
13970.0
 21
8255.0
 31
0.0
100
AcDbText
 73
 2
  0
TEXT
  5
280
100
AcDbEntity
  8
PIN_NUMBERS_TOP
100
AcDbText
 10
13316.204
 20
6762.496
 30
0.0
 40
508.000000
 41
1.000000
  1
J30
  7
COURIER_NEW
 72
 1
 11
13970.0
 21
6985.0
 31
0.0
100
AcDbText
 73
 2
  0
TEXT
  5
281
100
AcDbEntity
  8
PIN_NUMBERS_TOP
100
AcDbText
 10
13316.204
 20
5492.496
 30
0.0
 40
508.000000
 41
1.000000
  1
J32
  7
COURIER_NEW
 72
 1
 11
13970.0
 21
5715.0
 31
0.0
100
AcDbText
 73
 2
  0
TEXT
  5
282
100
AcDbEntity
  8
PIN_NUMBERS_TOP
100
AcDbText
 10
13316.204
 20
4222.496
 30
0.0
 40
508.000000
 41
1.000000
  1
J34
  7
COURIER_NEW
 72
 1
 11
13970.0
 21
4445.0
 31
0.0
100
AcDbText
 73
 2
  0
TEXT
  5
283
100
AcDbEntity
  8
PIN_NUMBERS_TOP
100
AcDbText
 10
13316.204
 20
2952.496
 30
0.0
 40
508.000000
 41
1.000000
  1
J36
  7
COURIER_NEW
 72
 1
 11
13970.0
 21
3175.0
 31
0.0
100
AcDbText
 73
 2
  0
TEXT
  5
284
100
AcDbEntity
  8
PIN_NUMBERS_TOP
100
AcDbText
 10
13316.204
 20
1682.496
 30
0.0
 40
508.000000
 41
1.000000
  1
J38
  7
COURIER_NEW
 72
 1
 11
13970.0
 21
1905.0
 31
0.0
100
AcDbText
 73
 2
  0
TEXT
  5
285
100
AcDbEntity
  8
PIN_NUMBERS_TOP
100
AcDbText
 10
13316.204
 20
412.496
 30
0.0
 40
508.000000
 41
1.000000
  1
J40
  7
COURIER_NEW
 72
 1
 11
13970.0
 21
635.0
 31
0.0
100
AcDbText
 73
 2
  0
TEXT
  5
286
100
AcDbEntity
  8
PIN_NUMBERS_TOP
100
AcDbText
 10
13316.204
 20
-857.504
 30
0.0
 40
508.000000
 41
1.000000
  1
J42
  7
COURIER_NEW
 72
 1
 11
13970.0
 21
-635.0
 31
0.0
100
AcDbText
 73
 2
  0
TEXT
  5
287
100
AcDbEntity
  8
PIN_NUMBERS_TOP
100
AcDbText
 10
13316.204
 20
-2127.504
 30
0.0
 40
508.000000
 41
1.000000
  1
J44
  7
COURIER_NEW
 72
 1
 11
13970.0
 21
-1905.0
 31
0.0
100
AcDbText
 73
 2
  0
TEXT
  5
288
100
AcDbEntity
  8
PIN_NUMBERS_TOP
100
AcDbText
 10
13316.204
 20
-3397.504
 30
0.0
 40
508.000000
 41
1.000000
  1
J46
  7
COURIER_NEW
 72
 1
 11
13970.0
 21
-3175.0
 31
0.0
100
AcDbText
 73
 2
  0
TEXT
  5
289
100
AcDbEntity
  8
PIN_NUMBERS_TOP
100
AcDbText
 10
13316.204
 20
-4667.504
 30
0.0
 40
508.000000
 41
1.000000
  1
J48
  7
COURIER_NEW
 72
 1
 11
13970.0
 21
-4445.0
 31
0.0
100
AcDbText
 73
 2
  0
TEXT
  5
28A
100
AcDbEntity
  8
PIN_NUMBERS_TOP
100
AcDbText
 10
13316.204
 20
-5937.504
 30
0.0
 40
508.000000
 41
1.000000
  1
J50
  7
COURIER_NEW
 72
 1
 11
13970.0
 21
-5715.0
 31
0.0
100
AcDbText
 73
 2
  0
TEXT
  5
28B
100
AcDbEntity
  8
PIN_NUMBERS_TOP
100
AcDbText
 10
13316.204
 20
-7207.504
 30
0.0
 40
508.000000
 41
1.000000
  1
J52
  7
COURIER_NEW
 72
 1
 11
13970.0
 21
-6985.0
 31
0.0
100
AcDbText
 73
 2
  0
TEXT
  5
28C
100
AcDbEntity
  8
PIN_NUMBERS_TOP
100
AcDbText
 10
13316.204
 20
-8477.504
 30
0.0
 40
508.000000
 41
1.000000
  1
J54
  7
COURIER_NEW
 72
 1
 11
13970.0
 21
-8255.0
 31
0.0
100
AcDbText
 73
 2
  0
TEXT
  5
28D
100
AcDbEntity
  8
PIN_NUMBERS_TOP
100
AcDbText
 10
13316.204
 20
-9747.504
 30
0.0
 40
508.000000
 41
1.000000
  1
J56
  7
COURIER_NEW
 72
 1
 11
13970.0
 21
-9525.0
 31
0.0
100
AcDbText
 73
 2
  0
TEXT
  5
28E
100
AcDbEntity
  8
PIN_NUMBERS_TOP
100
AcDbText
 10
13316.204
 20
-11017.504
 30
0.0
 40
508.000000
 41
1.000000
  1
J58
  7
COURIER_NEW
 72
 1
 11
13970.0
 21
-10795.0
 31
0.0
100
AcDbText
 73
 2
  0
TEXT
  5
28F
100
AcDbEntity
  8
PIN_NUMBERS_TOP
100
AcDbText
 10
-14841.728
 20
10572.496
 30
0.0
 40
508.000000
 41
1.000000
  1
AL24
  7
COURIER_NEW
 72
 1
 11
-13970.0
 21
10795.0
 31
0.0
100
AcDbText
 73
 2
  0
TEXT
  5
290
100
AcDbEntity
  8
PIN_NUMBERS_TOP
100
AcDbText
 10
-14841.728
 20
9302.496
 30
0.0
 40
508.000000
 41
1.000000
  1
AL26
  7
COURIER_NEW
 72
 1
 11
-13970.0
 21
9525.0
 31
0.0
100
AcDbText
 73
 2
  0
TEXT
  5
291
100
AcDbEntity
  8
PIN_NUMBERS_TOP
100
AcDbText
 10
-14841.728
 20
8032.496
 30
0.0
 40
508.000000
 41
1.000000
  1
AL28
  7
COURIER_NEW
 72
 1
 11
-13970.0
 21
8255.0
 31
0.0
100
AcDbText
 73
 2
  0
TEXT
  5
292
100
AcDbEntity
  8
PIN_NUMBERS_TOP
100
AcDbText
 10
-14841.728
 20
6762.496
 30
0.0
 40
508.000000
 41
1.000000
  1
AL30
  7
COURIER_NEW
 72
 1
 11
-13970.0
 21
6985.0
 31
0.0
100
AcDbText
 73
 2
  0
TEXT
  5
293
100
AcDbEntity
  8
PIN_NUMBERS_TOP
100
AcDbText
 10
-14841.728
 20
5492.496
 30
0.0
 40
508.000000
 41
1.000000
  1
AL32
  7
COURIER_NEW
 72
 1
 11
-13970.0
 21
5715.0
 31
0.0
100
AcDbText
 73
 2
  0
TEXT
  5
294
100
AcDbEntity
  8
PIN_NUMBERS_TOP
100
AcDbText
 10
-14841.728
 20
4222.496
 30
0.0
 40
508.000000
 41
1.000000
  1
AL34
  7
COURIER_NEW
 72
 1
 11
-13970.0
 21
4445.0
 31
0.0
100
AcDbText
 73
 2
  0
TEXT
  5
295
100
AcDbEntity
  8
PIN_NUMBERS_TOP
100
AcDbText
 10
-14841.728
 20
2952.496
 30
0.0
 40
508.000000
 41
1.000000
  1
AL36
  7
COURIER_NEW
 72
 1
 11
-13970.0
 21
3175.0
 31
0.0
100
AcDbText
 73
 2
  0
TEXT
  5
296
100
AcDbEntity
  8
PIN_NUMBERS_TOP
100
AcDbText
 10
-14841.728
 20
1682.496
 30
0.0
 40
508.000000
 41
1.000000
  1
AL38
  7
COURIER_NEW
 72
 1
 11
-13970.0
 21
1905.0
 31
0.0
100
AcDbText
 73
 2
  0
TEXT
  5
297
100
AcDbEntity
  8
PIN_NUMBERS_TOP
100
AcDbText
 10
-14841.728
 20
412.496
 30
0.0
 40
508.000000
 41
1.000000
  1
AL40
  7
COURIER_NEW
 72
 1
 11
-13970.0
 21
635.0
 31
0.0
100
AcDbText
 73
 2
  0
TEXT
  5
298
100
AcDbEntity
  8
PIN_NUMBERS_TOP
100
AcDbText
 10
-14841.728
 20
-857.504
 30
0.0
 40
508.000000
 41
1.000000
  1
AL42
  7
COURIER_NEW
 72
 1
 11
-13970.0
 21
-635.0
 31
0.0
100
AcDbText
 73
 2
  0
TEXT
  5
299
100
AcDbEntity
  8
PIN_NUMBERS_TOP
100
AcDbText
 10
-14841.728
 20
-2127.504
 30
0.0
 40
508.000000
 41
1.000000
  1
AL44
  7
COURIER_NEW
 72
 1
 11
-13970.0
 21
-1905.0
 31
0.0
100
AcDbText
 73
 2
  0
TEXT
  5
29A
100
AcDbEntity
  8
PIN_NUMBERS_TOP
100
AcDbText
 10
-14841.728
 20
-3397.504
 30
0.0
 40
508.000000
 41
1.000000
  1
AL46
  7
COURIER_NEW
 72
 1
 11
-13970.0
 21
-3175.0
 31
0.0
100
AcDbText
 73
 2
  0
TEXT
  5
29B
100
AcDbEntity
  8
PIN_NUMBERS_TOP
100
AcDbText
 10
-14841.728
 20
-4667.504
 30
0.0
 40
508.000000
 41
1.000000
  1
AL48
  7
COURIER_NEW
 72
 1
 11
-13970.0
 21
-4445.0
 31
0.0
100
AcDbText
 73
 2
  0
TEXT
  5
29C
100
AcDbEntity
  8
PIN_NUMBERS_TOP
100
AcDbText
 10
-14841.728
 20
-5937.504
 30
0.0
 40
508.000000
 41
1.000000
  1
AL50
  7
COURIER_NEW
 72
 1
 11
-13970.0
 21
-5715.0
 31
0.0
100
AcDbText
 73
 2
  0
TEXT
  5
29D
100
AcDbEntity
  8
PIN_NUMBERS_TOP
100
AcDbText
 10
-14841.728
 20
-7207.504
 30
0.0
 40
508.000000
 41
1.000000
  1
AL52
  7
COURIER_NEW
 72
 1
 11
-13970.0
 21
-6985.0
 31
0.0
100
AcDbText
 73
 2
  0
TEXT
  5
29E
100
AcDbEntity
  8
PIN_NUMBERS_TOP
100
AcDbText
 10
-14841.728
 20
-8477.504
 30
0.0
 40
508.000000
 41
1.000000
  1
AL54
  7
COURIER_NEW
 72
 1
 11
-13970.0
 21
-8255.0
 31
0.0
100
AcDbText
 73
 2
  0
TEXT
  5
29F
100
AcDbEntity
  8
PIN_NUMBERS_TOP
100
AcDbText
 10
-14841.728
 20
-9747.504
 30
0.0
 40
508.000000
 41
1.000000
  1
AL56
  7
COURIER_NEW
 72
 1
 11
-13970.0
 21
-9525.0
 31
0.0
100
AcDbText
 73
 2
  0
TEXT
  5
2A0
100
AcDbEntity
  8
PIN_NUMBERS_TOP
100
AcDbText
 10
-14841.728
 20
-11017.504
 30
0.0
 40
508.000000
 41
1.000000
  1
AL58
  7
COURIER_NEW
 72
 1
 11
-13970.0
 21
-10795.0
 31
0.0
100
AcDbText
 73
 2
  0
TEXT
  5
2A1
100
AcDbEntity
  8
PIN_NUMBERS_TOP
100
AcDbText
 10
-16111.728
 20
12477.496
 30
0.0
 40
508.000000
 41
1.000000
  1
AM21
  7
COURIER_NEW
 72
 1
 11
-15240.0
 21
12700.0
 31
0.0
100
AcDbText
 73
 2
  0
TEXT
  5
2A2
100
AcDbEntity
  8
PIN_NUMBERS_TOP
100
AcDbText
 10
-16111.728
 20
11207.496
 30
0.0
 40
508.000000
 41
1.000000
  1
AM23
  7
COURIER_NEW
 72
 1
 11
-15240.0
 21
11430.0
 31
0.0
100
AcDbText
 73
 2
  0
TEXT
  5
2A3
100
AcDbEntity
  8
PIN_NUMBERS_TOP
100
AcDbText
 10
-16111.728
 20
9937.496
 30
0.0
 40
508.000000
 41
1.000000
  1
AM25
  7
COURIER_NEW
 72
 1
 11
-15240.0
 21
10160.0
 31
0.0
100
AcDbText
 73
 2
  0
TEXT
  5
2A4
100
AcDbEntity
  8
PIN_NUMBERS_TOP
100
AcDbText
 10
-16111.728
 20
8667.496
 30
0.0
 40
508.000000
 41
1.000000
  1
AM27
  7
COURIER_NEW
 72
 1
 11
-15240.0
 21
8890.0
 31
0.0
100
AcDbText
 73
 2
  0
TEXT
  5
2A5
100
AcDbEntity
  8
PIN_NUMBERS_TOP
100
AcDbText
 10
-16111.728
 20
7397.496
 30
0.0
 40
508.000000
 41
1.000000
  1
AM29
  7
COURIER_NEW
 72
 1
 11
-15240.0
 21
7620.0
 31
0.0
100
AcDbText
 73
 2
  0
TEXT
  5
2A6
100
AcDbEntity
  8
PIN_NUMBERS_TOP
100
AcDbText
 10
-16111.728
 20
6127.496
 30
0.0
 40
508.000000
 41
1.000000
  1
AM31
  7
COURIER_NEW
 72
 1
 11
-15240.0
 21
6350.0
 31
0.0
100
AcDbText
 73
 2
  0
TEXT
  5
2A7
100
AcDbEntity
  8
PIN_NUMBERS_TOP
100
AcDbText
 10
-16111.728
 20
4857.496
 30
0.0
 40
508.000000
 41
1.000000
  1
AM33
  7
COURIER_NEW
 72
 1
 11
-15240.0
 21
5080.0
 31
0.0
100
AcDbText
 73
 2
  0
TEXT
  5
2A8
100
AcDbEntity
  8
PIN_NUMBERS_TOP
100
AcDbText
 10
-16111.728
 20
3587.496
 30
0.0
 40
508.000000
 41
1.000000
  1
AM35
  7
COURIER_NEW
 72
 1
 11
-15240.0
 21
3810.0
 31
0.0
100
AcDbText
 73
 2
  0
TEXT
  5
2A9
100
AcDbEntity
  8
PIN_NUMBERS_TOP
100
AcDbText
 10
-16111.728
 20
2317.496
 30
0.0
 40
508.000000
 41
1.000000
  1
AM37
  7
COURIER_NEW
 72
 1
 11
-15240.0
 21
2540.0
 31
0.0
100
AcDbText
 73
 2
  0
TEXT
  5
2AA
100
AcDbEntity
  8
PIN_NUMBERS_TOP
100
AcDbText
 10
-16111.728
 20
1047.496
 30
0.0
 40
508.000000
 41
1.000000
  1
AM39
  7
COURIER_NEW
 72
 1
 11
-15240.0
 21
1270.0
 31
0.0
100
AcDbText
 73
 2
  0
TEXT
  5
2AB
100
AcDbEntity
  8
PIN_NUMBERS_TOP
100
AcDbText
 10
-16111.728
 20
-222.504
 30
0.0
 40
508.000000
 41
1.000000
  1
AM41
  7
COURIER_NEW
 72
 1
 11
-15240.0
 21
0.0
 31
0.0
100
AcDbText
 73
 2
  0
TEXT
  5
2AC
100
AcDbEntity
  8
PIN_NUMBERS_TOP
100
AcDbText
 10
-16111.728
 20
-1492.504
 30
0.0
 40
508.000000
 41
1.000000
  1
AM43
  7
COURIER_NEW
 72
 1
 11
-15240.0
 21
-1270.0
 31
0.0
100
AcDbText
 73
 2
  0
TEXT
  5
2AD
100
AcDbEntity
  8
PIN_NUMBERS_TOP
100
AcDbText
 10
-16111.728
 20
-2762.504
 30
0.0
 40
508.000000
 41
1.000000
  1
AM45
  7
COURIER_NEW
 72
 1
 11
-15240.0
 21
-2540.0
 31
0.0
100
AcDbText
 73
 2
  0
TEXT
  5
2AE
100
AcDbEntity
  8
PIN_NUMBERS_TOP
100
AcDbText
 10
-16111.728
 20
-4032.504
 30
0.0
 40
508.000000
 41
1.000000
  1
AM47
  7
COURIER_NEW
 72
 1
 11
-15240.0
 21
-3810.0
 31
0.0
100
AcDbText
 73
 2
  0
TEXT
  5
2AF
100
AcDbEntity
  8
PIN_NUMBERS_TOP
100
AcDbText
 10
-16111.728
 20
-5302.504
 30
0.0
 40
508.000000
 41
1.000000
  1
AM49
  7
COURIER_NEW
 72
 1
 11
-15240.0
 21
-5080.0
 31
0.0
100
AcDbText
 73
 2
  0
TEXT
  5
2B0
100
AcDbEntity
  8
PIN_NUMBERS_TOP
100
AcDbText
 10
-16111.728
 20
-6572.504
 30
0.0
 40
508.000000
 41
1.000000
  1
AM51
  7
COURIER_NEW
 72
 1
 11
-15240.0
 21
-6350.0
 31
0.0
100
AcDbText
 73
 2
  0
TEXT
  5
2B1
100
AcDbEntity
  8
PIN_NUMBERS_TOP
100
AcDbText
 10
-16111.728
 20
-7842.504
 30
0.0
 40
508.000000
 41
1.000000
  1
AM53
  7
COURIER_NEW
 72
 1
 11
-15240.0
 21
-7620.0
 31
0.0
100
AcDbText
 73
 2
  0
TEXT
  5
2B2
100
AcDbEntity
  8
PIN_NUMBERS_TOP
100
AcDbText
 10
-16111.728
 20
-9112.504
 30
0.0
 40
508.000000
 41
1.000000
  1
AM55
  7
COURIER_NEW
 72
 1
 11
-15240.0
 21
-8890.0
 31
0.0
100
AcDbText
 73
 2
  0
TEXT
  5
2B3
100
AcDbEntity
  8
PIN_NUMBERS_TOP
100
AcDbText
 10
-16111.728
 20
-10382.504
 30
0.0
 40
508.000000
 41
1.000000
  1
AM57
  7
COURIER_NEW
 72
 1
 11
-15240.0
 21
-10160.0
 31
0.0
100
AcDbText
 73
 2
  0
TEXT
  5
2B4
100
AcDbEntity
  8
PIN_NUMBERS_TOP
100
AcDbText
 10
-16111.728
 20
-11652.504
 30
0.0
 40
508.000000
 41
1.000000
  1
AM59
  7
COURIER_NEW
 72
 1
 11
-15240.0
 21
-11430.0
 31
0.0
100
AcDbText
 73
 2
  0
TEXT
  5
2B5
100
AcDbEntity
  8
PIN_NUMBERS_TOP
100
AcDbText
 10
-16111.728
 20
-12922.504
 30
0.0
 40
508.000000
 41
1.000000
  1
AM61
  7
COURIER_NEW
 72
 1
 11
-15240.0
 21
-12700.0
 31
0.0
100
AcDbText
 73
 2
  0
TEXT
  5
2B6
100
AcDbEntity
  8
PIN_NUMBERS_TOP
100
AcDbText
 10
-17381.728
 20
13112.496
 30
0.0
 40
508.000000
 41
1.000000
  1
AN20
  7
COURIER_NEW
 72
 1
 11
-16510.0
 21
13335.0
 31
0.0
100
AcDbText
 73
 2
  0
TEXT
  5
2B7
100
AcDbEntity
  8
PIN_NUMBERS_TOP
100
AcDbText
 10
-17381.728
 20
11842.496
 30
0.0
 40
508.000000
 41
1.000000
  1
AN22
  7
COURIER_NEW
 72
 1
 11
-16510.0
 21
12065.0
 31
0.0
100
AcDbText
 73
 2
  0
TEXT
  5
2B8
100
AcDbEntity
  8
PIN_NUMBERS_TOP
100
AcDbText
 10
-17381.728
 20
10572.496
 30
0.0
 40
508.000000
 41
1.000000
  1
AN24
  7
COURIER_NEW
 72
 1
 11
-16510.0
 21
10795.0
 31
0.0
100
AcDbText
 73
 2
  0
TEXT
  5
2B9
100
AcDbEntity
  8
PIN_NUMBERS_TOP
100
AcDbText
 10
-17381.728
 20
9302.496
 30
0.0
 40
508.000000
 41
1.000000
  1
AN26
  7
COURIER_NEW
 72
 1
 11
-16510.0
 21
9525.0
 31
0.0
100
AcDbText
 73
 2
  0
TEXT
  5
2BA
100
AcDbEntity
  8
PIN_NUMBERS_TOP
100
AcDbText
 10
-17381.728
 20
8032.496
 30
0.0
 40
508.000000
 41
1.000000
  1
AN28
  7
COURIER_NEW
 72
 1
 11
-16510.0
 21
8255.0
 31
0.0
100
AcDbText
 73
 2
  0
TEXT
  5
2BB
100
AcDbEntity
  8
PIN_NUMBERS_TOP
100
AcDbText
 10
-17381.728
 20
6762.496
 30
0.0
 40
508.000000
 41
1.000000
  1
AN30
  7
COURIER_NEW
 72
 1
 11
-16510.0
 21
6985.0
 31
0.0
100
AcDbText
 73
 2
  0
TEXT
  5
2BC
100
AcDbEntity
  8
PIN_NUMBERS_TOP
100
AcDbText
 10
-17381.728
 20
5492.496
 30
0.0
 40
508.000000
 41
1.000000
  1
AN32
  7
COURIER_NEW
 72
 1
 11
-16510.0
 21
5715.0
 31
0.0
100
AcDbText
 73
 2
  0
TEXT
  5
2BD
100
AcDbEntity
  8
PIN_NUMBERS_TOP
100
AcDbText
 10
-17381.728
 20
4222.496
 30
0.0
 40
508.000000
 41
1.000000
  1
AN34
  7
COURIER_NEW
 72
 1
 11
-16510.0
 21
4445.0
 31
0.0
100
AcDbText
 73
 2
  0
TEXT
  5
2BE
100
AcDbEntity
  8
PIN_NUMBERS_TOP
100
AcDbText
 10
-17381.728
 20
2952.496
 30
0.0
 40
508.000000
 41
1.000000
  1
AN36
  7
COURIER_NEW
 72
 1
 11
-16510.0
 21
3175.0
 31
0.0
100
AcDbText
 73
 2
  0
TEXT
  5
2BF
100
AcDbEntity
  8
PIN_NUMBERS_TOP
100
AcDbText
 10
-17381.728
 20
1682.496
 30
0.0
 40
508.000000
 41
1.000000
  1
AN38
  7
COURIER_NEW
 72
 1
 11
-16510.0
 21
1905.0
 31
0.0
100
AcDbText
 73
 2
  0
TEXT
  5
2C0
100
AcDbEntity
  8
PIN_NUMBERS_TOP
100
AcDbText
 10
-17381.728
 20
412.496
 30
0.0
 40
508.000000
 41
1.000000
  1
AN40
  7
COURIER_NEW
 72
 1
 11
-16510.0
 21
635.0
 31
0.0
100
AcDbText
 73
 2
  0
TEXT
  5
2C1
100
AcDbEntity
  8
PIN_NUMBERS_TOP
100
AcDbText
 10
-17381.728
 20
-857.504
 30
0.0
 40
508.000000
 41
1.000000
  1
AN42
  7
COURIER_NEW
 72
 1
 11
-16510.0
 21
-635.0
 31
0.0
100
AcDbText
 73
 2
  0
TEXT
  5
2C2
100
AcDbEntity
  8
PIN_NUMBERS_TOP
100
AcDbText
 10
-17381.728
 20
-2127.504
 30
0.0
 40
508.000000
 41
1.000000
  1
AN44
  7
COURIER_NEW
 72
 1
 11
-16510.0
 21
-1905.0
 31
0.0
100
AcDbText
 73
 2
  0
TEXT
  5
2C3
100
AcDbEntity
  8
PIN_NUMBERS_TOP
100
AcDbText
 10
-17381.728
 20
-3397.504
 30
0.0
 40
508.000000
 41
1.000000
  1
AN46
  7
COURIER_NEW
 72
 1
 11
-16510.0
 21
-3175.0
 31
0.0
100
AcDbText
 73
 2
  0
TEXT
  5
2C4
100
AcDbEntity
  8
PIN_NUMBERS_TOP
100
AcDbText
 10
-17381.728
 20
-4667.504
 30
0.0
 40
508.000000
 41
1.000000
  1
AN48
  7
COURIER_NEW
 72
 1
 11
-16510.0
 21
-4445.0
 31
0.0
100
AcDbText
 73
 2
  0
TEXT
  5
2C5
100
AcDbEntity
  8
PIN_NUMBERS_TOP
100
AcDbText
 10
-17381.728
 20
-5937.504
 30
0.0
 40
508.000000
 41
1.000000
  1
AN50
  7
COURIER_NEW
 72
 1
 11
-16510.0
 21
-5715.0
 31
0.0
100
AcDbText
 73
 2
  0
TEXT
  5
2C6
100
AcDbEntity
  8
PIN_NUMBERS_TOP
100
AcDbText
 10
-17381.728
 20
-7207.504
 30
0.0
 40
508.000000
 41
1.000000
  1
AN52
  7
COURIER_NEW
 72
 1
 11
-16510.0
 21
-6985.0
 31
0.0
100
AcDbText
 73
 2
  0
TEXT
  5
2C7
100
AcDbEntity
  8
PIN_NUMBERS_TOP
100
AcDbText
 10
-17381.728
 20
-8477.504
 30
0.0
 40
508.000000
 41
1.000000
  1
AN54
  7
COURIER_NEW
 72
 1
 11
-16510.0
 21
-8255.0
 31
0.0
100
AcDbText
 73
 2
  0
TEXT
  5
2C8
100
AcDbEntity
  8
PIN_NUMBERS_TOP
100
AcDbText
 10
-17381.728
 20
-9747.504
 30
0.0
 40
508.000000
 41
1.000000
  1
AN56
  7
COURIER_NEW
 72
 1
 11
-16510.0
 21
-9525.0
 31
0.0
100
AcDbText
 73
 2
  0
TEXT
  5
2C9
100
AcDbEntity
  8
PIN_NUMBERS_TOP
100
AcDbText
 10
-17381.728
 20
-11017.504
 30
0.0
 40
508.000000
 41
1.000000
  1
AN58
  7
COURIER_NEW
 72
 1
 11
-16510.0
 21
-10795.0
 31
0.0
100
AcDbText
 73
 2
  0
TEXT
  5
2CA
100
AcDbEntity
  8
PIN_NUMBERS_TOP
100
AcDbText
 10
-17381.728
 20
-12287.504
 30
0.0
 40
508.000000
 41
1.000000
  1
AN60
  7
COURIER_NEW
 72
 1
 11
-16510.0
 21
-12065.0
 31
0.0
100
AcDbText
 73
 2
  0
TEXT
  5
2CB
100
AcDbEntity
  8
PIN_NUMBERS_TOP
100
AcDbText
 10
-17381.728
 20
-13557.504
 30
0.0
 40
508.000000
 41
1.000000
  1
AN62
  7
COURIER_NEW
 72
 1
 11
-16510.0
 21
-13335.0
 31
0.0
100
AcDbText
 73
 2
  0
TEXT
  5
2CC
100
AcDbEntity
  8
PIN_NUMBERS_TOP
100
AcDbText
 10
15856.204
 20
412.496
 30
0.0
 40
508.000000
 41
1.000000
  1
G40
  7
COURIER_NEW
 72
 1
 11
16510.0
 21
635.0
 31
0.0
100
AcDbText
 73
 2
  0
TEXT
  5
2CD
100
AcDbEntity
  8
PIN_NUMBERS_TOP
100
AcDbText
 10
15856.204
 20
-857.504
 30
0.0
 40
508.000000
 41
1.000000
  1
G42
  7
COURIER_NEW
 72
 1
 11
16510.0
 21
-635.0
 31
0.0
100
AcDbText
 73
 2
  0
TEXT
  5
2CE
100
AcDbEntity
  8
PIN_NUMBERS_TOP
100
AcDbText
 10
15856.204
 20
-2127.504
 30
0.0
 40
508.000000
 41
1.000000
  1
G44
  7
COURIER_NEW
 72
 1
 11
16510.0
 21
-1905.0
 31
0.0
100
AcDbText
 73
 2
  0
TEXT
  5
2CF
100
AcDbEntity
  8
PIN_NUMBERS_TOP
100
AcDbText
 10
15856.204
 20
-3397.504
 30
0.0
 40
508.000000
 41
1.000000
  1
G46
  7
COURIER_NEW
 72
 1
 11
16510.0
 21
-3175.0
 31
0.0
100
AcDbText
 73
 2
  0
TEXT
  5
2D0
100
AcDbEntity
  8
PIN_NUMBERS_TOP
100
AcDbText
 10
15856.204
 20
-4667.504
 30
0.0
 40
508.000000
 41
1.000000
  1
G48
  7
COURIER_NEW
 72
 1
 11
16510.0
 21
-4445.0
 31
0.0
100
AcDbText
 73
 2
  0
TEXT
  5
2D1
100
AcDbEntity
  8
PIN_NUMBERS_TOP
100
AcDbText
 10
15856.204
 20
-5937.504
 30
0.0
 40
508.000000
 41
1.000000
  1
G50
  7
COURIER_NEW
 72
 1
 11
16510.0
 21
-5715.0
 31
0.0
100
AcDbText
 73
 2
  0
TEXT
  5
2D2
100
AcDbEntity
  8
PIN_NUMBERS_TOP
100
AcDbText
 10
15856.204
 20
-7207.504
 30
0.0
 40
508.000000
 41
1.000000
  1
G52
  7
COURIER_NEW
 72
 1
 11
16510.0
 21
-6985.0
 31
0.0
100
AcDbText
 73
 2
  0
TEXT
  5
2D3
100
AcDbEntity
  8
PIN_NUMBERS_TOP
100
AcDbText
 10
15856.204
 20
-8477.504
 30
0.0
 40
508.000000
 41
1.000000
  1
G54
  7
COURIER_NEW
 72
 1
 11
16510.0
 21
-8255.0
 31
0.0
100
AcDbText
 73
 2
  0
TEXT
  5
2D4
100
AcDbEntity
  8
PIN_NUMBERS_TOP
100
AcDbText
 10
15856.204
 20
-9747.504
 30
0.0
 40
508.000000
 41
1.000000
  1
G56
  7
COURIER_NEW
 72
 1
 11
16510.0
 21
-9525.0
 31
0.0
100
AcDbText
 73
 2
  0
TEXT
  5
2D5
100
AcDbEntity
  8
PIN_NUMBERS_TOP
100
AcDbText
 10
15856.204
 20
-11017.504
 30
0.0
 40
508.000000
 41
1.000000
  1
G58
  7
COURIER_NEW
 72
 1
 11
16510.0
 21
-10795.0
 31
0.0
100
AcDbText
 73
 2
  0
TEXT
  5
2D6
100
AcDbEntity
  8
PIN_NUMBERS_TOP
100
AcDbText
 10
15856.204
 20
-12287.504
 30
0.0
 40
508.000000
 41
1.000000
  1
G60
  7
COURIER_NEW
 72
 1
 11
16510.0
 21
-12065.0
 31
0.0
100
AcDbText
 73
 2
  0
TEXT
  5
2D7
100
AcDbEntity
  8
PIN_NUMBERS_TOP
100
AcDbText
 10
15856.204
 20
-13557.504
 30
0.0
 40
508.000000
 41
1.000000
  1
G62
  7
COURIER_NEW
 72
 1
 11
16510.0
 21
-13335.0
 31
0.0
100
AcDbText
 73
 2
  0
TEXT
  5
2D8
100
AcDbEntity
  8
PIN_NUMBERS_TOP
100
AcDbText
 10
-19921.728
 20
-857.504
 30
0.0
 40
508.000000
 41
1.000000
  1
AR42
  7
COURIER_NEW
 72
 1
 11
-19050.0
 21
-635.0
 31
0.0
100
AcDbText
 73
 2
  0
TEXT
  5
2D9
100
AcDbEntity
  8
PIN_NUMBERS_TOP
100
AcDbText
 10
-19921.728
 20
-2127.504
 30
0.0
 40
508.000000
 41
1.000000
  1
AR44
  7
COURIER_NEW
 72
 1
 11
-19050.0
 21
-1905.0
 31
0.0
100
AcDbText
 73
 2
  0
TEXT
  5
2DA
100
AcDbEntity
  8
PIN_NUMBERS_TOP
100
AcDbText
 10
-19921.728
 20
-3397.504
 30
0.0
 40
508.000000
 41
1.000000
  1
AR46
  7
COURIER_NEW
 72
 1
 11
-19050.0
 21
-3175.0
 31
0.0
100
AcDbText
 73
 2
  0
TEXT
  5
2DB
100
AcDbEntity
  8
PIN_NUMBERS_TOP
100
AcDbText
 10
-19921.728
 20
-4667.504
 30
0.0
 40
508.000000
 41
1.000000
  1
AR48
  7
COURIER_NEW
 72
 1
 11
-19050.0
 21
-4445.0
 31
0.0
100
AcDbText
 73
 2
  0
TEXT
  5
2DC
100
AcDbEntity
  8
PIN_NUMBERS_TOP
100
AcDbText
 10
-19921.728
 20
-5937.504
 30
0.0
 40
508.000000
 41
1.000000
  1
AR50
  7
COURIER_NEW
 72
 1
 11
-19050.0
 21
-5715.0
 31
0.0
100
AcDbText
 73
 2
  0
TEXT
  5
2DD
100
AcDbEntity
  8
PIN_NUMBERS_TOP
100
AcDbText
 10
-19921.728
 20
-7207.504
 30
0.0
 40
508.000000
 41
1.000000
  1
AR52
  7
COURIER_NEW
 72
 1
 11
-19050.0
 21
-6985.0
 31
0.0
100
AcDbText
 73
 2
  0
TEXT
  5
2DE
100
AcDbEntity
  8
PIN_NUMBERS_TOP
100
AcDbText
 10
-19921.728
 20
-8477.504
 30
0.0
 40
508.000000
 41
1.000000
  1
AR54
  7
COURIER_NEW
 72
 1
 11
-19050.0
 21
-8255.0
 31
0.0
100
AcDbText
 73
 2
  0
TEXT
  5
2DF
100
AcDbEntity
  8
PIN_NUMBERS_TOP
100
AcDbText
 10
-19921.728
 20
-9747.504
 30
0.0
 40
508.000000
 41
1.000000
  1
AR56
  7
COURIER_NEW
 72
 1
 11
-19050.0
 21
-9525.0
 31
0.0
100
AcDbText
 73
 2
  0
TEXT
  5
2E0
100
AcDbEntity
  8
PIN_NUMBERS_TOP
100
AcDbText
 10
-15893.796
 20
21367.496
 30
0.0
 40
508.000000
 41
1.000000
  1
AM7
  7
COURIER_NEW
 72
 1
 11
-15240.0
 21
21590.0
 31
0.0
100
AcDbText
 73
 2
  0
TEXT
  5
2E1
100
AcDbEntity
  8
PIN_NUMBERS_TOP
100
AcDbText
 10
-14623.796
 20
20732.496
 30
0.0
 40
508.000000
 41
1.000000
  1
AL8
  7
COURIER_NEW
 72
 1
 11
-13970.0
 21
20955.0
 31
0.0
100
AcDbText
 73
 2
  0
TEXT
  5
2E2
100
AcDbEntity
  8
PIN_NUMBERS_TOP
100
AcDbText
 10
-13353.796
 20
21367.496
 30
0.0
 40
508.000000
 41
1.000000
  1
AK7
  7
COURIER_NEW
 72
 1
 11
-12700.0
 21
21590.0
 31
0.0
100
AcDbText
 73
 2
  0
TEXT
  5
2E3
100
AcDbEntity
  8
PIN_NUMBERS_TOP
100
AcDbText
 10
-12083.796
 20
20732.496
 30
0.0
 40
508.000000
 41
1.000000
  1
AJ8
  7
COURIER_NEW
 72
 1
 11
-11430.0
 21
20955.0
 31
0.0
100
AcDbText
 73
 2
  0
TEXT
  5
2E4
100
AcDbEntity
  8
PIN_NUMBERS_TOP
100
AcDbText
 10
-10813.796
 20
21367.496
 30
0.0
 40
508.000000
 41
1.000000
  1
AH7
  7
COURIER_NEW
 72
 1
 11
-10160.0
 21
21590.0
 31
0.0
100
AcDbText
 73
 2
  0
TEXT
  5
2E5
100
AcDbEntity
  8
PIN_NUMBERS_TOP
100
AcDbText
 10
-9543.796
 20
20732.496
 30
0.0
 40
508.000000
 41
1.000000
  1
AG8
  7
COURIER_NEW
 72
 1
 11
-8890.0
 21
20955.0
 31
0.0
100
AcDbText
 73
 2
  0
TEXT
  5
2E6
100
AcDbEntity
  8
PIN_NUMBERS_TOP
100
AcDbText
 10
-8273.796
 20
21367.496
 30
0.0
 40
508.000000
 41
1.000000
  1
AF7
  7
COURIER_NEW
 72
 1
 11
-7620.0
 21
21590.0
 31
0.0
100
AcDbText
 73
 2
  0
TEXT
  5
2E7
100
AcDbEntity
  8
PIN_NUMBERS_TOP
100
AcDbText
 10
-7003.796
 20
20732.496
 30
0.0
 40
508.000000
 41
1.000000
  1
AE8
  7
COURIER_NEW
 72
 1
 11
-6350.0
 21
20955.0
 31
0.0
100
AcDbText
 73
 2
  0
TEXT
  5
2E8
100
AcDbEntity
  8
PIN_NUMBERS_TOP
100
AcDbText
 10
-5733.796
 20
21367.496
 30
0.0
 40
508.000000
 41
1.000000
  1
AD7
  7
COURIER_NEW
 72
 1
 11
-5080.0
 21
21590.0
 31
0.0
100
AcDbText
 73
 2
  0
TEXT
  5
2E9
100
AcDbEntity
  8
PIN_NUMBERS_TOP
100
AcDbText
 10
-4463.796
 20
20732.496
 30
0.0
 40
508.000000
 41
1.000000
  1
AC8
  7
COURIER_NEW
 72
 1
 11
-3810.0
 21
20955.0
 31
0.0
100
AcDbText
 73
 2
  0
TEXT
  5
2EA
100
AcDbEntity
  8
PIN_NUMBERS_TOP
100
AcDbText
 10
-3193.796
 20
21367.496
 30
0.0
 40
508.000000
 41
1.000000
  1
AB7
  7
COURIER_NEW
 72
 1
 11
-2540.0
 21
21590.0
 31
0.0
100
AcDbText
 73
 2
  0
TEXT
  5
2EB
100
AcDbEntity
  8
PIN_NUMBERS_TOP
100
AcDbText
 10
-1923.796
 20
20732.496
 30
0.0
 40
508.000000
 41
1.000000
  1
AA8
  7
COURIER_NEW
 72
 1
 11
-1270.0
 21
20955.0
 31
0.0
100
AcDbText
 73
 2
  0
TEXT
  5
2EC
100
AcDbEntity
  8
PIN_NUMBERS_TOP
100
AcDbText
 10
-435.864
 20
21367.496
 30
0.0
 40
508.000000
 41
1.000000
  1
Y7
  7
COURIER_NEW
 72
 1
 11
0.0
 21
21590.0
 31
0.0
100
AcDbText
 73
 2
  0
TEXT
  5
2ED
100
AcDbEntity
  8
PIN_NUMBERS_TOP
100
AcDbText
 10
834.136
 20
20732.496
 30
0.0
 40
508.000000
 41
1.000000
  1
W8
  7
COURIER_NEW
 72
 1
 11
1270.0
 21
20955.0
 31
0.0
100
AcDbText
 73
 2
  0
TEXT
  5
2EE
100
AcDbEntity
  8
PIN_NUMBERS_TOP
100
AcDbText
 10
2104.136
 20
21367.496
 30
0.0
 40
508.000000
 41
1.000000
  1
V7
  7
COURIER_NEW
 72
 1
 11
2540.0
 21
21590.0
 31
0.0
100
AcDbText
 73
 2
  0
TEXT
  5
2EF
100
AcDbEntity
  8
PIN_NUMBERS_TOP
100
AcDbText
 10
3374.136
 20
20732.496
 30
0.0
 40
508.000000
 41
1.000000
  1
U8
  7
COURIER_NEW
 72
 1
 11
3810.0
 21
20955.0
 31
0.0
100
AcDbText
 73
 2
  0
TEXT
  5
2F0
100
AcDbEntity
  8
PIN_NUMBERS_TOP
100
AcDbText
 10
4644.136
 20
21367.496
 30
0.0
 40
508.000000
 41
1.000000
  1
T7
  7
COURIER_NEW
 72
 1
 11
5080.0
 21
21590.0
 31
0.0
100
AcDbText
 73
 2
  0
TEXT
  5
2F1
100
AcDbEntity
  8
PIN_NUMBERS_TOP
100
AcDbText
 10
5914.136
 20
20732.496
 30
0.0
 40
508.000000
 41
1.000000
  1
R8
  7
COURIER_NEW
 72
 1
 11
6350.0
 21
20955.0
 31
0.0
100
AcDbText
 73
 2
  0
TEXT
  5
2F2
100
AcDbEntity
  8
PIN_NUMBERS_TOP
100
AcDbText
 10
7184.136
 20
21367.496
 30
0.0
 40
508.000000
 41
1.000000
  1
P7
  7
COURIER_NEW
 72
 1
 11
7620.0
 21
21590.0
 31
0.0
100
AcDbText
 73
 2
  0
TEXT
  5
2F3
100
AcDbEntity
  8
PIN_NUMBERS_TOP
100
AcDbText
 10
8454.136
 20
20732.496
 30
0.0
 40
508.000000
 41
1.000000
  1
N8
  7
COURIER_NEW
 72
 1
 11
8890.0
 21
20955.0
 31
0.0
100
AcDbText
 73
 2
  0
TEXT
  5
2F4
100
AcDbEntity
  8
PIN_NUMBERS_TOP
100
AcDbText
 10
9724.136
 20
21367.496
 30
0.0
 40
508.000000
 41
1.000000
  1
M7
  7
COURIER_NEW
 72
 1
 11
10160.0
 21
21590.0
 31
0.0
100
AcDbText
 73
 2
  0
TEXT
  5
2F5
100
AcDbEntity
  8
PIN_NUMBERS_TOP
100
AcDbText
 10
10994.136
 20
20732.496
 30
0.0
 40
508.000000
 41
1.000000
  1
L8
  7
COURIER_NEW
 72
 1
 11
11430.0
 21
20955.0
 31
0.0
100
AcDbText
 73
 2
  0
TEXT
  5
2F6
100
AcDbEntity
  8
PIN_NUMBERS_TOP
100
AcDbText
 10
12264.136
 20
21367.496
 30
0.0
 40
508.000000
 41
1.000000
  1
K7
  7
COURIER_NEW
 72
 1
 11
12700.0
 21
21590.0
 31
0.0
100
AcDbText
 73
 2
  0
TEXT
  5
2F7
100
AcDbEntity
  8
PIN_NUMBERS_TOP
100
AcDbText
 10
13534.136
 20
20732.496
 30
0.0
 40
508.000000
 41
1.000000
  1
J8
  7
COURIER_NEW
 72
 1
 11
13970.0
 21
20955.0
 31
0.0
100
AcDbText
 73
 2
  0
TEXT
  5
2F8
100
AcDbEntity
  8
PIN_NUMBERS_TOP
100
AcDbText
 10
14804.136
 20
21367.496
 30
0.0
 40
508.000000
 41
1.000000
  1
H7
  7
COURIER_NEW
 72
 1
 11
15240.0
 21
21590.0
 31
0.0
100
AcDbText
 73
 2
  0
TEXT
  5
2F9
100
AcDbEntity
  8
PIN_NUMBERS_TOP
100
AcDbText
 10
-12301.728
 20
18192.496
 30
0.0
 40
508.000000
 41
1.000000
  1
AJ12
  7
COURIER_NEW
 72
 1
 11
-11430.0
 21
18415.0
 31
0.0
100
AcDbText
 73
 2
  0
TEXT
  5
2FA
100
AcDbEntity
  8
PIN_NUMBERS_TOP
100
AcDbText
 10
-12301.728
 20
16922.496
 30
0.0
 40
508.000000
 41
1.000000
  1
AJ14
  7
COURIER_NEW
 72
 1
 11
-11430.0
 21
17145.0
 31
0.0
100
AcDbText
 73
 2
  0
TEXT
  5
2FB
100
AcDbEntity
  8
PIN_NUMBERS_TOP
100
AcDbText
 10
-11031.728
 20
18827.496
 30
0.0
 40
508.000000
 41
1.000000
  1
AH11
  7
COURIER_NEW
 72
 1
 11
-10160.0
 21
19050.0
 31
0.0
100
AcDbText
 73
 2
  0
TEXT
  5
2FC
100
AcDbEntity
  8
PIN_NUMBERS_TOP
100
AcDbText
 10
-11031.728
 20
17557.496
 30
0.0
 40
508.000000
 41
1.000000
  1
AH13
  7
COURIER_NEW
 72
 1
 11
-10160.0
 21
17780.0
 31
0.0
100
AcDbText
 73
 2
  0
TEXT
  5
2FD
100
AcDbEntity
  8
PIN_NUMBERS_TOP
100
AcDbText
 10
-11031.728
 20
16287.496
 30
0.0
 40
508.000000
 41
1.000000
  1
AH15
  7
COURIER_NEW
 72
 1
 11
-10160.0
 21
16510.0
 31
0.0
100
AcDbText
 73
 2
  0
TEXT
  5
2FE
100
AcDbEntity
  8
PIN_NUMBERS_TOP
100
AcDbText
 10
-9761.728
 20
18192.496
 30
0.0
 40
508.000000
 41
1.000000
  1
AG12
  7
COURIER_NEW
 72
 1
 11
-8890.0
 21
18415.0
 31
0.0
100
AcDbText
 73
 2
  0
TEXT
  5
2FF
100
AcDbEntity
  8
PIN_NUMBERS_TOP
100
AcDbText
 10
-9761.728
 20
16922.496
 30
0.0
 40
508.000000
 41
1.000000
  1
AG14
  7
COURIER_NEW
 72
 1
 11
-8890.0
 21
17145.0
 31
0.0
100
AcDbText
 73
 2
  0
TEXT
  5
300
100
AcDbEntity
  8
PIN_NUMBERS_TOP
100
AcDbText
 10
-9761.728
 20
15652.496
 30
0.0
 40
508.000000
 41
1.000000
  1
AG16
  7
COURIER_NEW
 72
 1
 11
-8890.0
 21
15875.0
 31
0.0
100
AcDbText
 73
 2
  0
TEXT
  5
301
100
AcDbEntity
  8
PIN_NUMBERS_TOP
100
AcDbText
 10
-8491.728
 20
18827.496
 30
0.0
 40
508.000000
 41
1.000000
  1
AF11
  7
COURIER_NEW
 72
 1
 11
-7620.0
 21
19050.0
 31
0.0
100
AcDbText
 73
 2
  0
TEXT
  5
302
100
AcDbEntity
  8
PIN_NUMBERS_TOP
100
AcDbText
 10
-8491.728
 20
17557.496
 30
0.0
 40
508.000000
 41
1.000000
  1
AF13
  7
COURIER_NEW
 72
 1
 11
-7620.0
 21
17780.0
 31
0.0
100
AcDbText
 73
 2
  0
TEXT
  5
303
100
AcDbEntity
  8
PIN_NUMBERS_TOP
100
AcDbText
 10
-8491.728
 20
16287.496
 30
0.0
 40
508.000000
 41
1.000000
  1
AF15
  7
COURIER_NEW
 72
 1
 11
-7620.0
 21
16510.0
 31
0.0
100
AcDbText
 73
 2
  0
TEXT
  5
304
100
AcDbEntity
  8
PIN_NUMBERS_TOP
100
AcDbText
 10
-7221.728
 20
18192.496
 30
0.0
 40
508.000000
 41
1.000000
  1
AE12
  7
COURIER_NEW
 72
 1
 11
-6350.0
 21
18415.0
 31
0.0
100
AcDbText
 73
 2
  0
TEXT
  5
305
100
AcDbEntity
  8
PIN_NUMBERS_TOP
100
AcDbText
 10
-7221.728
 20
16922.496
 30
0.0
 40
508.000000
 41
1.000000
  1
AE14
  7
COURIER_NEW
 72
 1
 11
-6350.0
 21
17145.0
 31
0.0
100
AcDbText
 73
 2
  0
TEXT
  5
306
100
AcDbEntity
  8
PIN_NUMBERS_TOP
100
AcDbText
 10
-7221.728
 20
15652.496
 30
0.0
 40
508.000000
 41
1.000000
  1
AE16
  7
COURIER_NEW
 72
 1
 11
-6350.0
 21
15875.0
 31
0.0
100
AcDbText
 73
 2
  0
TEXT
  5
307
100
AcDbEntity
  8
PIN_NUMBERS_TOP
100
AcDbText
 10
-5951.728
 20
18827.496
 30
0.0
 40
508.000000
 41
1.000000
  1
AD11
  7
COURIER_NEW
 72
 1
 11
-5080.0
 21
19050.0
 31
0.0
100
AcDbText
 73
 2
  0
TEXT
  5
308
100
AcDbEntity
  8
PIN_NUMBERS_TOP
100
AcDbText
 10
-5951.728
 20
17557.496
 30
0.0
 40
508.000000
 41
1.000000
  1
AD13
  7
COURIER_NEW
 72
 1
 11
-5080.0
 21
17780.0
 31
0.0
100
AcDbText
 73
 2
  0
TEXT
  5
309
100
AcDbEntity
  8
PIN_NUMBERS_TOP
100
AcDbText
 10
-5951.728
 20
16287.496
 30
0.0
 40
508.000000
 41
1.000000
  1
AD15
  7
COURIER_NEW
 72
 1
 11
-5080.0
 21
16510.0
 31
0.0
100
AcDbText
 73
 2
  0
TEXT
  5
30A
100
AcDbEntity
  8
PIN_NUMBERS_TOP
100
AcDbText
 10
-4681.728
 20
18192.496
 30
0.0
 40
508.000000
 41
1.000000
  1
AC12
  7
COURIER_NEW
 72
 1
 11
-3810.0
 21
18415.0
 31
0.0
100
AcDbText
 73
 2
  0
TEXT
  5
30B
100
AcDbEntity
  8
PIN_NUMBERS_TOP
100
AcDbText
 10
-4681.728
 20
16922.496
 30
0.0
 40
508.000000
 41
1.000000
  1
AC14
  7
COURIER_NEW
 72
 1
 11
-3810.0
 21
17145.0
 31
0.0
100
AcDbText
 73
 2
  0
TEXT
  5
30C
100
AcDbEntity
  8
PIN_NUMBERS_TOP
100
AcDbText
 10
-4681.728
 20
15652.496
 30
0.0
 40
508.000000
 41
1.000000
  1
AC16
  7
COURIER_NEW
 72
 1
 11
-3810.0
 21
15875.0
 31
0.0
100
AcDbText
 73
 2
  0
TEXT
  5
30D
100
AcDbEntity
  8
PIN_NUMBERS_TOP
100
AcDbText
 10
-3411.728
 20
18827.496
 30
0.0
 40
508.000000
 41
1.000000
  1
AB11
  7
COURIER_NEW
 72
 1
 11
-2540.0
 21
19050.0
 31
0.0
100
AcDbText
 73
 2
  0
TEXT
  5
30E
100
AcDbEntity
  8
PIN_NUMBERS_TOP
100
AcDbText
 10
-3411.728
 20
17557.496
 30
0.0
 40
508.000000
 41
1.000000
  1
AB13
  7
COURIER_NEW
 72
 1
 11
-2540.0
 21
17780.0
 31
0.0
100
AcDbText
 73
 2
  0
TEXT
  5
30F
100
AcDbEntity
  8
PIN_NUMBERS_TOP
100
AcDbText
 10
-3411.728
 20
16287.496
 30
0.0
 40
508.000000
 41
1.000000
  1
AB15
  7
COURIER_NEW
 72
 1
 11
-2540.0
 21
16510.0
 31
0.0
100
AcDbText
 73
 2
  0
TEXT
  5
310
100
AcDbEntity
  8
PIN_NUMBERS_TOP
100
AcDbText
 10
-2141.728
 20
18192.496
 30
0.0
 40
508.000000
 41
1.000000
  1
AA12
  7
COURIER_NEW
 72
 1
 11
-1270.0
 21
18415.0
 31
0.0
100
AcDbText
 73
 2
  0
TEXT
  5
311
100
AcDbEntity
  8
PIN_NUMBERS_TOP
100
AcDbText
 10
-2141.728
 20
16922.496
 30
0.0
 40
508.000000
 41
1.000000
  1
AA14
  7
COURIER_NEW
 72
 1
 11
-1270.0
 21
17145.0
 31
0.0
100
AcDbText
 73
 2
  0
TEXT
  5
312
100
AcDbEntity
  8
PIN_NUMBERS_TOP
100
AcDbText
 10
-2141.728
 20
15652.496
 30
0.0
 40
508.000000
 41
1.000000
  1
AA16
  7
COURIER_NEW
 72
 1
 11
-1270.0
 21
15875.0
 31
0.0
100
AcDbText
 73
 2
  0
TEXT
  5
313
100
AcDbEntity
  8
PIN_NUMBERS_TOP
100
AcDbText
 10
-653.796
 20
18827.496
 30
0.0
 40
508.000000
 41
1.000000
  1
Y11
  7
COURIER_NEW
 72
 1
 11
0.0
 21
19050.0
 31
0.0
100
AcDbText
 73
 2
  0
TEXT
  5
314
100
AcDbEntity
  8
PIN_NUMBERS_TOP
100
AcDbText
 10
-653.796
 20
17557.496
 30
0.0
 40
508.000000
 41
1.000000
  1
Y13
  7
COURIER_NEW
 72
 1
 11
0.0
 21
17780.0
 31
0.0
100
AcDbText
 73
 2
  0
TEXT
  5
315
100
AcDbEntity
  8
PIN_NUMBERS_TOP
100
AcDbText
 10
-653.796
 20
16287.496
 30
0.0
 40
508.000000
 41
1.000000
  1
Y15
  7
COURIER_NEW
 72
 1
 11
0.0
 21
16510.0
 31
0.0
100
AcDbText
 73
 2
  0
TEXT
  5
316
100
AcDbEntity
  8
PIN_NUMBERS_TOP
100
AcDbText
 10
616.204
 20
18192.496
 30
0.0
 40
508.000000
 41
1.000000
  1
W12
  7
COURIER_NEW
 72
 1
 11
1270.0
 21
18415.0
 31
0.0
100
AcDbText
 73
 2
  0
TEXT
  5
317
100
AcDbEntity
  8
PIN_NUMBERS_TOP
100
AcDbText
 10
616.204
 20
16922.496
 30
0.0
 40
508.000000
 41
1.000000
  1
W14
  7
COURIER_NEW
 72
 1
 11
1270.0
 21
17145.0
 31
0.0
100
AcDbText
 73
 2
  0
TEXT
  5
318
100
AcDbEntity
  8
PIN_NUMBERS_TOP
100
AcDbText
 10
616.204
 20
15652.496
 30
0.0
 40
508.000000
 41
1.000000
  1
W16
  7
COURIER_NEW
 72
 1
 11
1270.0
 21
15875.0
 31
0.0
100
AcDbText
 73
 2
  0
TEXT
  5
319
100
AcDbEntity
  8
PIN_NUMBERS_TOP
100
AcDbText
 10
1886.204
 20
18827.496
 30
0.0
 40
508.000000
 41
1.000000
  1
V11
  7
COURIER_NEW
 72
 1
 11
2540.0
 21
19050.0
 31
0.0
100
AcDbText
 73
 2
  0
TEXT
  5
31A
100
AcDbEntity
  8
PIN_NUMBERS_TOP
100
AcDbText
 10
1886.204
 20
17557.496
 30
0.0
 40
508.000000
 41
1.000000
  1
V13
  7
COURIER_NEW
 72
 1
 11
2540.0
 21
17780.0
 31
0.0
100
AcDbText
 73
 2
  0
TEXT
  5
31B
100
AcDbEntity
  8
PIN_NUMBERS_TOP
100
AcDbText
 10
1886.204
 20
16287.496
 30
0.0
 40
508.000000
 41
1.000000
  1
V15
  7
COURIER_NEW
 72
 1
 11
2540.0
 21
16510.0
 31
0.0
100
AcDbText
 73
 2
  0
TEXT
  5
31C
100
AcDbEntity
  8
PIN_NUMBERS_TOP
100
AcDbText
 10
3156.204
 20
18192.496
 30
0.0
 40
508.000000
 41
1.000000
  1
U12
  7
COURIER_NEW
 72
 1
 11
3810.0
 21
18415.0
 31
0.0
100
AcDbText
 73
 2
  0
TEXT
  5
31D
100
AcDbEntity
  8
PIN_NUMBERS_TOP
100
AcDbText
 10
3156.204
 20
16922.496
 30
0.0
 40
508.000000
 41
1.000000
  1
U14
  7
COURIER_NEW
 72
 1
 11
3810.0
 21
17145.0
 31
0.0
100
AcDbText
 73
 2
  0
TEXT
  5
31E
100
AcDbEntity
  8
PIN_NUMBERS_TOP
100
AcDbText
 10
3156.204
 20
15652.496
 30
0.0
 40
508.000000
 41
1.000000
  1
U16
  7
COURIER_NEW
 72
 1
 11
3810.0
 21
15875.0
 31
0.0
100
AcDbText
 73
 2
  0
TEXT
  5
31F
100
AcDbEntity
  8
PIN_NUMBERS_TOP
100
AcDbText
 10
4426.204
 20
18827.496
 30
0.0
 40
508.000000
 41
1.000000
  1
T11
  7
COURIER_NEW
 72
 1
 11
5080.0
 21
19050.0
 31
0.0
100
AcDbText
 73
 2
  0
TEXT
  5
320
100
AcDbEntity
  8
PIN_NUMBERS_TOP
100
AcDbText
 10
4426.204
 20
17557.496
 30
0.0
 40
508.000000
 41
1.000000
  1
T13
  7
COURIER_NEW
 72
 1
 11
5080.0
 21
17780.0
 31
0.0
100
AcDbText
 73
 2
  0
TEXT
  5
321
100
AcDbEntity
  8
PIN_NUMBERS_TOP
100
AcDbText
 10
4426.204
 20
16287.496
 30
0.0
 40
508.000000
 41
1.000000
  1
T15
  7
COURIER_NEW
 72
 1
 11
5080.0
 21
16510.0
 31
0.0
100
AcDbText
 73
 2
  0
TEXT
  5
322
100
AcDbEntity
  8
PIN_NUMBERS_TOP
100
AcDbText
 10
5696.204
 20
18192.496
 30
0.0
 40
508.000000
 41
1.000000
  1
R12
  7
COURIER_NEW
 72
 1
 11
6350.0
 21
18415.0
 31
0.0
100
AcDbText
 73
 2
  0
TEXT
  5
323
100
AcDbEntity
  8
PIN_NUMBERS_TOP
100
AcDbText
 10
5696.204
 20
16922.496
 30
0.0
 40
508.000000
 41
1.000000
  1
R14
  7
COURIER_NEW
 72
 1
 11
6350.0
 21
17145.0
 31
0.0
100
AcDbText
 73
 2
  0
TEXT
  5
324
100
AcDbEntity
  8
PIN_NUMBERS_TOP
100
AcDbText
 10
5696.204
 20
15652.496
 30
0.0
 40
508.000000
 41
1.000000
  1
R16
  7
COURIER_NEW
 72
 1
 11
6350.0
 21
15875.0
 31
0.0
100
AcDbText
 73
 2
  0
TEXT
  5
325
100
AcDbEntity
  8
PIN_NUMBERS_TOP
100
AcDbText
 10
6966.204
 20
18827.496
 30
0.0
 40
508.000000
 41
1.000000
  1
P11
  7
COURIER_NEW
 72
 1
 11
7620.0
 21
19050.0
 31
0.0
100
AcDbText
 73
 2
  0
TEXT
  5
326
100
AcDbEntity
  8
PIN_NUMBERS_TOP
100
AcDbText
 10
6966.204
 20
17557.496
 30
0.0
 40
508.000000
 41
1.000000
  1
P13
  7
COURIER_NEW
 72
 1
 11
7620.0
 21
17780.0
 31
0.0
100
AcDbText
 73
 2
  0
TEXT
  5
327
100
AcDbEntity
  8
PIN_NUMBERS_TOP
100
AcDbText
 10
6966.204
 20
16287.496
 30
0.0
 40
508.000000
 41
1.000000
  1
P15
  7
COURIER_NEW
 72
 1
 11
7620.0
 21
16510.0
 31
0.0
100
AcDbText
 73
 2
  0
TEXT
  5
328
100
AcDbEntity
  8
PIN_NUMBERS_TOP
100
AcDbText
 10
8236.204
 20
18192.496
 30
0.0
 40
508.000000
 41
1.000000
  1
N12
  7
COURIER_NEW
 72
 1
 11
8890.0
 21
18415.0
 31
0.0
100
AcDbText
 73
 2
  0
TEXT
  5
329
100
AcDbEntity
  8
PIN_NUMBERS_TOP
100
AcDbText
 10
8236.204
 20
16922.496
 30
0.0
 40
508.000000
 41
1.000000
  1
N14
  7
COURIER_NEW
 72
 1
 11
8890.0
 21
17145.0
 31
0.0
100
AcDbText
 73
 2
  0
TEXT
  5
32A
100
AcDbEntity
  8
PIN_NUMBERS_TOP
100
AcDbText
 10
8236.204
 20
15652.496
 30
0.0
 40
508.000000
 41
1.000000
  1
N16
  7
COURIER_NEW
 72
 1
 11
8890.0
 21
15875.0
 31
0.0
100
AcDbText
 73
 2
  0
TEXT
  5
32B
100
AcDbEntity
  8
PIN_NUMBERS_TOP
100
AcDbText
 10
9506.204
 20
18827.496
 30
0.0
 40
508.000000
 41
1.000000
  1
M11
  7
COURIER_NEW
 72
 1
 11
10160.0
 21
19050.0
 31
0.0
100
AcDbText
 73
 2
  0
TEXT
  5
32C
100
AcDbEntity
  8
PIN_NUMBERS_TOP
100
AcDbText
 10
9506.204
 20
17557.496
 30
0.0
 40
508.000000
 41
1.000000
  1
M13
  7
COURIER_NEW
 72
 1
 11
10160.0
 21
17780.0
 31
0.0
100
AcDbText
 73
 2
  0
TEXT
  5
32D
100
AcDbEntity
  8
PIN_NUMBERS_TOP
100
AcDbText
 10
9506.204
 20
16287.496
 30
0.0
 40
508.000000
 41
1.000000
  1
M15
  7
COURIER_NEW
 72
 1
 11
10160.0
 21
16510.0
 31
0.0
100
AcDbText
 73
 2
  0
TEXT
  5
32E
100
AcDbEntity
  8
PIN_NUMBERS_TOP
100
AcDbText
 10
10776.204
 20
18192.496
 30
0.0
 40
508.000000
 41
1.000000
  1
L12
  7
COURIER_NEW
 72
 1
 11
11430.0
 21
18415.0
 31
0.0
100
AcDbText
 73
 2
  0
TEXT
  5
32F
100
AcDbEntity
  8
PIN_NUMBERS_TOP
100
AcDbText
 10
10776.204
 20
16922.496
 30
0.0
 40
508.000000
 41
1.000000
  1
L14
  7
COURIER_NEW
 72
 1
 11
11430.0
 21
17145.0
 31
0.0
100
AcDbText
 73
 2
  0
TEXT
  5
330
100
AcDbEntity
  8
PIN_NUMBERS_TOP
100
AcDbText
 10
-12301.728
 20
11842.496
 30
0.0
 40
508.000000
 41
1.000000
  1
AJ22
  7
COURIER_NEW
 72
 1
 11
-11430.0
 21
12065.0
 31
0.0
100
AcDbText
 73
 2
  0
TEXT
  5
331
100
AcDbEntity
  8
PIN_NUMBERS_TOP
100
AcDbText
 10
-12301.728
 20
10572.496
 30
0.0
 40
508.000000
 41
1.000000
  1
AJ24
  7
COURIER_NEW
 72
 1
 11
-11430.0
 21
10795.0
 31
0.0
100
AcDbText
 73
 2
  0
TEXT
  5
332
100
AcDbEntity
  8
PIN_NUMBERS_TOP
100
AcDbText
 10
-12301.728
 20
9302.496
 30
0.0
 40
508.000000
 41
1.000000
  1
AJ26
  7
COURIER_NEW
 72
 1
 11
-11430.0
 21
9525.0
 31
0.0
100
AcDbText
 73
 2
  0
TEXT
  5
333
100
AcDbEntity
  8
PIN_NUMBERS_TOP
100
AcDbText
 10
-12301.728
 20
8032.496
 30
0.0
 40
508.000000
 41
1.000000
  1
AJ28
  7
COURIER_NEW
 72
 1
 11
-11430.0
 21
8255.0
 31
0.0
100
AcDbText
 73
 2
  0
TEXT
  5
334
100
AcDbEntity
  8
PIN_NUMBERS_TOP
100
AcDbText
 10
-12301.728
 20
6762.496
 30
0.0
 40
508.000000
 41
1.000000
  1
AJ30
  7
COURIER_NEW
 72
 1
 11
-11430.0
 21
6985.0
 31
0.0
100
AcDbText
 73
 2
  0
TEXT
  5
335
100
AcDbEntity
  8
PIN_NUMBERS_TOP
100
AcDbText
 10
-12301.728
 20
5492.496
 30
0.0
 40
508.000000
 41
1.000000
  1
AJ32
  7
COURIER_NEW
 72
 1
 11
-11430.0
 21
5715.0
 31
0.0
100
AcDbText
 73
 2
  0
TEXT
  5
336
100
AcDbEntity
  8
PIN_NUMBERS_TOP
100
AcDbText
 10
-12301.728
 20
4222.496
 30
0.0
 40
508.000000
 41
1.000000
  1
AJ34
  7
COURIER_NEW
 72
 1
 11
-11430.0
 21
4445.0
 31
0.0
100
AcDbText
 73
 2
  0
TEXT
  5
337
100
AcDbEntity
  8
PIN_NUMBERS_TOP
100
AcDbText
 10
-12301.728
 20
2952.496
 30
0.0
 40
508.000000
 41
1.000000
  1
AJ36
  7
COURIER_NEW
 72
 1
 11
-11430.0
 21
3175.0
 31
0.0
100
AcDbText
 73
 2
  0
TEXT
  5
338
100
AcDbEntity
  8
PIN_NUMBERS_TOP
100
AcDbText
 10
-12301.728
 20
1682.496
 30
0.0
 40
508.000000
 41
1.000000
  1
AJ38
  7
COURIER_NEW
 72
 1
 11
-11430.0
 21
1905.0
 31
0.0
100
AcDbText
 73
 2
  0
TEXT
  5
339
100
AcDbEntity
  8
PIN_NUMBERS_TOP
100
AcDbText
 10
-12301.728
 20
412.496
 30
0.0
 40
508.000000
 41
1.000000
  1
AJ40
  7
COURIER_NEW
 72
 1
 11
-11430.0
 21
635.0
 31
0.0
100
AcDbText
 73
 2
  0
TEXT
  5
33A
100
AcDbEntity
  8
PIN_NUMBERS_TOP
100
AcDbText
 10
-12301.728
 20
-857.504
 30
0.0
 40
508.000000
 41
1.000000
  1
AJ42
  7
COURIER_NEW
 72
 1
 11
-11430.0
 21
-635.0
 31
0.0
100
AcDbText
 73
 2
  0
TEXT
  5
33B
100
AcDbEntity
  8
PIN_NUMBERS_TOP
100
AcDbText
 10
-12301.728
 20
-2127.504
 30
0.0
 40
508.000000
 41
1.000000
  1
AJ44
  7
COURIER_NEW
 72
 1
 11
-11430.0
 21
-1905.0
 31
0.0
100
AcDbText
 73
 2
  0
TEXT
  5
33C
100
AcDbEntity
  8
PIN_NUMBERS_TOP
100
AcDbText
 10
-12301.728
 20
-3397.504
 30
0.0
 40
508.000000
 41
1.000000
  1
AJ46
  7
COURIER_NEW
 72
 1
 11
-11430.0
 21
-3175.0
 31
0.0
100
AcDbText
 73
 2
  0
TEXT
  5
33D
100
AcDbEntity
  8
PIN_NUMBERS_TOP
100
AcDbText
 10
-12301.728
 20
-4667.504
 30
0.0
 40
508.000000
 41
1.000000
  1
AJ48
  7
COURIER_NEW
 72
 1
 11
-11430.0
 21
-4445.0
 31
0.0
100
AcDbText
 73
 2
  0
TEXT
  5
33E
100
AcDbEntity
  8
PIN_NUMBERS_TOP
100
AcDbText
 10
-12301.728
 20
-5937.504
 30
0.0
 40
508.000000
 41
1.000000
  1
AJ50
  7
COURIER_NEW
 72
 1
 11
-11430.0
 21
-5715.0
 31
0.0
100
AcDbText
 73
 2
  0
TEXT
  5
33F
100
AcDbEntity
  8
PIN_NUMBERS_TOP
100
AcDbText
 10
-12301.728
 20
-7207.504
 30
0.0
 40
508.000000
 41
1.000000
  1
AJ52
  7
COURIER_NEW
 72
 1
 11
-11430.0
 21
-6985.0
 31
0.0
100
AcDbText
 73
 2
  0
TEXT
  5
340
100
AcDbEntity
  8
PIN_NUMBERS_TOP
100
AcDbText
 10
-12301.728
 20
-8477.504
 30
0.0
 40
508.000000
 41
1.000000
  1
AJ54
  7
COURIER_NEW
 72
 1
 11
-11430.0
 21
-8255.0
 31
0.0
100
AcDbText
 73
 2
  0
TEXT
  5
341
100
AcDbEntity
  8
PIN_NUMBERS_TOP
100
AcDbText
 10
-12301.728
 20
-9747.504
 30
0.0
 40
508.000000
 41
1.000000
  1
AJ56
  7
COURIER_NEW
 72
 1
 11
-11430.0
 21
-9525.0
 31
0.0
100
AcDbText
 73
 2
  0
TEXT
  5
342
100
AcDbEntity
  8
PIN_NUMBERS_TOP
100
AcDbText
 10
-12301.728
 20
-11017.504
 30
0.0
 40
508.000000
 41
1.000000
  1
AJ58
  7
COURIER_NEW
 72
 1
 11
-11430.0
 21
-10795.0
 31
0.0
100
AcDbText
 73
 2
  0
TEXT
  5
343
100
AcDbEntity
  8
PIN_NUMBERS_TOP
100
AcDbText
 10
-12301.728
 20
-12287.504
 30
0.0
 40
508.000000
 41
1.000000
  1
AJ60
  7
COURIER_NEW
 72
 1
 11
-11430.0
 21
-12065.0
 31
0.0
100
AcDbText
 73
 2
  0
TEXT
  5
344
100
AcDbEntity
  8
PIN_NUMBERS_TOP
100
AcDbText
 10
-11031.728
 20
12477.496
 30
0.0
 40
508.000000
 41
1.000000
  1
AH21
  7
COURIER_NEW
 72
 1
 11
-10160.0
 21
12700.0
 31
0.0
100
AcDbText
 73
 2
  0
TEXT
  5
345
100
AcDbEntity
  8
PIN_NUMBERS_TOP
100
AcDbText
 10
-11031.728
 20
11207.496
 30
0.0
 40
508.000000
 41
1.000000
  1
AH23
  7
COURIER_NEW
 72
 1
 11
-10160.0
 21
11430.0
 31
0.0
100
AcDbText
 73
 2
  0
TEXT
  5
346
100
AcDbEntity
  8
PIN_NUMBERS_TOP
100
AcDbText
 10
-11031.728
 20
9937.496
 30
0.0
 40
508.000000
 41
1.000000
  1
AH25
  7
COURIER_NEW
 72
 1
 11
-10160.0
 21
10160.0
 31
0.0
100
AcDbText
 73
 2
  0
TEXT
  5
347
100
AcDbEntity
  8
PIN_NUMBERS_TOP
100
AcDbText
 10
-11031.728
 20
8667.496
 30
0.0
 40
508.000000
 41
1.000000
  1
AH27
  7
COURIER_NEW
 72
 1
 11
-10160.0
 21
8890.0
 31
0.0
100
AcDbText
 73
 2
  0
TEXT
  5
348
100
AcDbEntity
  8
PIN_NUMBERS_TOP
100
AcDbText
 10
-11031.728
 20
7397.496
 30
0.0
 40
508.000000
 41
1.000000
  1
AH29
  7
COURIER_NEW
 72
 1
 11
-10160.0
 21
7620.0
 31
0.0
100
AcDbText
 73
 2
  0
TEXT
  5
349
100
AcDbEntity
  8
PIN_NUMBERS_TOP
100
AcDbText
 10
-11031.728
 20
6127.496
 30
0.0
 40
508.000000
 41
1.000000
  1
AH31
  7
COURIER_NEW
 72
 1
 11
-10160.0
 21
6350.0
 31
0.0
100
AcDbText
 73
 2
  0
TEXT
  5
34A
100
AcDbEntity
  8
PIN_NUMBERS_TOP
100
AcDbText
 10
-11031.728
 20
4857.496
 30
0.0
 40
508.000000
 41
1.000000
  1
AH33
  7
COURIER_NEW
 72
 1
 11
-10160.0
 21
5080.0
 31
0.0
100
AcDbText
 73
 2
  0
TEXT
  5
34B
100
AcDbEntity
  8
PIN_NUMBERS_TOP
100
AcDbText
 10
-11031.728
 20
3587.496
 30
0.0
 40
508.000000
 41
1.000000
  1
AH35
  7
COURIER_NEW
 72
 1
 11
-10160.0
 21
3810.0
 31
0.0
100
AcDbText
 73
 2
  0
TEXT
  5
34C
100
AcDbEntity
  8
PIN_NUMBERS_TOP
100
AcDbText
 10
-11031.728
 20
2317.496
 30
0.0
 40
508.000000
 41
1.000000
  1
AH37
  7
COURIER_NEW
 72
 1
 11
-10160.0
 21
2540.0
 31
0.0
100
AcDbText
 73
 2
  0
TEXT
  5
34D
100
AcDbEntity
  8
PIN_NUMBERS_TOP
100
AcDbText
 10
-11031.728
 20
1047.496
 30
0.0
 40
508.000000
 41
1.000000
  1
AH39
  7
COURIER_NEW
 72
 1
 11
-10160.0
 21
1270.0
 31
0.0
100
AcDbText
 73
 2
  0
TEXT
  5
34E
100
AcDbEntity
  8
PIN_NUMBERS_TOP
100
AcDbText
 10
-11031.728
 20
-222.504
 30
0.0
 40
508.000000
 41
1.000000
  1
AH41
  7
COURIER_NEW
 72
 1
 11
-10160.0
 21
0.0
 31
0.0
100
AcDbText
 73
 2
  0
TEXT
  5
34F
100
AcDbEntity
  8
PIN_NUMBERS_TOP
100
AcDbText
 10
-11031.728
 20
-1492.504
 30
0.0
 40
508.000000
 41
1.000000
  1
AH43
  7
COURIER_NEW
 72
 1
 11
-10160.0
 21
-1270.0
 31
0.0
100
AcDbText
 73
 2
  0
TEXT
  5
350
100
AcDbEntity
  8
PIN_NUMBERS_TOP
100
AcDbText
 10
-11031.728
 20
-2762.504
 30
0.0
 40
508.000000
 41
1.000000
  1
AH45
  7
COURIER_NEW
 72
 1
 11
-10160.0
 21
-2540.0
 31
0.0
100
AcDbText
 73
 2
  0
TEXT
  5
351
100
AcDbEntity
  8
PIN_NUMBERS_TOP
100
AcDbText
 10
-11031.728
 20
-4032.504
 30
0.0
 40
508.000000
 41
1.000000
  1
AH47
  7
COURIER_NEW
 72
 1
 11
-10160.0
 21
-3810.0
 31
0.0
100
AcDbText
 73
 2
  0
TEXT
  5
352
100
AcDbEntity
  8
PIN_NUMBERS_TOP
100
AcDbText
 10
-11031.728
 20
-5302.504
 30
0.0
 40
508.000000
 41
1.000000
  1
AH49
  7
COURIER_NEW
 72
 1
 11
-10160.0
 21
-5080.0
 31
0.0
100
AcDbText
 73
 2
  0
TEXT
  5
353
100
AcDbEntity
  8
PIN_NUMBERS_TOP
100
AcDbText
 10
-11031.728
 20
-6572.504
 30
0.0
 40
508.000000
 41
1.000000
  1
AH51
  7
COURIER_NEW
 72
 1
 11
-10160.0
 21
-6350.0
 31
0.0
100
AcDbText
 73
 2
  0
TEXT
  5
354
100
AcDbEntity
  8
PIN_NUMBERS_TOP
100
AcDbText
 10
-11031.728
 20
-7842.504
 30
0.0
 40
508.000000
 41
1.000000
  1
AH53
  7
COURIER_NEW
 72
 1
 11
-10160.0
 21
-7620.0
 31
0.0
100
AcDbText
 73
 2
  0
TEXT
  5
355
100
AcDbEntity
  8
PIN_NUMBERS_TOP
100
AcDbText
 10
-11031.728
 20
-9112.504
 30
0.0
 40
508.000000
 41
1.000000
  1
AH55
  7
COURIER_NEW
 72
 1
 11
-10160.0
 21
-8890.0
 31
0.0
100
AcDbText
 73
 2
  0
TEXT
  5
356
100
AcDbEntity
  8
PIN_NUMBERS_TOP
100
AcDbText
 10
-11031.728
 20
-10382.504
 30
0.0
 40
508.000000
 41
1.000000
  1
AH57
  7
COURIER_NEW
 72
 1
 11
-10160.0
 21
-10160.0
 31
0.0
100
AcDbText
 73
 2
  0
TEXT
  5
357
100
AcDbEntity
  8
PIN_NUMBERS_TOP
100
AcDbText
 10
-11031.728
 20
-11652.504
 30
0.0
 40
508.000000
 41
1.000000
  1
AH59
  7
COURIER_NEW
 72
 1
 11
-10160.0
 21
-11430.0
 31
0.0
100
AcDbText
 73
 2
  0
TEXT
  5
358
100
AcDbEntity
  8
PIN_NUMBERS_TOP
100
AcDbText
 10
-11031.728
 20
-12922.504
 30
0.0
 40
508.000000
 41
1.000000
  1
AH61
  7
COURIER_NEW
 72
 1
 11
-10160.0
 21
-12700.0
 31
0.0
100
AcDbText
 73
 2
  0
TEXT
  5
359
100
AcDbEntity
  8
PIN_NUMBERS_TOP
100
AcDbText
 10
-9761.728
 20
13112.496
 30
0.0
 40
508.000000
 41
1.000000
  1
AG20
  7
COURIER_NEW
 72
 1
 11
-8890.0
 21
13335.0
 31
0.0
100
AcDbText
 73
 2
  0
TEXT
  5
35A
100
AcDbEntity
  8
PIN_NUMBERS_TOP
100
AcDbText
 10
-9761.728
 20
11842.496
 30
0.0
 40
508.000000
 41
1.000000
  1
AG22
  7
COURIER_NEW
 72
 1
 11
-8890.0
 21
12065.0
 31
0.0
100
AcDbText
 73
 2
  0
TEXT
  5
35B
100
AcDbEntity
  8
PIN_NUMBERS_TOP
100
AcDbText
 10
-9761.728
 20
10572.496
 30
0.0
 40
508.000000
 41
1.000000
  1
AG24
  7
COURIER_NEW
 72
 1
 11
-8890.0
 21
10795.0
 31
0.0
100
AcDbText
 73
 2
  0
TEXT
  5
35C
100
AcDbEntity
  8
PIN_NUMBERS_TOP
100
AcDbText
 10
-9761.728
 20
9302.496
 30
0.0
 40
508.000000
 41
1.000000
  1
AG26
  7
COURIER_NEW
 72
 1
 11
-8890.0
 21
9525.0
 31
0.0
100
AcDbText
 73
 2
  0
TEXT
  5
35D
100
AcDbEntity
  8
PIN_NUMBERS_TOP
100
AcDbText
 10
-9761.728
 20
8032.496
 30
0.0
 40
508.000000
 41
1.000000
  1
AG28
  7
COURIER_NEW
 72
 1
 11
-8890.0
 21
8255.0
 31
0.0
100
AcDbText
 73
 2
  0
TEXT
  5
35E
100
AcDbEntity
  8
PIN_NUMBERS_TOP
100
AcDbText
 10
-9761.728
 20
6762.496
 30
0.0
 40
508.000000
 41
1.000000
  1
AG30
  7
COURIER_NEW
 72
 1
 11
-8890.0
 21
6985.0
 31
0.0
100
AcDbText
 73
 2
  0
TEXT
  5
35F
100
AcDbEntity
  8
PIN_NUMBERS_TOP
100
AcDbText
 10
-9761.728
 20
5492.496
 30
0.0
 40
508.000000
 41
1.000000
  1
AG32
  7
COURIER_NEW
 72
 1
 11
-8890.0
 21
5715.0
 31
0.0
100
AcDbText
 73
 2
  0
TEXT
  5
360
100
AcDbEntity
  8
PIN_NUMBERS_TOP
100
AcDbText
 10
-9761.728
 20
4222.496
 30
0.0
 40
508.000000
 41
1.000000
  1
AG34
  7
COURIER_NEW
 72
 1
 11
-8890.0
 21
4445.0
 31
0.0
100
AcDbText
 73
 2
  0
TEXT
  5
361
100
AcDbEntity
  8
PIN_NUMBERS_TOP
100
AcDbText
 10
-9761.728
 20
2952.496
 30
0.0
 40
508.000000
 41
1.000000
  1
AG36
  7
COURIER_NEW
 72
 1
 11
-8890.0
 21
3175.0
 31
0.0
100
AcDbText
 73
 2
  0
TEXT
  5
362
100
AcDbEntity
  8
PIN_NUMBERS_TOP
100
AcDbText
 10
-9761.728
 20
1682.496
 30
0.0
 40
508.000000
 41
1.000000
  1
AG38
  7
COURIER_NEW
 72
 1
 11
-8890.0
 21
1905.0
 31
0.0
100
AcDbText
 73
 2
  0
TEXT
  5
363
100
AcDbEntity
  8
PIN_NUMBERS_TOP
100
AcDbText
 10
-9761.728
 20
412.496
 30
0.0
 40
508.000000
 41
1.000000
  1
AG40
  7
COURIER_NEW
 72
 1
 11
-8890.0
 21
635.0
 31
0.0
100
AcDbText
 73
 2
  0
TEXT
  5
364
100
AcDbEntity
  8
PIN_NUMBERS_TOP
100
AcDbText
 10
-9761.728
 20
-857.504
 30
0.0
 40
508.000000
 41
1.000000
  1
AG42
  7
COURIER_NEW
 72
 1
 11
-8890.0
 21
-635.0
 31
0.0
100
AcDbText
 73
 2
  0
TEXT
  5
365
100
AcDbEntity
  8
PIN_NUMBERS_TOP
100
AcDbText
 10
-9761.728
 20
-2127.504
 30
0.0
 40
508.000000
 41
1.000000
  1
AG44
  7
COURIER_NEW
 72
 1
 11
-8890.0
 21
-1905.0
 31
0.0
100
AcDbText
 73
 2
  0
TEXT
  5
366
100
AcDbEntity
  8
PIN_NUMBERS_TOP
100
AcDbText
 10
-9761.728
 20
-3397.504
 30
0.0
 40
508.000000
 41
1.000000
  1
AG46
  7
COURIER_NEW
 72
 1
 11
-8890.0
 21
-3175.0
 31
0.0
100
AcDbText
 73
 2
  0
TEXT
  5
367
100
AcDbEntity
  8
PIN_NUMBERS_TOP
100
AcDbText
 10
-9761.728
 20
-4667.504
 30
0.0
 40
508.000000
 41
1.000000
  1
AG48
  7
COURIER_NEW
 72
 1
 11
-8890.0
 21
-4445.0
 31
0.0
100
AcDbText
 73
 2
  0
TEXT
  5
368
100
AcDbEntity
  8
PIN_NUMBERS_TOP
100
AcDbText
 10
-9761.728
 20
-5937.504
 30
0.0
 40
508.000000
 41
1.000000
  1
AG50
  7
COURIER_NEW
 72
 1
 11
-8890.0
 21
-5715.0
 31
0.0
100
AcDbText
 73
 2
  0
TEXT
  5
369
100
AcDbEntity
  8
PIN_NUMBERS_TOP
100
AcDbText
 10
-9761.728
 20
-7207.504
 30
0.0
 40
508.000000
 41
1.000000
  1
AG52
  7
COURIER_NEW
 72
 1
 11
-8890.0
 21
-6985.0
 31
0.0
100
AcDbText
 73
 2
  0
TEXT
  5
36A
100
AcDbEntity
  8
PIN_NUMBERS_TOP
100
AcDbText
 10
-9761.728
 20
-8477.504
 30
0.0
 40
508.000000
 41
1.000000
  1
AG54
  7
COURIER_NEW
 72
 1
 11
-8890.0
 21
-8255.0
 31
0.0
100
AcDbText
 73
 2
  0
TEXT
  5
36B
100
AcDbEntity
  8
PIN_NUMBERS_TOP
100
AcDbText
 10
-9761.728
 20
-9747.504
 30
0.0
 40
508.000000
 41
1.000000
  1
AG56
  7
COURIER_NEW
 72
 1
 11
-8890.0
 21
-9525.0
 31
0.0
100
AcDbText
 73
 2
  0
TEXT
  5
36C
100
AcDbEntity
  8
PIN_NUMBERS_TOP
100
AcDbText
 10
-9761.728
 20
-11017.504
 30
0.0
 40
508.000000
 41
1.000000
  1
AG58
  7
COURIER_NEW
 72
 1
 11
-8890.0
 21
-10795.0
 31
0.0
100
AcDbText
 73
 2
  0
TEXT
  5
36D
100
AcDbEntity
  8
PIN_NUMBERS_TOP
100
AcDbText
 10
-9761.728
 20
-12287.504
 30
0.0
 40
508.000000
 41
1.000000
  1
AG60
  7
COURIER_NEW
 72
 1
 11
-8890.0
 21
-12065.0
 31
0.0
100
AcDbText
 73
 2
  0
TEXT
  5
36E
100
AcDbEntity
  8
PIN_NUMBERS_TOP
100
AcDbText
 10
-9761.728
 20
-13557.504
 30
0.0
 40
508.000000
 41
1.000000
  1
AG62
  7
COURIER_NEW
 72
 1
 11
-8890.0
 21
-13335.0
 31
0.0
100
AcDbText
 73
 2
  0
TEXT
  5
36F
100
AcDbEntity
  8
PIN_NUMBERS_TOP
100
AcDbText
 10
-8491.728
 20
12477.496
 30
0.0
 40
508.000000
 41
1.000000
  1
AF21
  7
COURIER_NEW
 72
 1
 11
-7620.0
 21
12700.0
 31
0.0
100
AcDbText
 73
 2
  0
TEXT
  5
370
100
AcDbEntity
  8
PIN_NUMBERS_TOP
100
AcDbText
 10
-8491.728
 20
11207.496
 30
0.0
 40
508.000000
 41
1.000000
  1
AF23
  7
COURIER_NEW
 72
 1
 11
-7620.0
 21
11430.0
 31
0.0
100
AcDbText
 73
 2
  0
TEXT
  5
371
100
AcDbEntity
  8
PIN_NUMBERS_TOP
100
AcDbText
 10
-8491.728
 20
9937.496
 30
0.0
 40
508.000000
 41
1.000000
  1
AF25
  7
COURIER_NEW
 72
 1
 11
-7620.0
 21
10160.0
 31
0.0
100
AcDbText
 73
 2
  0
TEXT
  5
372
100
AcDbEntity
  8
PIN_NUMBERS_TOP
100
AcDbText
 10
-7221.728
 20
13112.496
 30
0.0
 40
508.000000
 41
1.000000
  1
AE20
  7
COURIER_NEW
 72
 1
 11
-6350.0
 21
13335.0
 31
0.0
100
AcDbText
 73
 2
  0
TEXT
  5
373
100
AcDbEntity
  8
PIN_NUMBERS_TOP
100
AcDbText
 10
-7221.728
 20
11842.496
 30
0.0
 40
508.000000
 41
1.000000
  1
AE22
  7
COURIER_NEW
 72
 1
 11
-6350.0
 21
12065.0
 31
0.0
100
AcDbText
 73
 2
  0
TEXT
  5
374
100
AcDbEntity
  8
PIN_NUMBERS_TOP
100
AcDbText
 10
-7221.728
 20
10572.496
 30
0.0
 40
508.000000
 41
1.000000
  1
AE24
  7
COURIER_NEW
 72
 1
 11
-6350.0
 21
10795.0
 31
0.0
100
AcDbText
 73
 2
  0
TEXT
  5
375
100
AcDbEntity
  8
PIN_NUMBERS_TOP
100
AcDbText
 10
-5951.728
 20
12477.496
 30
0.0
 40
508.000000
 41
1.000000
  1
AD21
  7
COURIER_NEW
 72
 1
 11
-5080.0
 21
12700.0
 31
0.0
100
AcDbText
 73
 2
  0
TEXT
  5
376
100
AcDbEntity
  8
PIN_NUMBERS_TOP
100
AcDbText
 10
-5951.728
 20
11207.496
 30
0.0
 40
508.000000
 41
1.000000
  1
AD23
  7
COURIER_NEW
 72
 1
 11
-5080.0
 21
11430.0
 31
0.0
100
AcDbText
 73
 2
  0
TEXT
  5
377
100
AcDbEntity
  8
PIN_NUMBERS_TOP
100
AcDbText
 10
-5951.728
 20
9937.496
 30
0.0
 40
508.000000
 41
1.000000
  1
AD25
  7
COURIER_NEW
 72
 1
 11
-5080.0
 21
10160.0
 31
0.0
100
AcDbText
 73
 2
  0
TEXT
  5
378
100
AcDbEntity
  8
PIN_NUMBERS_TOP
100
AcDbText
 10
-4681.728
 20
13112.496
 30
0.0
 40
508.000000
 41
1.000000
  1
AC20
  7
COURIER_NEW
 72
 1
 11
-3810.0
 21
13335.0
 31
0.0
100
AcDbText
 73
 2
  0
TEXT
  5
379
100
AcDbEntity
  8
PIN_NUMBERS_TOP
100
AcDbText
 10
-4681.728
 20
11842.496
 30
0.0
 40
508.000000
 41
1.000000
  1
AC22
  7
COURIER_NEW
 72
 1
 11
-3810.0
 21
12065.0
 31
0.0
100
AcDbText
 73
 2
  0
TEXT
  5
37A
100
AcDbEntity
  8
PIN_NUMBERS_TOP
100
AcDbText
 10
-4681.728
 20
10572.496
 30
0.0
 40
508.000000
 41
1.000000
  1
AC24
  7
COURIER_NEW
 72
 1
 11
-3810.0
 21
10795.0
 31
0.0
100
AcDbText
 73
 2
  0
TEXT
  5
37B
100
AcDbEntity
  8
PIN_NUMBERS_TOP
100
AcDbText
 10
-3411.728
 20
12477.496
 30
0.0
 40
508.000000
 41
1.000000
  1
AB21
  7
COURIER_NEW
 72
 1
 11
-2540.0
 21
12700.0
 31
0.0
100
AcDbText
 73
 2
  0
TEXT
  5
37C
100
AcDbEntity
  8
PIN_NUMBERS_TOP
100
AcDbText
 10
-3411.728
 20
11207.496
 30
0.0
 40
508.000000
 41
1.000000
  1
AB23
  7
COURIER_NEW
 72
 1
 11
-2540.0
 21
11430.0
 31
0.0
100
AcDbText
 73
 2
  0
TEXT
  5
37D
100
AcDbEntity
  8
PIN_NUMBERS_TOP
100
AcDbText
 10
-3411.728
 20
9937.496
 30
0.0
 40
508.000000
 41
1.000000
  1
AB25
  7
COURIER_NEW
 72
 1
 11
-2540.0
 21
10160.0
 31
0.0
100
AcDbText
 73
 2
  0
TEXT
  5
37E
100
AcDbEntity
  8
PIN_NUMBERS_TOP
100
AcDbText
 10
-2141.728
 20
13112.496
 30
0.0
 40
508.000000
 41
1.000000
  1
AA20
  7
COURIER_NEW
 72
 1
 11
-1270.0
 21
13335.0
 31
0.0
100
AcDbText
 73
 2
  0
TEXT
  5
37F
100
AcDbEntity
  8
PIN_NUMBERS_TOP
100
AcDbText
 10
-2141.728
 20
11842.496
 30
0.0
 40
508.000000
 41
1.000000
  1
AA22
  7
COURIER_NEW
 72
 1
 11
-1270.0
 21
12065.0
 31
0.0
100
AcDbText
 73
 2
  0
TEXT
  5
380
100
AcDbEntity
  8
PIN_NUMBERS_TOP
100
AcDbText
 10
-2141.728
 20
10572.496
 30
0.0
 40
508.000000
 41
1.000000
  1
AA24
  7
COURIER_NEW
 72
 1
 11
-1270.0
 21
10795.0
 31
0.0
100
AcDbText
 73
 2
  0
TEXT
  5
381
100
AcDbEntity
  8
PIN_NUMBERS_TOP
100
AcDbText
 10
-653.796
 20
12477.496
 30
0.0
 40
508.000000
 41
1.000000
  1
Y21
  7
COURIER_NEW
 72
 1
 11
0.0
 21
12700.0
 31
0.0
100
AcDbText
 73
 2
  0
TEXT
  5
382
100
AcDbEntity
  8
PIN_NUMBERS_TOP
100
AcDbText
 10
-653.796
 20
11207.496
 30
0.0
 40
508.000000
 41
1.000000
  1
Y23
  7
COURIER_NEW
 72
 1
 11
0.0
 21
11430.0
 31
0.0
100
AcDbText
 73
 2
  0
TEXT
  5
383
100
AcDbEntity
  8
PIN_NUMBERS_TOP
100
AcDbText
 10
-653.796
 20
9937.496
 30
0.0
 40
508.000000
 41
1.000000
  1
Y25
  7
COURIER_NEW
 72
 1
 11
0.0
 21
10160.0
 31
0.0
100
AcDbText
 73
 2
  0
TEXT
  5
384
100
AcDbEntity
  8
PIN_NUMBERS_TOP
100
AcDbText
 10
616.204
 20
13112.496
 30
0.0
 40
508.000000
 41
1.000000
  1
W20
  7
COURIER_NEW
 72
 1
 11
1270.0
 21
13335.0
 31
0.0
100
AcDbText
 73
 2
  0
TEXT
  5
385
100
AcDbEntity
  8
PIN_NUMBERS_TOP
100
AcDbText
 10
616.204
 20
11842.496
 30
0.0
 40
508.000000
 41
1.000000
  1
W22
  7
COURIER_NEW
 72
 1
 11
1270.0
 21
12065.0
 31
0.0
100
AcDbText
 73
 2
  0
TEXT
  5
386
100
AcDbEntity
  8
PIN_NUMBERS_TOP
100
AcDbText
 10
616.204
 20
10572.496
 30
0.0
 40
508.000000
 41
1.000000
  1
W24
  7
COURIER_NEW
 72
 1
 11
1270.0
 21
10795.0
 31
0.0
100
AcDbText
 73
 2
  0
TEXT
  5
387
100
AcDbEntity
  8
PIN_NUMBERS_TOP
100
AcDbText
 10
1886.204
 20
12477.496
 30
0.0
 40
508.000000
 41
1.000000
  1
V21
  7
COURIER_NEW
 72
 1
 11
2540.0
 21
12700.0
 31
0.0
100
AcDbText
 73
 2
  0
TEXT
  5
388
100
AcDbEntity
  8
PIN_NUMBERS_TOP
100
AcDbText
 10
1886.204
 20
11207.496
 30
0.0
 40
508.000000
 41
1.000000
  1
V23
  7
COURIER_NEW
 72
 1
 11
2540.0
 21
11430.0
 31
0.0
100
AcDbText
 73
 2
  0
TEXT
  5
389
100
AcDbEntity
  8
PIN_NUMBERS_TOP
100
AcDbText
 10
1886.204
 20
9937.496
 30
0.0
 40
508.000000
 41
1.000000
  1
V25
  7
COURIER_NEW
 72
 1
 11
2540.0
 21
10160.0
 31
0.0
100
AcDbText
 73
 2
  0
TEXT
  5
38A
100
AcDbEntity
  8
PIN_NUMBERS_TOP
100
AcDbText
 10
4426.204
 20
12477.496
 30
0.0
 40
508.000000
 41
1.000000
  1
T21
  7
COURIER_NEW
 72
 1
 11
5080.0
 21
12700.0
 31
0.0
100
AcDbText
 73
 2
  0
TEXT
  5
38B
100
AcDbEntity
  8
PIN_NUMBERS_TOP
100
AcDbText
 10
4426.204
 20
11207.496
 30
0.0
 40
508.000000
 41
1.000000
  1
T23
  7
COURIER_NEW
 72
 1
 11
5080.0
 21
11430.0
 31
0.0
100
AcDbText
 73
 2
  0
TEXT
  5
38C
100
AcDbEntity
  8
PIN_NUMBERS_TOP
100
AcDbText
 10
4426.204
 20
9937.496
 30
0.0
 40
508.000000
 41
1.000000
  1
T25
  7
COURIER_NEW
 72
 1
 11
5080.0
 21
10160.0
 31
0.0
100
AcDbText
 73
 2
  0
TEXT
  5
38D
100
AcDbEntity
  8
PIN_NUMBERS_TOP
100
AcDbText
 10
5696.204
 20
13112.496
 30
0.0
 40
508.000000
 41
1.000000
  1
R20
  7
COURIER_NEW
 72
 1
 11
6350.0
 21
13335.0
 31
0.0
100
AcDbText
 73
 2
  0
TEXT
  5
38E
100
AcDbEntity
  8
PIN_NUMBERS_TOP
100
AcDbText
 10
5696.204
 20
11842.496
 30
0.0
 40
508.000000
 41
1.000000
  1
R22
  7
COURIER_NEW
 72
 1
 11
6350.0
 21
12065.0
 31
0.0
100
AcDbText
 73
 2
  0
TEXT
  5
38F
100
AcDbEntity
  8
PIN_NUMBERS_TOP
100
AcDbText
 10
5696.204
 20
10572.496
 30
0.0
 40
508.000000
 41
1.000000
  1
R24
  7
COURIER_NEW
 72
 1
 11
6350.0
 21
10795.0
 31
0.0
100
AcDbText
 73
 2
  0
TEXT
  5
390
100
AcDbEntity
  8
PIN_NUMBERS_TOP
100
AcDbText
 10
6966.204
 20
12477.496
 30
0.0
 40
508.000000
 41
1.000000
  1
P21
  7
COURIER_NEW
 72
 1
 11
7620.0
 21
12700.0
 31
0.0
100
AcDbText
 73
 2
  0
TEXT
  5
391
100
AcDbEntity
  8
PIN_NUMBERS_TOP
100
AcDbText
 10
6966.204
 20
11207.496
 30
0.0
 40
508.000000
 41
1.000000
  1
P23
  7
COURIER_NEW
 72
 1
 11
7620.0
 21
11430.0
 31
0.0
100
AcDbText
 73
 2
  0
TEXT
  5
392
100
AcDbEntity
  8
PIN_NUMBERS_TOP
100
AcDbText
 10
6966.204
 20
9937.496
 30
0.0
 40
508.000000
 41
1.000000
  1
P25
  7
COURIER_NEW
 72
 1
 11
7620.0
 21
10160.0
 31
0.0
100
AcDbText
 73
 2
  0
TEXT
  5
393
100
AcDbEntity
  8
PIN_NUMBERS_TOP
100
AcDbText
 10
8236.204
 20
13112.496
 30
0.0
 40
508.000000
 41
1.000000
  1
N20
  7
COURIER_NEW
 72
 1
 11
8890.0
 21
13335.0
 31
0.0
100
AcDbText
 73
 2
  0
TEXT
  5
394
100
AcDbEntity
  8
PIN_NUMBERS_TOP
100
AcDbText
 10
8236.204
 20
11842.496
 30
0.0
 40
508.000000
 41
1.000000
  1
N22
  7
COURIER_NEW
 72
 1
 11
8890.0
 21
12065.0
 31
0.0
100
AcDbText
 73
 2
  0
TEXT
  5
395
100
AcDbEntity
  8
PIN_NUMBERS_TOP
100
AcDbText
 10
8236.204
 20
10572.496
 30
0.0
 40
508.000000
 41
1.000000
  1
N24
  7
COURIER_NEW
 72
 1
 11
8890.0
 21
10795.0
 31
0.0
100
AcDbText
 73
 2
  0
TEXT
  5
396
100
AcDbEntity
  8
PIN_NUMBERS_TOP
100
AcDbText
 10
8236.204
 20
8032.496
 30
0.0
 40
508.000000
 41
1.000000
  1
N28
  7
COURIER_NEW
 72
 1
 11
8890.0
 21
8255.0
 31
0.0
100
AcDbText
 73
 2
  0
TEXT
  5
397
100
AcDbEntity
  8
PIN_NUMBERS_TOP
100
AcDbText
 10
8236.204
 20
6762.496
 30
0.0
 40
508.000000
 41
1.000000
  1
N30
  7
COURIER_NEW
 72
 1
 11
8890.0
 21
6985.0
 31
0.0
100
AcDbText
 73
 2
  0
TEXT
  5
398
100
AcDbEntity
  8
PIN_NUMBERS_TOP
100
AcDbText
 10
8236.204
 20
5492.496
 30
0.0
 40
508.000000
 41
1.000000
  1
N32
  7
COURIER_NEW
 72
 1
 11
8890.0
 21
5715.0
 31
0.0
100
AcDbText
 73
 2
  0
TEXT
  5
399
100
AcDbEntity
  8
PIN_NUMBERS_TOP
100
AcDbText
 10
8236.204
 20
4222.496
 30
0.0
 40
508.000000
 41
1.000000
  1
N34
  7
COURIER_NEW
 72
 1
 11
8890.0
 21
4445.0
 31
0.0
100
AcDbText
 73
 2
  0
TEXT
  5
39A
100
AcDbEntity
  8
PIN_NUMBERS_TOP
100
AcDbText
 10
8236.204
 20
2952.496
 30
0.0
 40
508.000000
 41
1.000000
  1
N36
  7
COURIER_NEW
 72
 1
 11
8890.0
 21
3175.0
 31
0.0
100
AcDbText
 73
 2
  0
TEXT
  5
39B
100
AcDbEntity
  8
PIN_NUMBERS_TOP
100
AcDbText
 10
8236.204
 20
1682.496
 30
0.0
 40
508.000000
 41
1.000000
  1
N38
  7
COURIER_NEW
 72
 1
 11
8890.0
 21
1905.0
 31
0.0
100
AcDbText
 73
 2
  0
TEXT
  5
39C
100
AcDbEntity
  8
PIN_NUMBERS_TOP
100
AcDbText
 10
8236.204
 20
412.496
 30
0.0
 40
508.000000
 41
1.000000
  1
N40
  7
COURIER_NEW
 72
 1
 11
8890.0
 21
635.0
 31
0.0
100
AcDbText
 73
 2
  0
TEXT
  5
39D
100
AcDbEntity
  8
PIN_NUMBERS_TOP
100
AcDbText
 10
8236.204
 20
-857.504
 30
0.0
 40
508.000000
 41
1.000000
  1
N42
  7
COURIER_NEW
 72
 1
 11
8890.0
 21
-635.0
 31
0.0
100
AcDbText
 73
 2
  0
TEXT
  5
39E
100
AcDbEntity
  8
PIN_NUMBERS_TOP
100
AcDbText
 10
8236.204
 20
-2127.504
 30
0.0
 40
508.000000
 41
1.000000
  1
N44
  7
COURIER_NEW
 72
 1
 11
8890.0
 21
-1905.0
 31
0.0
100
AcDbText
 73
 2
  0
TEXT
  5
39F
100
AcDbEntity
  8
PIN_NUMBERS_TOP
100
AcDbText
 10
8236.204
 20
-3397.504
 30
0.0
 40
508.000000
 41
1.000000
  1
N46
  7
COURIER_NEW
 72
 1
 11
8890.0
 21
-3175.0
 31
0.0
100
AcDbText
 73
 2
  0
TEXT
  5
3A0
100
AcDbEntity
  8
PIN_NUMBERS_TOP
100
AcDbText
 10
8236.204
 20
-4667.504
 30
0.0
 40
508.000000
 41
1.000000
  1
N48
  7
COURIER_NEW
 72
 1
 11
8890.0
 21
-4445.0
 31
0.0
100
AcDbText
 73
 2
  0
TEXT
  5
3A1
100
AcDbEntity
  8
PIN_NUMBERS_TOP
100
AcDbText
 10
8236.204
 20
-5937.504
 30
0.0
 40
508.000000
 41
1.000000
  1
N50
  7
COURIER_NEW
 72
 1
 11
8890.0
 21
-5715.0
 31
0.0
100
AcDbText
 73
 2
  0
TEXT
  5
3A2
100
AcDbEntity
  8
PIN_NUMBERS_TOP
100
AcDbText
 10
8236.204
 20
-7207.504
 30
0.0
 40
508.000000
 41
1.000000
  1
N52
  7
COURIER_NEW
 72
 1
 11
8890.0
 21
-6985.0
 31
0.0
100
AcDbText
 73
 2
  0
TEXT
  5
3A3
100
AcDbEntity
  8
PIN_NUMBERS_TOP
100
AcDbText
 10
8236.204
 20
-8477.504
 30
0.0
 40
508.000000
 41
1.000000
  1
N54
  7
COURIER_NEW
 72
 1
 11
8890.0
 21
-8255.0
 31
0.0
100
AcDbText
 73
 2
  0
TEXT
  5
3A4
100
AcDbEntity
  8
PIN_NUMBERS_TOP
100
AcDbText
 10
8236.204
 20
-9747.504
 30
0.0
 40
508.000000
 41
1.000000
  1
N56
  7
COURIER_NEW
 72
 1
 11
8890.0
 21
-9525.0
 31
0.0
100
AcDbText
 73
 2
  0
TEXT
  5
3A5
100
AcDbEntity
  8
PIN_NUMBERS_TOP
100
AcDbText
 10
8236.204
 20
-11017.504
 30
0.0
 40
508.000000
 41
1.000000
  1
N58
  7
COURIER_NEW
 72
 1
 11
8890.0
 21
-10795.0
 31
0.0
100
AcDbText
 73
 2
  0
TEXT
  5
3A6
100
AcDbEntity
  8
PIN_NUMBERS_TOP
100
AcDbText
 10
8236.204
 20
-12287.504
 30
0.0
 40
508.000000
 41
1.000000
  1
N60
  7
COURIER_NEW
 72
 1
 11
8890.0
 21
-12065.0
 31
0.0
100
AcDbText
 73
 2
  0
TEXT
  5
3A7
100
AcDbEntity
  8
PIN_NUMBERS_TOP
100
AcDbText
 10
8236.204
 20
-13557.504
 30
0.0
 40
508.000000
 41
1.000000
  1
N62
  7
COURIER_NEW
 72
 1
 11
8890.0
 21
-13335.0
 31
0.0
100
AcDbText
 73
 2
  0
TEXT
  5
3A8
100
AcDbEntity
  8
PIN_NUMBERS_TOP
100
AcDbText
 10
9506.204
 20
12477.496
 30
0.0
 40
508.000000
 41
1.000000
  1
M21
  7
COURIER_NEW
 72
 1
 11
10160.0
 21
12700.0
 31
0.0
100
AcDbText
 73
 2
  0
TEXT
  5
3A9
100
AcDbEntity
  8
PIN_NUMBERS_TOP
100
AcDbText
 10
9506.204
 20
11207.496
 30
0.0
 40
508.000000
 41
1.000000
  1
M23
  7
COURIER_NEW
 72
 1
 11
10160.0
 21
11430.0
 31
0.0
100
AcDbText
 73
 2
  0
TEXT
  5
3AA
100
AcDbEntity
  8
PIN_NUMBERS_TOP
100
AcDbText
 10
9506.204
 20
9937.496
 30
0.0
 40
508.000000
 41
1.000000
  1
M25
  7
COURIER_NEW
 72
 1
 11
10160.0
 21
10160.0
 31
0.0
100
AcDbText
 73
 2
  0
TEXT
  5
3AB
100
AcDbEntity
  8
PIN_NUMBERS_TOP
100
AcDbText
 10
9506.204
 20
8667.496
 30
0.0
 40
508.000000
 41
1.000000
  1
M27
  7
COURIER_NEW
 72
 1
 11
10160.0
 21
8890.0
 31
0.0
100
AcDbText
 73
 2
  0
TEXT
  5
3AC
100
AcDbEntity
  8
PIN_NUMBERS_TOP
100
AcDbText
 10
9506.204
 20
7397.496
 30
0.0
 40
508.000000
 41
1.000000
  1
M29
  7
COURIER_NEW
 72
 1
 11
10160.0
 21
7620.0
 31
0.0
100
AcDbText
 73
 2
  0
TEXT
  5
3AD
100
AcDbEntity
  8
PIN_NUMBERS_TOP
100
AcDbText
 10
9506.204
 20
6127.496
 30
0.0
 40
508.000000
 41
1.000000
  1
M31
  7
COURIER_NEW
 72
 1
 11
10160.0
 21
6350.0
 31
0.0
100
AcDbText
 73
 2
  0
TEXT
  5
3AE
100
AcDbEntity
  8
PIN_NUMBERS_TOP
100
AcDbText
 10
9506.204
 20
4857.496
 30
0.0
 40
508.000000
 41
1.000000
  1
M33
  7
COURIER_NEW
 72
 1
 11
10160.0
 21
5080.0
 31
0.0
100
AcDbText
 73
 2
  0
TEXT
  5
3AF
100
AcDbEntity
  8
PIN_NUMBERS_TOP
100
AcDbText
 10
9506.204
 20
3587.496
 30
0.0
 40
508.000000
 41
1.000000
  1
M35
  7
COURIER_NEW
 72
 1
 11
10160.0
 21
3810.0
 31
0.0
100
AcDbText
 73
 2
  0
TEXT
  5
3B0
100
AcDbEntity
  8
PIN_NUMBERS_TOP
100
AcDbText
 10
9506.204
 20
2317.496
 30
0.0
 40
508.000000
 41
1.000000
  1
M37
  7
COURIER_NEW
 72
 1
 11
10160.0
 21
2540.0
 31
0.0
100
AcDbText
 73
 2
  0
TEXT
  5
3B1
100
AcDbEntity
  8
PIN_NUMBERS_TOP
100
AcDbText
 10
9506.204
 20
1047.496
 30
0.0
 40
508.000000
 41
1.000000
  1
M39
  7
COURIER_NEW
 72
 1
 11
10160.0
 21
1270.0
 31
0.0
100
AcDbText
 73
 2
  0
TEXT
  5
3B2
100
AcDbEntity
  8
PIN_NUMBERS_TOP
100
AcDbText
 10
9506.204
 20
-222.504
 30
0.0
 40
508.000000
 41
1.000000
  1
M41
  7
COURIER_NEW
 72
 1
 11
10160.0
 21
0.0
 31
0.0
100
AcDbText
 73
 2
  0
TEXT
  5
3B3
100
AcDbEntity
  8
PIN_NUMBERS_TOP
100
AcDbText
 10
9506.204
 20
-1492.504
 30
0.0
 40
508.000000
 41
1.000000
  1
M43
  7
COURIER_NEW
 72
 1
 11
10160.0
 21
-1270.0
 31
0.0
100
AcDbText
 73
 2
  0
TEXT
  5
3B4
100
AcDbEntity
  8
PIN_NUMBERS_TOP
100
AcDbText
 10
9506.204
 20
-2762.504
 30
0.0
 40
508.000000
 41
1.000000
  1
M45
  7
COURIER_NEW
 72
 1
 11
10160.0
 21
-2540.0
 31
0.0
100
AcDbText
 73
 2
  0
TEXT
  5
3B5
100
AcDbEntity
  8
PIN_NUMBERS_TOP
100
AcDbText
 10
9506.204
 20
-4032.504
 30
0.0
 40
508.000000
 41
1.000000
  1
M47
  7
COURIER_NEW
 72
 1
 11
10160.0
 21
-3810.0
 31
0.0
100
AcDbText
 73
 2
  0
TEXT
  5
3B6
100
AcDbEntity
  8
PIN_NUMBERS_TOP
100
AcDbText
 10
9506.204
 20
-5302.504
 30
0.0
 40
508.000000
 41
1.000000
  1
M49
  7
COURIER_NEW
 72
 1
 11
10160.0
 21
-5080.0
 31
0.0
100
AcDbText
 73
 2
  0
TEXT
  5
3B7
100
AcDbEntity
  8
PIN_NUMBERS_TOP
100
AcDbText
 10
9506.204
 20
-6572.504
 30
0.0
 40
508.000000
 41
1.000000
  1
M51
  7
COURIER_NEW
 72
 1
 11
10160.0
 21
-6350.0
 31
0.0
100
AcDbText
 73
 2
  0
TEXT
  5
3B8
100
AcDbEntity
  8
PIN_NUMBERS_TOP
100
AcDbText
 10
9506.204
 20
-7842.504
 30
0.0
 40
508.000000
 41
1.000000
  1
M53
  7
COURIER_NEW
 72
 1
 11
10160.0
 21
-7620.0
 31
0.0
100
AcDbText
 73
 2
  0
TEXT
  5
3B9
100
AcDbEntity
  8
PIN_NUMBERS_TOP
100
AcDbText
 10
9506.204
 20
-9112.504
 30
0.0
 40
508.000000
 41
1.000000
  1
M55
  7
COURIER_NEW
 72
 1
 11
10160.0
 21
-8890.0
 31
0.0
100
AcDbText
 73
 2
  0
TEXT
  5
3BA
100
AcDbEntity
  8
PIN_NUMBERS_TOP
100
AcDbText
 10
9506.204
 20
-10382.504
 30
0.0
 40
508.000000
 41
1.000000
  1
M57
  7
COURIER_NEW
 72
 1
 11
10160.0
 21
-10160.0
 31
0.0
100
AcDbText
 73
 2
  0
TEXT
  5
3BB
100
AcDbEntity
  8
PIN_NUMBERS_TOP
100
AcDbText
 10
9506.204
 20
-11652.504
 30
0.0
 40
508.000000
 41
1.000000
  1
M59
  7
COURIER_NEW
 72
 1
 11
10160.0
 21
-11430.0
 31
0.0
100
AcDbText
 73
 2
  0
TEXT
  5
3BC
100
AcDbEntity
  8
PIN_NUMBERS_TOP
100
AcDbText
 10
9506.204
 20
-12922.504
 30
0.0
 40
508.000000
 41
1.000000
  1
M61
  7
COURIER_NEW
 72
 1
 11
10160.0
 21
-12700.0
 31
0.0
100
AcDbText
 73
 2
  0
TEXT
  5
3BD
100
AcDbEntity
  8
PIN_NUMBERS_TOP
100
AcDbText
 10
10776.204
 20
11842.496
 30
0.0
 40
508.000000
 41
1.000000
  1
L22
  7
COURIER_NEW
 72
 1
 11
11430.0
 21
12065.0
 31
0.0
100
AcDbText
 73
 2
  0
TEXT
  5
3BE
100
AcDbEntity
  8
PIN_NUMBERS_TOP
100
AcDbText
 10
10776.204
 20
10572.496
 30
0.0
 40
508.000000
 41
1.000000
  1
L24
  7
COURIER_NEW
 72
 1
 11
11430.0
 21
10795.0
 31
0.0
100
AcDbText
 73
 2
  0
TEXT
  5
3BF
100
AcDbEntity
  8
PIN_NUMBERS_TOP
100
AcDbText
 10
10776.204
 20
9302.496
 30
0.0
 40
508.000000
 41
1.000000
  1
L26
  7
COURIER_NEW
 72
 1
 11
11430.0
 21
9525.0
 31
0.0
100
AcDbText
 73
 2
  0
TEXT
  5
3C0
100
AcDbEntity
  8
PIN_NUMBERS_TOP
100
AcDbText
 10
10776.204
 20
8032.496
 30
0.0
 40
508.000000
 41
1.000000
  1
L28
  7
COURIER_NEW
 72
 1
 11
11430.0
 21
8255.0
 31
0.0
100
AcDbText
 73
 2
  0
TEXT
  5
3C1
100
AcDbEntity
  8
PIN_NUMBERS_TOP
100
AcDbText
 10
10776.204
 20
6762.496
 30
0.0
 40
508.000000
 41
1.000000
  1
L30
  7
COURIER_NEW
 72
 1
 11
11430.0
 21
6985.0
 31
0.0
100
AcDbText
 73
 2
  0
TEXT
  5
3C2
100
AcDbEntity
  8
PIN_NUMBERS_TOP
100
AcDbText
 10
10776.204
 20
5492.496
 30
0.0
 40
508.000000
 41
1.000000
  1
L32
  7
COURIER_NEW
 72
 1
 11
11430.0
 21
5715.0
 31
0.0
100
AcDbText
 73
 2
  0
TEXT
  5
3C3
100
AcDbEntity
  8
PIN_NUMBERS_TOP
100
AcDbText
 10
10776.204
 20
4222.496
 30
0.0
 40
508.000000
 41
1.000000
  1
L34
  7
COURIER_NEW
 72
 1
 11
11430.0
 21
4445.0
 31
0.0
100
AcDbText
 73
 2
  0
TEXT
  5
3C4
100
AcDbEntity
  8
PIN_NUMBERS_TOP
100
AcDbText
 10
10776.204
 20
2952.496
 30
0.0
 40
508.000000
 41
1.000000
  1
L36
  7
COURIER_NEW
 72
 1
 11
11430.0
 21
3175.0
 31
0.0
100
AcDbText
 73
 2
  0
TEXT
  5
3C5
100
AcDbEntity
  8
PIN_NUMBERS_TOP
100
AcDbText
 10
10776.204
 20
1682.496
 30
0.0
 40
508.000000
 41
1.000000
  1
L38
  7
COURIER_NEW
 72
 1
 11
11430.0
 21
1905.0
 31
0.0
100
AcDbText
 73
 2
  0
TEXT
  5
3C6
100
AcDbEntity
  8
PIN_NUMBERS_TOP
100
AcDbText
 10
10776.204
 20
412.496
 30
0.0
 40
508.000000
 41
1.000000
  1
L40
  7
COURIER_NEW
 72
 1
 11
11430.0
 21
635.0
 31
0.0
100
AcDbText
 73
 2
  0
TEXT
  5
3C7
100
AcDbEntity
  8
PIN_NUMBERS_TOP
100
AcDbText
 10
10776.204
 20
-857.504
 30
0.0
 40
508.000000
 41
1.000000
  1
L42
  7
COURIER_NEW
 72
 1
 11
11430.0
 21
-635.0
 31
0.0
100
AcDbText
 73
 2
  0
TEXT
  5
3C8
100
AcDbEntity
  8
PIN_NUMBERS_TOP
100
AcDbText
 10
10776.204
 20
-2127.504
 30
0.0
 40
508.000000
 41
1.000000
  1
L44
  7
COURIER_NEW
 72
 1
 11
11430.0
 21
-1905.0
 31
0.0
100
AcDbText
 73
 2
  0
TEXT
  5
3C9
100
AcDbEntity
  8
PIN_NUMBERS_TOP
100
AcDbText
 10
10776.204
 20
-3397.504
 30
0.0
 40
508.000000
 41
1.000000
  1
L46
  7
COURIER_NEW
 72
 1
 11
11430.0
 21
-3175.0
 31
0.0
100
AcDbText
 73
 2
  0
TEXT
  5
3CA
100
AcDbEntity
  8
PIN_NUMBERS_TOP
100
AcDbText
 10
10776.204
 20
-4667.504
 30
0.0
 40
508.000000
 41
1.000000
  1
L48
  7
COURIER_NEW
 72
 1
 11
11430.0
 21
-4445.0
 31
0.0
100
AcDbText
 73
 2
  0
TEXT
  5
3CB
100
AcDbEntity
  8
PIN_NUMBERS_TOP
100
AcDbText
 10
10776.204
 20
-5937.504
 30
0.0
 40
508.000000
 41
1.000000
  1
L50
  7
COURIER_NEW
 72
 1
 11
11430.0
 21
-5715.0
 31
0.0
100
AcDbText
 73
 2
  0
TEXT
  5
3CC
100
AcDbEntity
  8
PIN_NUMBERS_TOP
100
AcDbText
 10
10776.204
 20
-7207.504
 30
0.0
 40
508.000000
 41
1.000000
  1
L52
  7
COURIER_NEW
 72
 1
 11
11430.0
 21
-6985.0
 31
0.0
100
AcDbText
 73
 2
  0
TEXT
  5
3CD
100
AcDbEntity
  8
PIN_NUMBERS_TOP
100
AcDbText
 10
10776.204
 20
-8477.504
 30
0.0
 40
508.000000
 41
1.000000
  1
L54
  7
COURIER_NEW
 72
 1
 11
11430.0
 21
-8255.0
 31
0.0
100
AcDbText
 73
 2
  0
TEXT
  5
3CE
100
AcDbEntity
  8
PIN_NUMBERS_TOP
100
AcDbText
 10
10776.204
 20
-9747.504
 30
0.0
 40
508.000000
 41
1.000000
  1
L56
  7
COURIER_NEW
 72
 1
 11
11430.0
 21
-9525.0
 31
0.0
100
AcDbText
 73
 2
  0
TEXT
  5
3CF
100
AcDbEntity
  8
PIN_NUMBERS_TOP
100
AcDbText
 10
10776.204
 20
-11017.504
 30
0.0
 40
508.000000
 41
1.000000
  1
L58
  7
COURIER_NEW
 72
 1
 11
11430.0
 21
-10795.0
 31
0.0
100
AcDbText
 73
 2
  0
TEXT
  5
3D0
100
AcDbEntity
  8
PIN_NUMBERS_TOP
100
AcDbText
 10
10776.204
 20
-12287.504
 30
0.0
 40
508.000000
 41
1.000000
  1
L60
  7
COURIER_NEW
 72
 1
 11
11430.0
 21
-12065.0
 31
0.0
100
AcDbText
 73
 2
  0
TEXT
  5
3D1
100
AcDbEntity
  8
PIN_NUMBERS_TOP
100
AcDbText
 10
3156.204
 20
13112.496
 30
0.0
 40
508.000000
 41
1.000000
  1
U20
  7
COURIER_NEW
 72
 1
 11
3810.0
 21
13335.0
 31
0.0
100
AcDbText
 73
 2
  0
TEXT
  5
3D2
100
AcDbEntity
  8
PIN_NUMBERS_TOP
100
AcDbText
 10
3156.204
 20
11842.496
 30
0.0
 40
508.000000
 41
1.000000
  1
U22
  7
COURIER_NEW
 72
 1
 11
3810.0
 21
12065.0
 31
0.0
100
AcDbText
 73
 2
  0
TEXT
  5
3D3
100
AcDbEntity
  8
PIN_NUMBERS_TOP
100
AcDbText
 10
3156.204
 20
10572.496
 30
0.0
 40
508.000000
 41
1.000000
  1
U24
  7
COURIER_NEW
 72
 1
 11
3810.0
 21
10795.0
 31
0.0
100
AcDbText
 73
 2
  0
TEXT
  5
3D4
100
AcDbEntity
  8
PIN_NUMBERS_TOP
100
AcDbText
 10
-8491.728
 20
-10382.504
 30
0.0
 40
508.000000
 41
1.000000
  1
AF57
  7
COURIER_NEW
 72
 1
 11
-7620.0
 21
-10160.0
 31
0.0
100
AcDbText
 73
 2
  0
TEXT
  5
3D5
100
AcDbEntity
  8
PIN_NUMBERS_TOP
100
AcDbText
 10
-8491.728
 20
-11652.504
 30
0.0
 40
508.000000
 41
1.000000
  1
AF59
  7
COURIER_NEW
 72
 1
 11
-7620.0
 21
-11430.0
 31
0.0
100
AcDbText
 73
 2
  0
TEXT
  5
3D6
100
AcDbEntity
  8
PIN_NUMBERS_TOP
100
AcDbText
 10
-8491.728
 20
-12922.504
 30
0.0
 40
508.000000
 41
1.000000
  1
AF61
  7
COURIER_NEW
 72
 1
 11
-7620.0
 21
-12700.0
 31
0.0
100
AcDbText
 73
 2
  0
TEXT
  5
3D7
100
AcDbEntity
  8
PIN_NUMBERS_TOP
100
AcDbText
 10
6966.204
 20
-10382.504
 30
0.0
 40
508.000000
 41
1.000000
  1
P57
  7
COURIER_NEW
 72
 1
 11
7620.0
 21
-10160.0
 31
0.0
100
AcDbText
 73
 2
  0
TEXT
  5
3D8
100
AcDbEntity
  8
PIN_NUMBERS_TOP
100
AcDbText
 10
6966.204
 20
-11652.504
 30
0.0
 40
508.000000
 41
1.000000
  1
P59
  7
COURIER_NEW
 72
 1
 11
7620.0
 21
-11430.0
 31
0.0
100
AcDbText
 73
 2
  0
TEXT
  5
3D9
100
AcDbEntity
  8
PIN_NUMBERS_TOP
100
AcDbText
 10
6966.204
 20
-12922.504
 30
0.0
 40
508.000000
 41
1.000000
  1
P61
  7
COURIER_NEW
 72
 1
 11
7620.0
 21
-12700.0
 31
0.0
100
AcDbText
 73
 2
  0
TEXT
  5
3DA
100
AcDbEntity
  8
PIN_NUMBERS_TOP
100
AcDbText
 10
5696.204
 20
-11017.504
 30
0.0
 40
508.000000
 41
1.000000
  1
R58
  7
COURIER_NEW
 72
 1
 11
6350.0
 21
-10795.0
 31
0.0
100
AcDbText
 73
 2
  0
TEXT
  5
3DB
100
AcDbEntity
  8
PIN_NUMBERS_TOP
100
AcDbText
 10
5696.204
 20
-12287.504
 30
0.0
 40
508.000000
 41
1.000000
  1
R60
  7
COURIER_NEW
 72
 1
 11
6350.0
 21
-12065.0
 31
0.0
100
AcDbText
 73
 2
  0
TEXT
  5
3DC
100
AcDbEntity
  8
PIN_NUMBERS_TOP
100
AcDbText
 10
5696.204
 20
-13557.504
 30
0.0
 40
508.000000
 41
1.000000
  1
R62
  7
COURIER_NEW
 72
 1
 11
6350.0
 21
-13335.0
 31
0.0
100
AcDbText
 73
 2
  0
TEXT
  5
3DD
100
AcDbEntity
  8
PIN_NUMBERS_TOP
100
AcDbText
 10
4426.204
 20
-10382.504
 30
0.0
 40
508.000000
 41
1.000000
  1
T57
  7
COURIER_NEW
 72
 1
 11
5080.0
 21
-10160.0
 31
0.0
100
AcDbText
 73
 2
  0
TEXT
  5
3DE
100
AcDbEntity
  8
PIN_NUMBERS_TOP
100
AcDbText
 10
4426.204
 20
-11652.504
 30
0.0
 40
508.000000
 41
1.000000
  1
T59
  7
COURIER_NEW
 72
 1
 11
5080.0
 21
-11430.0
 31
0.0
100
AcDbText
 73
 2
  0
TEXT
  5
3DF
100
AcDbEntity
  8
PIN_NUMBERS_TOP
100
AcDbText
 10
4426.204
 20
-12922.504
 30
0.0
 40
508.000000
 41
1.000000
  1
T61
  7
COURIER_NEW
 72
 1
 11
5080.0
 21
-12700.0
 31
0.0
100
AcDbText
 73
 2
  0
TEXT
  5
3E0
100
AcDbEntity
  8
PIN_NUMBERS_TOP
100
AcDbText
 10
3156.204
 20
-11017.504
 30
0.0
 40
508.000000
 41
1.000000
  1
U58
  7
COURIER_NEW
 72
 1
 11
3810.0
 21
-10795.0
 31
0.0
100
AcDbText
 73
 2
  0
TEXT
  5
3E1
100
AcDbEntity
  8
PIN_NUMBERS_TOP
100
AcDbText
 10
3156.204
 20
-12287.504
 30
0.0
 40
508.000000
 41
1.000000
  1
U60
  7
COURIER_NEW
 72
 1
 11
3810.0
 21
-12065.0
 31
0.0
100
AcDbText
 73
 2
  0
TEXT
  5
3E2
100
AcDbEntity
  8
PIN_NUMBERS_TOP
100
AcDbText
 10
3156.204
 20
-13557.504
 30
0.0
 40
508.000000
 41
1.000000
  1
U62
  7
COURIER_NEW
 72
 1
 11
3810.0
 21
-13335.0
 31
0.0
100
AcDbText
 73
 2
  0
TEXT
  5
3E3
100
AcDbEntity
  8
PIN_NUMBERS_TOP
100
AcDbText
 10
1886.204
 20
-10382.504
 30
0.0
 40
508.000000
 41
1.000000
  1
V57
  7
COURIER_NEW
 72
 1
 11
2540.0
 21
-10160.0
 31
0.0
100
AcDbText
 73
 2
  0
TEXT
  5
3E4
100
AcDbEntity
  8
PIN_NUMBERS_TOP
100
AcDbText
 10
1886.204
 20
-11652.504
 30
0.0
 40
508.000000
 41
1.000000
  1
V59
  7
COURIER_NEW
 72
 1
 11
2540.0
 21
-11430.0
 31
0.0
100
AcDbText
 73
 2
  0
TEXT
  5
3E5
100
AcDbEntity
  8
PIN_NUMBERS_TOP
100
AcDbText
 10
1886.204
 20
-12922.504
 30
0.0
 40
508.000000
 41
1.000000
  1
V61
  7
COURIER_NEW
 72
 1
 11
2540.0
 21
-12700.0
 31
0.0
100
AcDbText
 73
 2
  0
TEXT
  5
3E6
100
AcDbEntity
  8
PIN_NUMBERS_TOP
100
AcDbText
 10
616.204
 20
-11017.504
 30
0.0
 40
508.000000
 41
1.000000
  1
W58
  7
COURIER_NEW
 72
 1
 11
1270.0
 21
-10795.0
 31
0.0
100
AcDbText
 73
 2
  0
TEXT
  5
3E7
100
AcDbEntity
  8
PIN_NUMBERS_TOP
100
AcDbText
 10
616.204
 20
-12287.504
 30
0.0
 40
508.000000
 41
1.000000
  1
W60
  7
COURIER_NEW
 72
 1
 11
1270.0
 21
-12065.0
 31
0.0
100
AcDbText
 73
 2
  0
TEXT
  5
3E8
100
AcDbEntity
  8
PIN_NUMBERS_TOP
100
AcDbText
 10
616.204
 20
-13557.504
 30
0.0
 40
508.000000
 41
1.000000
  1
W62
  7
COURIER_NEW
 72
 1
 11
1270.0
 21
-13335.0
 31
0.0
100
AcDbText
 73
 2
  0
TEXT
  5
3E9
100
AcDbEntity
  8
PIN_NUMBERS_TOP
100
AcDbText
 10
-653.796
 20
-10382.504
 30
0.0
 40
508.000000
 41
1.000000
  1
Y57
  7
COURIER_NEW
 72
 1
 11
0.0
 21
-10160.0
 31
0.0
100
AcDbText
 73
 2
  0
TEXT
  5
3EA
100
AcDbEntity
  8
PIN_NUMBERS_TOP
100
AcDbText
 10
-653.796
 20
-11652.504
 30
0.0
 40
508.000000
 41
1.000000
  1
Y59
  7
COURIER_NEW
 72
 1
 11
0.0
 21
-11430.0
 31
0.0
100
AcDbText
 73
 2
  0
TEXT
  5
3EB
100
AcDbEntity
  8
PIN_NUMBERS_TOP
100
AcDbText
 10
-653.796
 20
-12922.504
 30
0.0
 40
508.000000
 41
1.000000
  1
Y61
  7
COURIER_NEW
 72
 1
 11
0.0
 21
-12700.0
 31
0.0
100
AcDbText
 73
 2
  0
TEXT
  5
3EC
100
AcDbEntity
  8
PIN_NUMBERS_TOP
100
AcDbText
 10
-2141.728
 20
-11017.504
 30
0.0
 40
508.000000
 41
1.000000
  1
AA58
  7
COURIER_NEW
 72
 1
 11
-1270.0
 21
-10795.0
 31
0.0
100
AcDbText
 73
 2
  0
TEXT
  5
3ED
100
AcDbEntity
  8
PIN_NUMBERS_TOP
100
AcDbText
 10
-2141.728
 20
-12287.504
 30
0.0
 40
508.000000
 41
1.000000
  1
AA60
  7
COURIER_NEW
 72
 1
 11
-1270.0
 21
-12065.0
 31
0.0
100
AcDbText
 73
 2
  0
TEXT
  5
3EE
100
AcDbEntity
  8
PIN_NUMBERS_TOP
100
AcDbText
 10
-2141.728
 20
-13557.504
 30
0.0
 40
508.000000
 41
1.000000
  1
AA62
  7
COURIER_NEW
 72
 1
 11
-1270.0
 21
-13335.0
 31
0.0
100
AcDbText
 73
 2
  0
TEXT
  5
3EF
100
AcDbEntity
  8
PIN_NUMBERS_TOP
100
AcDbText
 10
-3411.728
 20
-10382.504
 30
0.0
 40
508.000000
 41
1.000000
  1
AB57
  7
COURIER_NEW
 72
 1
 11
-2540.0
 21
-10160.0
 31
0.0
100
AcDbText
 73
 2
  0
TEXT
  5
3F0
100
AcDbEntity
  8
PIN_NUMBERS_TOP
100
AcDbText
 10
-3411.728
 20
-11652.504
 30
0.0
 40
508.000000
 41
1.000000
  1
AB59
  7
COURIER_NEW
 72
 1
 11
-2540.0
 21
-11430.0
 31
0.0
100
AcDbText
 73
 2
  0
TEXT
  5
3F1
100
AcDbEntity
  8
PIN_NUMBERS_TOP
100
AcDbText
 10
-3411.728
 20
-12922.504
 30
0.0
 40
508.000000
 41
1.000000
  1
AB61
  7
COURIER_NEW
 72
 1
 11
-2540.0
 21
-12700.0
 31
0.0
100
AcDbText
 73
 2
  0
TEXT
  5
3F2
100
AcDbEntity
  8
PIN_NUMBERS_TOP
100
AcDbText
 10
-4681.728
 20
-11017.504
 30
0.0
 40
508.000000
 41
1.000000
  1
AC58
  7
COURIER_NEW
 72
 1
 11
-3810.0
 21
-10795.0
 31
0.0
100
AcDbText
 73
 2
  0
TEXT
  5
3F3
100
AcDbEntity
  8
PIN_NUMBERS_TOP
100
AcDbText
 10
-4681.728
 20
-12287.504
 30
0.0
 40
508.000000
 41
1.000000
  1
AC60
  7
COURIER_NEW
 72
 1
 11
-3810.0
 21
-12065.0
 31
0.0
100
AcDbText
 73
 2
  0
TEXT
  5
3F4
100
AcDbEntity
  8
PIN_NUMBERS_TOP
100
AcDbText
 10
-4681.728
 20
-13557.504
 30
0.0
 40
508.000000
 41
1.000000
  1
AC62
  7
COURIER_NEW
 72
 1
 11
-3810.0
 21
-13335.0
 31
0.0
100
AcDbText
 73
 2
  0
TEXT
  5
3F5
100
AcDbEntity
  8
PIN_NUMBERS_TOP
100
AcDbText
 10
-5951.728
 20
-10382.504
 30
0.0
 40
508.000000
 41
1.000000
  1
AD57
  7
COURIER_NEW
 72
 1
 11
-5080.0
 21
-10160.0
 31
0.0
100
AcDbText
 73
 2
  0
TEXT
  5
3F6
100
AcDbEntity
  8
PIN_NUMBERS_TOP
100
AcDbText
 10
-5951.728
 20
-11652.504
 30
0.0
 40
508.000000
 41
1.000000
  1
AD59
  7
COURIER_NEW
 72
 1
 11
-5080.0
 21
-11430.0
 31
0.0
100
AcDbText
 73
 2
  0
TEXT
  5
3F7
100
AcDbEntity
  8
PIN_NUMBERS_TOP
100
AcDbText
 10
-5951.728
 20
-12922.504
 30
0.0
 40
508.000000
 41
1.000000
  1
AD61
  7
COURIER_NEW
 72
 1
 11
-5080.0
 21
-12700.0
 31
0.0
100
AcDbText
 73
 2
  0
TEXT
  5
3F8
100
AcDbEntity
  8
PIN_NUMBERS_TOP
100
AcDbText
 10
-7221.728
 20
-11017.504
 30
0.0
 40
508.000000
 41
1.000000
  1
AE58
  7
COURIER_NEW
 72
 1
 11
-6350.0
 21
-10795.0
 31
0.0
100
AcDbText
 73
 2
  0
TEXT
  5
3F9
100
AcDbEntity
  8
PIN_NUMBERS_TOP
100
AcDbText
 10
-7221.728
 20
-12287.504
 30
0.0
 40
508.000000
 41
1.000000
  1
AE60
  7
COURIER_NEW
 72
 1
 11
-6350.0
 21
-12065.0
 31
0.0
100
AcDbText
 73
 2
  0
TEXT
  5
3FA
100
AcDbEntity
  8
PIN_NUMBERS_TOP
100
AcDbText
 10
-7221.728
 20
-13557.504
 30
0.0
 40
508.000000
 41
1.000000
  1
AE62
  7
COURIER_NEW
 72
 1
 11
-6350.0
 21
-13335.0
 31
0.0
100
AcDbText
 73
 2
  0
TEXT
  5
3FB
100
AcDbEntity
  8
PIN_NUMBERS_TOP
100
AcDbText
 10
-7221.728
 20
-16097.504
 30
0.0
 40
508.000000
 41
1.000000
  1
AE66
  7
COURIER_NEW
 72
 1
 11
-6350.0
 21
-15875.0
 31
0.0
100
AcDbText
 73
 2
  0
TEXT
  5
3FC
100
AcDbEntity
  8
PIN_NUMBERS_TOP
100
AcDbText
 10
-7221.728
 20
-17367.504
 30
0.0
 40
508.000000
 41
1.000000
  1
AE68
  7
COURIER_NEW
 72
 1
 11
-6350.0
 21
-17145.0
 31
0.0
100
AcDbText
 73
 2
  0
TEXT
  5
3FD
100
AcDbEntity
  8
PIN_NUMBERS_TOP
100
AcDbText
 10
-7221.728
 20
-18637.504
 30
0.0
 40
508.000000
 41
1.000000
  1
AE70
  7
COURIER_NEW
 72
 1
 11
-6350.0
 21
-18415.0
 31
0.0
100
AcDbText
 73
 2
  0
TEXT
  5
3FE
100
AcDbEntity
  8
PIN_NUMBERS_TOP
100
AcDbText
 10
-8491.728
 20
-16732.504
 30
0.0
 40
508.000000
 41
1.000000
  1
AF67
  7
COURIER_NEW
 72
 1
 11
-7620.0
 21
-16510.0
 31
0.0
100
AcDbText
 73
 2
  0
TEXT
  5
3FF
100
AcDbEntity
  8
PIN_NUMBERS_TOP
100
AcDbText
 10
-8491.728
 20
-18002.504
 30
0.0
 40
508.000000
 41
1.000000
  1
AF69
  7
COURIER_NEW
 72
 1
 11
-7620.0
 21
-17780.0
 31
0.0
100
AcDbText
 73
 2
  0
TEXT
  5
400
100
AcDbEntity
  8
PIN_NUMBERS_TOP
100
AcDbText
 10
-8491.728
 20
-19272.504
 30
0.0
 40
508.000000
 41
1.000000
  1
AF71
  7
COURIER_NEW
 72
 1
 11
-7620.0
 21
-19050.0
 31
0.0
100
AcDbText
 73
 2
  0
TEXT
  5
401
100
AcDbEntity
  8
PIN_NUMBERS_TOP
100
AcDbText
 10
-9761.728
 20
-16097.504
 30
0.0
 40
508.000000
 41
1.000000
  1
AG66
  7
COURIER_NEW
 72
 1
 11
-8890.0
 21
-15875.0
 31
0.0
100
AcDbText
 73
 2
  0
TEXT
  5
402
100
AcDbEntity
  8
PIN_NUMBERS_TOP
100
AcDbText
 10
-9761.728
 20
-17367.504
 30
0.0
 40
508.000000
 41
1.000000
  1
AG68
  7
COURIER_NEW
 72
 1
 11
-8890.0
 21
-17145.0
 31
0.0
100
AcDbText
 73
 2
  0
TEXT
  5
403
100
AcDbEntity
  8
PIN_NUMBERS_TOP
100
AcDbText
 10
-9761.728
 20
-18637.504
 30
0.0
 40
508.000000
 41
1.000000
  1
AG70
  7
COURIER_NEW
 72
 1
 11
-8890.0
 21
-18415.0
 31
0.0
100
AcDbText
 73
 2
  0
TEXT
  5
404
100
AcDbEntity
  8
PIN_NUMBERS_TOP
100
AcDbText
 10
-11031.728
 20
-16732.504
 30
0.0
 40
508.000000
 41
1.000000
  1
AH67
  7
COURIER_NEW
 72
 1
 11
-10160.0
 21
-16510.0
 31
0.0
100
AcDbText
 73
 2
  0
TEXT
  5
405
100
AcDbEntity
  8
PIN_NUMBERS_TOP
100
AcDbText
 10
-11031.728
 20
-18002.504
 30
0.0
 40
508.000000
 41
1.000000
  1
AH69
  7
COURIER_NEW
 72
 1
 11
-10160.0
 21
-17780.0
 31
0.0
100
AcDbText
 73
 2
  0
TEXT
  5
406
100
AcDbEntity
  8
PIN_NUMBERS_TOP
100
AcDbText
 10
-11031.728
 20
-19272.504
 30
0.0
 40
508.000000
 41
1.000000
  1
AH71
  7
COURIER_NEW
 72
 1
 11
-10160.0
 21
-19050.0
 31
0.0
100
AcDbText
 73
 2
  0
TEXT
  5
407
100
AcDbEntity
  8
PIN_NUMBERS_TOP
100
AcDbText
 10
-12301.728
 20
-17367.504
 30
0.0
 40
508.000000
 41
1.000000
  1
AJ68
  7
COURIER_NEW
 72
 1
 11
-11430.0
 21
-17145.0
 31
0.0
100
AcDbText
 73
 2
  0
TEXT
  5
408
100
AcDbEntity
  8
PIN_NUMBERS_TOP
100
AcDbText
 10
-12301.728
 20
-18637.504
 30
0.0
 40
508.000000
 41
1.000000
  1
AJ70
  7
COURIER_NEW
 72
 1
 11
-11430.0
 21
-18415.0
 31
0.0
100
AcDbText
 73
 2
  0
TEXT
  5
409
100
AcDbEntity
  8
PIN_NUMBERS_TOP
100
AcDbText
 10
-5951.728
 20
-16732.504
 30
0.0
 40
508.000000
 41
1.000000
  1
AD67
  7
COURIER_NEW
 72
 1
 11
-5080.0
 21
-16510.0
 31
0.0
100
AcDbText
 73
 2
  0
TEXT
  5
40A
100
AcDbEntity
  8
PIN_NUMBERS_TOP
100
AcDbText
 10
-5951.728
 20
-18002.504
 30
0.0
 40
508.000000
 41
1.000000
  1
AD69
  7
COURIER_NEW
 72
 1
 11
-5080.0
 21
-17780.0
 31
0.0
100
AcDbText
 73
 2
  0
TEXT
  5
40B
100
AcDbEntity
  8
PIN_NUMBERS_TOP
100
AcDbText
 10
-5951.728
 20
-19272.504
 30
0.0
 40
508.000000
 41
1.000000
  1
AD71
  7
COURIER_NEW
 72
 1
 11
-5080.0
 21
-19050.0
 31
0.0
100
AcDbText
 73
 2
  0
TEXT
  5
40C
100
AcDbEntity
  8
PIN_NUMBERS_TOP
100
AcDbText
 10
-4681.728
 20
-16097.504
 30
0.0
 40
508.000000
 41
1.000000
  1
AC66
  7
COURIER_NEW
 72
 1
 11
-3810.0
 21
-15875.0
 31
0.0
100
AcDbText
 73
 2
  0
TEXT
  5
40D
100
AcDbEntity
  8
PIN_NUMBERS_TOP
100
AcDbText
 10
-4681.728
 20
-17367.504
 30
0.0
 40
508.000000
 41
1.000000
  1
AC68
  7
COURIER_NEW
 72
 1
 11
-3810.0
 21
-17145.0
 31
0.0
100
AcDbText
 73
 2
  0
TEXT
  5
40E
100
AcDbEntity
  8
PIN_NUMBERS_TOP
100
AcDbText
 10
-4681.728
 20
-18637.504
 30
0.0
 40
508.000000
 41
1.000000
  1
AC70
  7
COURIER_NEW
 72
 1
 11
-3810.0
 21
-18415.0
 31
0.0
100
AcDbText
 73
 2
  0
TEXT
  5
40F
100
AcDbEntity
  8
PIN_NUMBERS_TOP
100
AcDbText
 10
-3411.728
 20
-16732.504
 30
0.0
 40
508.000000
 41
1.000000
  1
AB67
  7
COURIER_NEW
 72
 1
 11
-2540.0
 21
-16510.0
 31
0.0
100
AcDbText
 73
 2
  0
TEXT
  5
410
100
AcDbEntity
  8
PIN_NUMBERS_TOP
100
AcDbText
 10
-3411.728
 20
-18002.504
 30
0.0
 40
508.000000
 41
1.000000
  1
AB69
  7
COURIER_NEW
 72
 1
 11
-2540.0
 21
-17780.0
 31
0.0
100
AcDbText
 73
 2
  0
TEXT
  5
411
100
AcDbEntity
  8
PIN_NUMBERS_TOP
100
AcDbText
 10
-3411.728
 20
-19272.504
 30
0.0
 40
508.000000
 41
1.000000
  1
AB71
  7
COURIER_NEW
 72
 1
 11
-2540.0
 21
-19050.0
 31
0.0
100
AcDbText
 73
 2
  0
TEXT
  5
412
100
AcDbEntity
  8
PIN_NUMBERS_TOP
100
AcDbText
 10
-2141.728
 20
-16097.504
 30
0.0
 40
508.000000
 41
1.000000
  1
AA66
  7
COURIER_NEW
 72
 1
 11
-1270.0
 21
-15875.0
 31
0.0
100
AcDbText
 73
 2
  0
TEXT
  5
413
100
AcDbEntity
  8
PIN_NUMBERS_TOP
100
AcDbText
 10
-2141.728
 20
-17367.504
 30
0.0
 40
508.000000
 41
1.000000
  1
AA68
  7
COURIER_NEW
 72
 1
 11
-1270.0
 21
-17145.0
 31
0.0
100
AcDbText
 73
 2
  0
TEXT
  5
414
100
AcDbEntity
  8
PIN_NUMBERS_TOP
100
AcDbText
 10
-2141.728
 20
-18637.504
 30
0.0
 40
508.000000
 41
1.000000
  1
AA70
  7
COURIER_NEW
 72
 1
 11
-1270.0
 21
-18415.0
 31
0.0
100
AcDbText
 73
 2
  0
TEXT
  5
415
100
AcDbEntity
  8
PIN_NUMBERS_TOP
100
AcDbText
 10
-653.796
 20
-16732.504
 30
0.0
 40
508.000000
 41
1.000000
  1
Y67
  7
COURIER_NEW
 72
 1
 11
0.0
 21
-16510.0
 31
0.0
100
AcDbText
 73
 2
  0
TEXT
  5
416
100
AcDbEntity
  8
PIN_NUMBERS_TOP
100
AcDbText
 10
-653.796
 20
-18002.504
 30
0.0
 40
508.000000
 41
1.000000
  1
Y69
  7
COURIER_NEW
 72
 1
 11
0.0
 21
-17780.0
 31
0.0
100
AcDbText
 73
 2
  0
TEXT
  5
417
100
AcDbEntity
  8
PIN_NUMBERS_TOP
100
AcDbText
 10
-653.796
 20
-19272.504
 30
0.0
 40
508.000000
 41
1.000000
  1
Y71
  7
COURIER_NEW
 72
 1
 11
0.0
 21
-19050.0
 31
0.0
100
AcDbText
 73
 2
  0
TEXT
  5
418
100
AcDbEntity
  8
PIN_NUMBERS_TOP
100
AcDbText
 10
616.204
 20
-16097.504
 30
0.0
 40
508.000000
 41
1.000000
  1
W66
  7
COURIER_NEW
 72
 1
 11
1270.0
 21
-15875.0
 31
0.0
100
AcDbText
 73
 2
  0
TEXT
  5
419
100
AcDbEntity
  8
PIN_NUMBERS_TOP
100
AcDbText
 10
616.204
 20
-17367.504
 30
0.0
 40
508.000000
 41
1.000000
  1
W68
  7
COURIER_NEW
 72
 1
 11
1270.0
 21
-17145.0
 31
0.0
100
AcDbText
 73
 2
  0
TEXT
  5
41A
100
AcDbEntity
  8
PIN_NUMBERS_TOP
100
AcDbText
 10
616.204
 20
-18637.504
 30
0.0
 40
508.000000
 41
1.000000
  1
W70
  7
COURIER_NEW
 72
 1
 11
1270.0
 21
-18415.0
 31
0.0
100
AcDbText
 73
 2
  0
TEXT
  5
41B
100
AcDbEntity
  8
PIN_NUMBERS_TOP
100
AcDbText
 10
1886.204
 20
-16732.504
 30
0.0
 40
508.000000
 41
1.000000
  1
V67
  7
COURIER_NEW
 72
 1
 11
2540.0
 21
-16510.0
 31
0.0
100
AcDbText
 73
 2
  0
TEXT
  5
41C
100
AcDbEntity
  8
PIN_NUMBERS_TOP
100
AcDbText
 10
1886.204
 20
-18002.504
 30
0.0
 40
508.000000
 41
1.000000
  1
V69
  7
COURIER_NEW
 72
 1
 11
2540.0
 21
-17780.0
 31
0.0
100
AcDbText
 73
 2
  0
TEXT
  5
41D
100
AcDbEntity
  8
PIN_NUMBERS_TOP
100
AcDbText
 10
1886.204
 20
-19272.504
 30
0.0
 40
508.000000
 41
1.000000
  1
V71
  7
COURIER_NEW
 72
 1
 11
2540.0
 21
-19050.0
 31
0.0
100
AcDbText
 73
 2
  0
TEXT
  5
41E
100
AcDbEntity
  8
PIN_NUMBERS_TOP
100
AcDbText
 10
3156.204
 20
-16097.504
 30
0.0
 40
508.000000
 41
1.000000
  1
U66
  7
COURIER_NEW
 72
 1
 11
3810.0
 21
-15875.0
 31
0.0
100
AcDbText
 73
 2
  0
TEXT
  5
41F
100
AcDbEntity
  8
PIN_NUMBERS_TOP
100
AcDbText
 10
3156.204
 20
-17367.504
 30
0.0
 40
508.000000
 41
1.000000
  1
U68
  7
COURIER_NEW
 72
 1
 11
3810.0
 21
-17145.0
 31
0.0
100
AcDbText
 73
 2
  0
TEXT
  5
420
100
AcDbEntity
  8
PIN_NUMBERS_TOP
100
AcDbText
 10
3156.204
 20
-18637.504
 30
0.0
 40
508.000000
 41
1.000000
  1
U70
  7
COURIER_NEW
 72
 1
 11
3810.0
 21
-18415.0
 31
0.0
100
AcDbText
 73
 2
  0
TEXT
  5
421
100
AcDbEntity
  8
PIN_NUMBERS_TOP
100
AcDbText
 10
4426.204
 20
-16732.504
 30
0.0
 40
508.000000
 41
1.000000
  1
T67
  7
COURIER_NEW
 72
 1
 11
5080.0
 21
-16510.0
 31
0.0
100
AcDbText
 73
 2
  0
TEXT
  5
422
100
AcDbEntity
  8
PIN_NUMBERS_TOP
100
AcDbText
 10
4426.204
 20
-18002.504
 30
0.0
 40
508.000000
 41
1.000000
  1
T69
  7
COURIER_NEW
 72
 1
 11
5080.0
 21
-17780.0
 31
0.0
100
AcDbText
 73
 2
  0
TEXT
  5
423
100
AcDbEntity
  8
PIN_NUMBERS_TOP
100
AcDbText
 10
4426.204
 20
-19272.504
 30
0.0
 40
508.000000
 41
1.000000
  1
T71
  7
COURIER_NEW
 72
 1
 11
5080.0
 21
-19050.0
 31
0.0
100
AcDbText
 73
 2
  0
TEXT
  5
424
100
AcDbEntity
  8
PIN_NUMBERS_TOP
100
AcDbText
 10
5696.204
 20
-16097.504
 30
0.0
 40
508.000000
 41
1.000000
  1
R66
  7
COURIER_NEW
 72
 1
 11
6350.0
 21
-15875.0
 31
0.0
100
AcDbText
 73
 2
  0
TEXT
  5
425
100
AcDbEntity
  8
PIN_NUMBERS_TOP
100
AcDbText
 10
5696.204
 20
-17367.504
 30
0.0
 40
508.000000
 41
1.000000
  1
R68
  7
COURIER_NEW
 72
 1
 11
6350.0
 21
-17145.0
 31
0.0
100
AcDbText
 73
 2
  0
TEXT
  5
426
100
AcDbEntity
  8
PIN_NUMBERS_TOP
100
AcDbText
 10
5696.204
 20
-18637.504
 30
0.0
 40
508.000000
 41
1.000000
  1
R70
  7
COURIER_NEW
 72
 1
 11
6350.0
 21
-18415.0
 31
0.0
100
AcDbText
 73
 2
  0
TEXT
  5
427
100
AcDbEntity
  8
PIN_NUMBERS_TOP
100
AcDbText
 10
6966.204
 20
-16732.504
 30
0.0
 40
508.000000
 41
1.000000
  1
P67
  7
COURIER_NEW
 72
 1
 11
7620.0
 21
-16510.0
 31
0.0
100
AcDbText
 73
 2
  0
TEXT
  5
428
100
AcDbEntity
  8
PIN_NUMBERS_TOP
100
AcDbText
 10
6966.204
 20
-18002.504
 30
0.0
 40
508.000000
 41
1.000000
  1
P69
  7
COURIER_NEW
 72
 1
 11
7620.0
 21
-17780.0
 31
0.0
100
AcDbText
 73
 2
  0
TEXT
  5
429
100
AcDbEntity
  8
PIN_NUMBERS_TOP
100
AcDbText
 10
6966.204
 20
-19272.504
 30
0.0
 40
508.000000
 41
1.000000
  1
P71
  7
COURIER_NEW
 72
 1
 11
7620.0
 21
-19050.0
 31
0.0
100
AcDbText
 73
 2
  0
TEXT
  5
42A
100
AcDbEntity
  8
PIN_NUMBERS_TOP
100
AcDbText
 10
8236.204
 20
-16097.504
 30
0.0
 40
508.000000
 41
1.000000
  1
N66
  7
COURIER_NEW
 72
 1
 11
8890.0
 21
-15875.0
 31
0.0
100
AcDbText
 73
 2
  0
TEXT
  5
42B
100
AcDbEntity
  8
PIN_NUMBERS_TOP
100
AcDbText
 10
8236.204
 20
-17367.504
 30
0.0
 40
508.000000
 41
1.000000
  1
N68
  7
COURIER_NEW
 72
 1
 11
8890.0
 21
-17145.0
 31
0.0
100
AcDbText
 73
 2
  0
TEXT
  5
42C
100
AcDbEntity
  8
PIN_NUMBERS_TOP
100
AcDbText
 10
8236.204
 20
-18637.504
 30
0.0
 40
508.000000
 41
1.000000
  1
N70
  7
COURIER_NEW
 72
 1
 11
8890.0
 21
-18415.0
 31
0.0
100
AcDbText
 73
 2
  0
TEXT
  5
42D
100
AcDbEntity
  8
PIN_NUMBERS_TOP
100
AcDbText
 10
9506.204
 20
-16732.504
 30
0.0
 40
508.000000
 41
1.000000
  1
M67
  7
COURIER_NEW
 72
 1
 11
10160.0
 21
-16510.0
 31
0.0
100
AcDbText
 73
 2
  0
TEXT
  5
42E
100
AcDbEntity
  8
PIN_NUMBERS_TOP
100
AcDbText
 10
9506.204
 20
-18002.504
 30
0.0
 40
508.000000
 41
1.000000
  1
M69
  7
COURIER_NEW
 72
 1
 11
10160.0
 21
-17780.0
 31
0.0
100
AcDbText
 73
 2
  0
TEXT
  5
42F
100
AcDbEntity
  8
PIN_NUMBERS_TOP
100
AcDbText
 10
9506.204
 20
-19272.504
 30
0.0
 40
508.000000
 41
1.000000
  1
M71
  7
COURIER_NEW
 72
 1
 11
10160.0
 21
-19050.0
 31
0.0
100
AcDbText
 73
 2
  0
TEXT
  5
430
100
AcDbEntity
  8
PIN_NUMBERS_TOP
100
AcDbText
 10
10776.204
 20
-17367.504
 30
0.0
 40
508.000000
 41
1.000000
  1
L68
  7
COURIER_NEW
 72
 1
 11
11430.0
 21
-17145.0
 31
0.0
100
AcDbText
 73
 2
  0
TEXT
  5
431
100
AcDbEntity
  8
PIN_NUMBERS_TOP
100
AcDbText
 10
10776.204
 20
-18637.504
 30
0.0
 40
508.000000
 41
1.000000
  1
L70
  7
COURIER_NEW
 72
 1
 11
11430.0
 21
-18415.0
 31
0.0
100
AcDbText
 73
 2
  0
TEXT
  5
432
100
AcDbEntity
  8
PIN_NUMBERS_TOP
100
AcDbText
 10
10776.204
 20
-21177.504
 30
0.0
 40
508.000000
 41
1.000000
  1
L74
  7
COURIER_NEW
 72
 1
 11
11430.0
 21
-20955.0
 31
0.0
100
AcDbText
 73
 2
  0
TEXT
  5
433
100
AcDbEntity
  8
PIN_NUMBERS_TOP
100
AcDbText
 10
9506.204
 20
-21812.504
 30
0.0
 40
508.000000
 41
1.000000
  1
M75
  7
COURIER_NEW
 72
 1
 11
10160.0
 21
-21590.0
 31
0.0
100
AcDbText
 73
 2
  0
TEXT
  5
434
100
AcDbEntity
  8
PIN_NUMBERS_TOP
100
AcDbText
 10
8236.204
 20
-21177.504
 30
0.0
 40
508.000000
 41
1.000000
  1
N74
  7
COURIER_NEW
 72
 1
 11
8890.0
 21
-20955.0
 31
0.0
100
AcDbText
 73
 2
  0
TEXT
  5
435
100
AcDbEntity
  8
PIN_NUMBERS_TOP
100
AcDbText
 10
6966.204
 20
-21812.504
 30
0.0
 40
508.000000
 41
1.000000
  1
P75
  7
COURIER_NEW
 72
 1
 11
7620.0
 21
-21590.0
 31
0.0
100
AcDbText
 73
 2
  0
TEXT
  5
436
100
AcDbEntity
  8
PIN_NUMBERS_TOP
100
AcDbText
 10
5696.204
 20
-21177.504
 30
0.0
 40
508.000000
 41
1.000000
  1
R74
  7
COURIER_NEW
 72
 1
 11
6350.0
 21
-20955.0
 31
0.0
100
AcDbText
 73
 2
  0
TEXT
  5
437
100
AcDbEntity
  8
PIN_NUMBERS_TOP
100
AcDbText
 10
4426.204
 20
-21812.504
 30
0.0
 40
508.000000
 41
1.000000
  1
T75
  7
COURIER_NEW
 72
 1
 11
5080.0
 21
-21590.0
 31
0.0
100
AcDbText
 73
 2
  0
TEXT
  5
438
100
AcDbEntity
  8
PIN_NUMBERS_TOP
100
AcDbText
 10
3156.204
 20
-21177.504
 30
0.0
 40
508.000000
 41
1.000000
  1
U74
  7
COURIER_NEW
 72
 1
 11
3810.0
 21
-20955.0
 31
0.0
100
AcDbText
 73
 2
  0
TEXT
  5
439
100
AcDbEntity
  8
PIN_NUMBERS_TOP
100
AcDbText
 10
1886.204
 20
-21812.504
 30
0.0
 40
508.000000
 41
1.000000
  1
V75
  7
COURIER_NEW
 72
 1
 11
2540.0
 21
-21590.0
 31
0.0
100
AcDbText
 73
 2
  0
TEXT
  5
43A
100
AcDbEntity
  8
PIN_NUMBERS_TOP
100
AcDbText
 10
-653.796
 20
-21812.504
 30
0.0
 40
508.000000
 41
1.000000
  1
Y75
  7
COURIER_NEW
 72
 1
 11
0.0
 21
-21590.0
 31
0.0
100
AcDbText
 73
 2
  0
TEXT
  5
43B
100
AcDbEntity
  8
PIN_NUMBERS_TOP
100
AcDbText
 10
616.204
 20
-21177.504
 30
0.0
 40
508.000000
 41
1.000000
  1
W74
  7
COURIER_NEW
 72
 1
 11
1270.0
 21
-20955.0
 31
0.0
100
AcDbText
 73
 2
  0
TEXT
  5
43C
100
AcDbEntity
  8
PIN_NUMBERS_TOP
100
AcDbText
 10
-2141.728
 20
-21177.504
 30
0.0
 40
508.000000
 41
1.000000
  1
AA74
  7
COURIER_NEW
 72
 1
 11
-1270.0
 21
-20955.0
 31
0.0
100
AcDbText
 73
 2
  0
TEXT
  5
43D
100
AcDbEntity
  8
PIN_NUMBERS_TOP
100
AcDbText
 10
-3411.728
 20
-21812.504
 30
0.0
 40
508.000000
 41
1.000000
  1
AB75
  7
COURIER_NEW
 72
 1
 11
-2540.0
 21
-21590.0
 31
0.0
100
AcDbText
 73
 2
  0
TEXT
  5
43E
100
AcDbEntity
  8
PIN_NUMBERS_TOP
100
AcDbText
 10
-4681.728
 20
-21177.504
 30
0.0
 40
508.000000
 41
1.000000
  1
AC74
  7
COURIER_NEW
 72
 1
 11
-3810.0
 21
-20955.0
 31
0.0
100
AcDbText
 73
 2
  0
TEXT
  5
43F
100
AcDbEntity
  8
PIN_NUMBERS_TOP
100
AcDbText
 10
-5951.728
 20
-21812.504
 30
0.0
 40
508.000000
 41
1.000000
  1
AD75
  7
COURIER_NEW
 72
 1
 11
-5080.0
 21
-21590.0
 31
0.0
100
AcDbText
 73
 2
  0
TEXT
  5
440
100
AcDbEntity
  8
PIN_NUMBERS_TOP
100
AcDbText
 10
-7221.728
 20
-21177.504
 30
0.0
 40
508.000000
 41
1.000000
  1
AE74
  7
COURIER_NEW
 72
 1
 11
-6350.0
 21
-20955.0
 31
0.0
100
AcDbText
 73
 2
  0
TEXT
  5
441
100
AcDbEntity
  8
PIN_NUMBERS_TOP
100
AcDbText
 10
-8491.728
 20
-21812.504
 30
0.0
 40
508.000000
 41
1.000000
  1
AF75
  7
COURIER_NEW
 72
 1
 11
-7620.0
 21
-21590.0
 31
0.0
100
AcDbText
 73
 2
  0
TEXT
  5
442
100
AcDbEntity
  8
PIN_NUMBERS_TOP
100
AcDbText
 10
-9761.728
 20
-21177.504
 30
0.0
 40
508.000000
 41
1.000000
  1
AG74
  7
COURIER_NEW
 72
 1
 11
-8890.0
 21
-20955.0
 31
0.0
100
AcDbText
 73
 2
  0
TEXT
  5
443
100
AcDbEntity
  8
PIN_NUMBERS_TOP
100
AcDbText
 10
-11031.728
 20
-21812.504
 30
0.0
 40
508.000000
 41
1.000000
  1
AH75
  7
COURIER_NEW
 72
 1
 11
-10160.0
 21
-21590.0
 31
0.0
100
AcDbText
 73
 2
  0
TEXT
  5
444
100
AcDbEntity
  8
PIN_NUMBERS_TOP
100
AcDbText
 10
-12301.728
 20
-21177.504
 30
0.0
 40
508.000000
 41
1.000000
  1
AJ74
  7
COURIER_NEW
 72
 1
 11
-11430.0
 21
-20955.0
 31
0.0
100
AcDbText
 73
 2
  0
TEXT
  5
445
100
AcDbEntity
  8
PIN_NUMBERS_TOP
100
AcDbText
 10
-13571.728
 20
-21812.504
 30
0.0
 40
508.000000
 41
1.000000
  1
AK75
  7
COURIER_NEW
 72
 1
 11
-12700.0
 21
-21590.0
 31
0.0
100
AcDbText
 73
 2
  0
TEXT
  5
446
100
AcDbEntity
  8
PIN_NUMBERS_TOP
100
AcDbText
 10
-14841.728
 20
-21177.504
 30
0.0
 40
508.000000
 41
1.000000
  1
AL74
  7
COURIER_NEW
 72
 1
 11
-13970.0
 21
-20955.0
 31
0.0
100
AcDbText
 73
 2
  0
TEXT
  5
447
100
AcDbEntity
  8
PIN_NUMBERS_TOP
100
AcDbText
 10
-16111.728
 20
-21812.504
 30
0.0
 40
508.000000
 41
1.000000
  1
AM75
  7
COURIER_NEW
 72
 1
 11
-15240.0
 21
-21590.0
 31
0.0
100
AcDbText
 73
 2
  0
TEXT
  5
448
100
AcDbEntity
  8
PIN_NUMBERS_TOP
100
AcDbText
 10
12046.204
 20
-21812.504
 30
0.0
 40
508.000000
 41
1.000000
  1
K75
  7
COURIER_NEW
 72
 1
 11
12700.0
 21
-21590.0
 31
0.0
100
AcDbText
 73
 2
  0
TEXT
  5
449
100
AcDbEntity
  8
PIN_NUMBERS_TOP
100
AcDbText
 10
13316.204
 20
-21177.504
 30
0.0
 40
508.000000
 41
1.000000
  1
J74
  7
COURIER_NEW
 72
 1
 11
13970.0
 21
-20955.0
 31
0.0
100
AcDbText
 73
 2
  0
TEXT
  5
44A
100
AcDbEntity
  8
PIN_NUMBERS_TOP
100
AcDbText
 10
14586.204
 20
-21812.504
 30
0.0
 40
508.000000
 41
1.000000
  1
H75
  7
COURIER_NEW
 72
 1
 11
15240.0
 21
-21590.0
 31
0.0
100
AcDbText
 73
 2
  0
TEXT
  5
44B
100
AcDbEntity
  8
PIN_NUMBERS_TOP
100
AcDbText
 10
14586.204
 20
1047.496
 30
0.0
 40
508.000000
 41
1.000000
  1
H39
  7
COURIER_NEW
 72
 1
 11
15240.0
 21
1270.0
 31
0.0
100
AcDbText
 73
 2
  0
TEXT
  5
44C
100
AcDbEntity
  8
PIN_NUMBERS_TOP
100
AcDbText
 10
14586.204
 20
-222.504
 30
0.0
 40
508.000000
 41
1.000000
  1
H41
  7
COURIER_NEW
 72
 1
 11
15240.0
 21
0.0
 31
0.0
100
AcDbText
 73
 2
  0
TEXT
  5
44D
100
AcDbEntity
  8
PIN_NUMBERS_TOP
100
AcDbText
 10
14586.204
 20
-1492.504
 30
0.0
 40
508.000000
 41
1.000000
  1
H43
  7
COURIER_NEW
 72
 1
 11
15240.0
 21
-1270.0
 31
0.0
100
AcDbText
 73
 2
  0
TEXT
  5
44E
100
AcDbEntity
  8
PIN_NUMBERS_TOP
100
AcDbText
 10
14586.204
 20
-2762.504
 30
0.0
 40
508.000000
 41
1.000000
  1
H45
  7
COURIER_NEW
 72
 1
 11
15240.0
 21
-2540.0
 31
0.0
100
AcDbText
 73
 2
  0
TEXT
  5
44F
100
AcDbEntity
  8
PIN_NUMBERS_TOP
100
AcDbText
 10
14586.204
 20
-4032.504
 30
0.0
 40
508.000000
 41
1.000000
  1
H47
  7
COURIER_NEW
 72
 1
 11
15240.0
 21
-3810.0
 31
0.0
100
AcDbText
 73
 2
  0
TEXT
  5
450
100
AcDbEntity
  8
PIN_NUMBERS_TOP
100
AcDbText
 10
14586.204
 20
-5302.504
 30
0.0
 40
508.000000
 41
1.000000
  1
H49
  7
COURIER_NEW
 72
 1
 11
15240.0
 21
-5080.0
 31
0.0
100
AcDbText
 73
 2
  0
TEXT
  5
451
100
AcDbEntity
  8
PIN_NUMBERS_TOP
100
AcDbText
 10
14586.204
 20
-6572.504
 30
0.0
 40
508.000000
 41
1.000000
  1
H51
  7
COURIER_NEW
 72
 1
 11
15240.0
 21
-6350.0
 31
0.0
100
AcDbText
 73
 2
  0
TEXT
  5
452
100
AcDbEntity
  8
PIN_NUMBERS_TOP
100
AcDbText
 10
14586.204
 20
-7842.504
 30
0.0
 40
508.000000
 41
1.000000
  1
H53
  7
COURIER_NEW
 72
 1
 11
15240.0
 21
-7620.0
 31
0.0
100
AcDbText
 73
 2
  0
TEXT
  5
453
100
AcDbEntity
  8
PIN_NUMBERS_TOP
100
AcDbText
 10
14586.204
 20
-9112.504
 30
0.0
 40
508.000000
 41
1.000000
  1
H55
  7
COURIER_NEW
 72
 1
 11
15240.0
 21
-8890.0
 31
0.0
100
AcDbText
 73
 2
  0
TEXT
  5
454
100
AcDbEntity
  8
PIN_NUMBERS_TOP
100
AcDbText
 10
14586.204
 20
-10382.504
 30
0.0
 40
508.000000
 41
1.000000
  1
H57
  7
COURIER_NEW
 72
 1
 11
15240.0
 21
-10160.0
 31
0.0
100
AcDbText
 73
 2
  0
TEXT
  5
455
100
AcDbEntity
  8
PIN_NUMBERS_TOP
100
AcDbText
 10
14586.204
 20
-11652.504
 30
0.0
 40
508.000000
 41
1.000000
  1
H59
  7
COURIER_NEW
 72
 1
 11
15240.0
 21
-11430.0
 31
0.0
100
AcDbText
 73
 2
  0
TEXT
  5
456
100
AcDbEntity
  8
PIN_NUMBERS_TOP
100
AcDbText
 10
14586.204
 20
-12922.504
 30
0.0
 40
508.000000
 41
1.000000
  1
H61
  7
COURIER_NEW
 72
 1
 11
15240.0
 21
-12700.0
 31
0.0
100
AcDbText
 73
 2
  0
TEXT
  5
457
100
AcDbEntity
  8
PIN_NUMBERS_TOP
100
AcDbText
 10
20282.068
 20
12277.496
 30
0.0
 40
508.000000
 41
1.000000
  1
5
  7
COURIER_NEW
 72
 1
 11
20500.0
 21
12500.0
 31
0.0
100
AcDbText
 73
 2
  0
TEXT
  5
458
100
AcDbEntity
  8
PIN_NUMBERS_TOP
100
AcDbText
 10
26282.068
 20
12277.496
 30
0.0
 40
508.000000
 41
1.000000
  1
6
  7
COURIER_NEW
 72
 1
 11
26500.0
 21
12500.0
 31
0.0
100
AcDbText
 73
 2
  0
TEXT
  5
459
100
AcDbEntity
  8
PIN_NUMBERS_TOP
100
AcDbText
 10
20282.068
 20
-12722.504
 30
0.0
 40
508.000000
 41
1.000000
  1
7
  7
COURIER_NEW
 72
 1
 11
20500.0
 21
-12500.0
 31
0.0
100
AcDbText
 73
 2
  0
TEXT
  5
45A
100
AcDbEntity
  8
PIN_NUMBERS_TOP
100
AcDbText
 10
26282.068
 20
-12722.504
 30
0.0
 40
508.000000
 41
1.000000
  1
8
  7
COURIER_NEW
 72
 1
 11
26500.0
 21
-12500.0
 31
0.0
100
AcDbText
 73
 2
  0
TEXT
  5
45B
100
AcDbEntity
  8
PIN_NUMBERS_TOP
100
AcDbText
 10
-20717.932
 20
-12722.504
 30
0.0
 40
508.000000
 41
1.000000
  1
9
  7
COURIER_NEW
 72
 1
 11
-20500.0
 21
-12500.0
 31
0.0
100
AcDbText
 73
 2
  0
TEXT
  5
45C
100
AcDbEntity
  8
PIN_NUMBERS_TOP
100
AcDbText
 10
-26935.864
 20
-12722.504
 30
0.0
 40
508.000000
 41
1.000000
  1
10
  7
COURIER_NEW
 72
 1
 11
-26500.0
 21
-12500.0
 31
0.0
100
AcDbText
 73
 2
  0
TEXT
  5
45D
100
AcDbEntity
  8
PIN_NUMBERS_TOP
100
AcDbText
 10
-20935.864
 20
12277.496
 30
0.0
 40
508.000000
 41
1.000000
  1
11
  7
COURIER_NEW
 72
 1
 11
-20500.0
 21
12500.0
 31
0.0
100
AcDbText
 73
 2
  0
TEXT
  5
45E
100
AcDbEntity
  8
PIN_NUMBERS_TOP
100
AcDbText
 10
-26935.864
 20
12277.496
 30
0.0
 40
508.000000
 41
1.000000
  1
12
  7
COURIER_NEW
 72
 1
 11
-26500.0
 21
12500.0
 31
0.0
100
AcDbText
 73
 2
  0
TEXT
  5
45F
100
AcDbEntity
  8
PIN_NUMBERS_TOP
100
AcDbText
 10
-22461.728
 20
9302.496
 30
0.0
 40
508.000000
 41
1.000000
  1
AU26
  7
COURIER_NEW
 72
 1
 11
-21590.0
 21
9525.0
 31
0.0
100
AcDbText
 73
 2
  0
TEXT
  5
460
100
AcDbEntity
  8
PIN_NUMBERS_TOP
100
AcDbText
 10
-22461.728
 20
6762.496
 30
0.0
 40
508.000000
 41
1.000000
  1
AU30
  7
COURIER_NEW
 72
 1
 11
-21590.0
 21
6985.0
 31
0.0
100
AcDbText
 73
 2
  0
TEXT
  5
461
100
AcDbEntity
  8
PIN_NUMBERS_TOP
100
AcDbText
 10
-22461.728
 20
4222.496
 30
0.0
 40
508.000000
 41
1.000000
  1
AU34
  7
COURIER_NEW
 72
 1
 11
-21590.0
 21
4445.0
 31
0.0
100
AcDbText
 73
 2
  0
TEXT
  5
462
100
AcDbEntity
  8
PIN_NUMBERS_TOP
100
AcDbText
 10
-22461.728
 20
1682.496
 30
0.0
 40
508.000000
 41
1.000000
  1
AU38
  7
COURIER_NEW
 72
 1
 11
-21590.0
 21
1905.0
 31
0.0
100
AcDbText
 73
 2
  0
TEXT
  5
463
100
AcDbEntity
  8
PIN_NUMBERS_TOP
100
AcDbText
 10
-22461.728
 20
-2127.504
 30
0.0
 40
508.000000
 41
1.000000
  1
AU44
  7
COURIER_NEW
 72
 1
 11
-21590.0
 21
-1905.0
 31
0.0
100
AcDbText
 73
 2
  0
TEXT
  5
464
100
AcDbEntity
  8
PIN_NUMBERS_TOP
100
AcDbText
 10
-22461.728
 20
-4667.504
 30
0.0
 40
508.000000
 41
1.000000
  1
AU48
  7
COURIER_NEW
 72
 1
 11
-21590.0
 21
-4445.0
 31
0.0
100
AcDbText
 73
 2
  0
TEXT
  5
465
100
AcDbEntity
  8
PIN_NUMBERS_TOP
100
AcDbText
 10
-22461.728
 20
-7207.504
 30
0.0
 40
508.000000
 41
1.000000
  1
AU52
  7
COURIER_NEW
 72
 1
 11
-21590.0
 21
-6985.0
 31
0.0
100
AcDbText
 73
 2
  0
TEXT
  5
466
100
AcDbEntity
  8
PIN_NUMBERS_TOP
100
AcDbText
 10
-22461.728
 20
-9747.504
 30
0.0
 40
508.000000
 41
1.000000
  1
AU56
  7
COURIER_NEW
 72
 1
 11
-21590.0
 21
-9525.0
 31
0.0
100
AcDbText
 73
 2
  0
TEXT
  5
467
100
AcDbEntity
  8
PIN_NUMBERS_TOP
100
AcDbText
 10
20936.204
 20
9302.496
 30
0.0
 40
508.000000
 41
1.000000
  1
C26
  7
COURIER_NEW
 72
 1
 11
21590.0
 21
9525.0
 31
0.0
100
AcDbText
 73
 2
  0
TEXT
  5
468
100
AcDbEntity
  8
PIN_NUMBERS_TOP
100
AcDbText
 10
20936.204
 20
6762.496
 30
0.0
 40
508.000000
 41
1.000000
  1
C30
  7
COURIER_NEW
 72
 1
 11
21590.0
 21
6985.0
 31
0.0
100
AcDbText
 73
 2
  0
TEXT
  5
469
100
AcDbEntity
  8
PIN_NUMBERS_TOP
100
AcDbText
 10
20936.204
 20
4222.496
 30
0.0
 40
508.000000
 41
1.000000
  1
C34
  7
COURIER_NEW
 72
 1
 11
21590.0
 21
4445.0
 31
0.0
100
AcDbText
 73
 2
  0
TEXT
  5
46A
100
AcDbEntity
  8
PIN_NUMBERS_TOP
100
AcDbText
 10
20936.204
 20
1682.496
 30
0.0
 40
508.000000
 41
1.000000
  1
C38
  7
COURIER_NEW
 72
 1
 11
21590.0
 21
1905.0
 31
0.0
100
AcDbText
 73
 2
  0
TEXT
  5
46B
100
AcDbEntity
  8
PIN_NUMBERS_TOP
100
AcDbText
 10
20936.204
 20
-2127.504
 30
0.0
 40
508.000000
 41
1.000000
  1
C44
  7
COURIER_NEW
 72
 1
 11
21590.0
 21
-1905.0
 31
0.0
100
AcDbText
 73
 2
  0
TEXT
  5
46C
100
AcDbEntity
  8
PIN_NUMBERS_TOP
100
AcDbText
 10
20936.204
 20
-4667.504
 30
0.0
 40
508.000000
 41
1.000000
  1
C48
  7
COURIER_NEW
 72
 1
 11
21590.0
 21
-4445.0
 31
0.0
100
AcDbText
 73
 2
  0
TEXT
  5
46D
100
AcDbEntity
  8
PIN_NUMBERS_TOP
100
AcDbText
 10
20936.204
 20
-7207.504
 30
0.0
 40
508.000000
 41
1.000000
  1
C52
  7
COURIER_NEW
 72
 1
 11
21590.0
 21
-6985.0
 31
0.0
100
AcDbText
 73
 2
  0
TEXT
  5
46E
100
AcDbEntity
  8
PIN_NUMBERS_TOP
100
AcDbText
 10
20936.204
 20
-9747.504
 30
0.0
 40
508.000000
 41
1.000000
  1
C56
  7
COURIER_NEW
 72
 1
 11
21590.0
 21
-9525.0
 31
0.0
100
AcDbText
 73
 2
  0
TEXT
  5
46F
100
AcDbEntity
  8
PIN_NUMBERS_TOP
100
AcDbText
 10
15013.068
 20
16508.496
 30
0.0
 40
508.000000
 41
1.000000
  1
1
  7
COURIER_NEW
 72
 1
 11
15231.0
 21
16731.0
 31
0.0
100
AcDbText
 73
 2
  0
TEXT
  5
470
100
AcDbEntity
  8
PIN_NUMBERS_TOP
100
AcDbText
 10
15013.068
 20
-16953.504
 30
0.0
 40
508.000000
 41
1.000000
  1
2
  7
COURIER_NEW
 72
 1
 11
15231.0
 21
-16731.0
 31
0.0
100
AcDbText
 73
 2
  0
TEXT
  5
471
100
AcDbEntity
  8
PIN_NUMBERS_TOP
100
AcDbText
 10
-15448.932
 20
-16953.504
 30
0.0
 40
508.000000
 41
1.000000
  1
3
  7
COURIER_NEW
 72
 1
 11
-15231.0
 21
-16731.0
 31
0.0
100
AcDbText
 73
 2
  0
TEXT
  5
472
100
AcDbEntity
  8
PIN_NUMBERS_TOP
100
AcDbText
 10
-15448.932
 20
16508.496
 30
0.0
 40
508.000000
 41
1.000000
  1
4
  7
COURIER_NEW
 72
 1
 11
-15231.0
 21
16731.0
 31
0.0
100
AcDbText
 73
 2
  0
LWPOLYLINE
  5
473
100
AcDbEntity
  8
PLACEMENT_OUTLINES_TOP
100
AcDbPolyline
 90
        4
 70
         1
 43
0.0
 10
-22700.0
 20
-24200.0
 10
-22700.0
 20
24200.0
 10
22700.0
 20
24200.0
 10
22700.0
 20
-24200.0
  0
LWPOLYLINE
  5
474
100
AcDbEntity
  8
ROUTE_OBSTRUCTS_LAYER_TOP
100
AcDbPolyline
 90
        8
 70
         1
 43
0.0
 10
8000.0
 20
-7000.0
 42
-0.414214
 10
5500.0
 20
-9500.0
 10
-5500.0
 20
-9500.0
 42
-0.414214
 10
-8000.0
 20
-7000.0
 10
-8000.0
 20
7000.0
 42
-0.414214
 10
-5500.0
 20
9500.0
 10
5500.0
 20
9500.0
 42
-0.414214
 10
8000.0
 20
7000.0
  0
LWPOLYLINE
  5
475
100
AcDbEntity
  8
ROUTE_OBSTRUCTS_LAYER_TOP
100
AcDbPolyline
 90
        6
 70
         1
 43
0.0
 10
-25575.0
 20
13639.901
 42
-0.570018
 10
-26019.231
 20
13376.847
 42
0.607382
 10
-27493.846
 20
12389.238
 42
-1.057078
 10
-29300.0
 20
12288.908
 10
-29300.0
 20
16250.0
 42
-1.000000
 10
-25575.0
 20
16250.0
  0
LWPOLYLINE
  5
476
100
AcDbEntity
  8
ROUTE_OBSTRUCTS_LAYER_TOP
100
AcDbPolyline
 90
        8
 70
         1
 43
0.0
 10
-25575.0
 20
-16250.0
 42
-1.000000
 10
-29300.0
 20
-16250.0
 10
-29300.0
 20
-12288.909
 42
-1.057092
 10
-27493.847
 20
-12389.242
 42
0.027743
 10
-27500.0
 20
-12499.959
 10
-27500.0
 20
-12500.045
 42
0.570003
 10
-26019.231
 20
-13376.847
 42
-0.570018
 10
-25575.0
 20
-13639.901
  0
LWPOLYLINE
  5
477
100
AcDbEntity
  8
ROUTE_OBSTRUCTS_LAYER_TOP
100
AcDbPolyline
 90
        8
 70
         1
 43
0.0
 10
-19575.0
 20
-16250.0
 42
-1.000000
 10
-23300.0
 20
-16250.0
 10
-23300.0
 20
-12288.909
 42
-1.057092
 10
-21493.847
 20
-12389.242
 42
0.027743
 10
-21500.0
 20
-12499.959
 10
-21500.0
 20
-12500.045
 42
0.570003
 10
-20019.231
 20
-13376.847
 42
-0.570018
 10
-19575.0
 20
-13639.901
  0
LWPOLYLINE
  5
478
100
AcDbEntity
  8
ROUTE_OBSTRUCTS_LAYER_TOP
100
AcDbPolyline
 90
        6
 70
         1
 43
0.0
 10
-19575.0
 20
13639.901
 42
-0.570018
 10
-20019.231
 20
13376.847
 42
0.607382
 10
-21493.846
 20
12389.238
 42
-1.057078
 10
-23300.0
 20
12288.908
 10
-23300.0
 20
16250.0
 42
-1.000000
 10
-19575.0
 20
16250.0
  0
LWPOLYLINE
  5
479
100
AcDbEntity
  8
ROUTE_OBSTRUCTS_LAYER_TOP
100
AcDbPolyline
 90
        6
 70
         1
 43
0.0
 10
29300.0
 20
12288.909
 42
-1.057092
 10
27493.847
 20
12389.242
 42
0.607382
 10
26019.231
 20
13376.847
 42
-0.570018
 10
25575.0
 20
13639.901
 10
25575.0
 20
16250.0
 42
-1.000000
 10
29300.0
 20
16250.0
  0
LWPOLYLINE
  5
47A
100
AcDbEntity
  8
ROUTE_OBSTRUCTS_LAYER_TOP
100
AcDbPolyline
 90
        6
 70
         1
 43
0.0
 10
23300.0
 20
12288.909
 42
-1.057092
 10
21493.847
 20
12389.242
 42
0.607382
 10
20019.231
 20
13376.847
 42
-0.570018
 10
19575.0
 20
13639.901
 10
19575.0
 20
16250.0
 42
-1.000000
 10
23300.0
 20
16250.0
  0
LWPOLYLINE
  5
47B
100
AcDbEntity
  8
ROUTE_OBSTRUCTS_LAYER_TOP
100
AcDbPolyline
 90
        9
 70
         1
 43
0.0
 10
29300.0
 20
-16250.0
 42
-1.000000
 10
25575.0
 20
-16250.0
 10
25575.0
 20
-13639.901
 42
-0.570018
 10
26019.231
 20
-13376.847
 42
0.607382
 10
27493.846
 20
-12389.238
 42
-0.027740
 10
27488.274
 20
-12288.957
 10
27488.274
 20
-12288.939
 42
-0.000022
 10
27488.274
 20
-12288.912
 42
-1.000000
 10
29300.0
 20
-12288.908
  0
LWPOLYLINE
  5
47C
100
AcDbEntity
  8
ROUTE_OBSTRUCTS_LAYER_TOP
100
AcDbPolyline
 90
        9
 70
         1
 43
0.0
 10
23300.0
 20
-16250.0
 42
-1.000000
 10
19575.0
 20
-16250.0
 10
19575.0
 20
-13639.901
 42
-0.570018
 10
20019.231
 20
-13376.847
 42
0.607382
 10
21493.846
 20
-12389.238
 42
-0.027740
 10
21488.274
 20
-12288.957
 10
21488.274
 20
-12288.939
 42
-0.000022
 10
21488.274
 20
-12288.912
 42
-1.000000
 10
23300.0
 20
-12288.908
  0
CIRCLE
  5
47D
100
AcDbEntity
  8
SOLDERMASK_PADS_TOP
100
AcDbCircle
 10
-19050.0
 20
9525.0
 30
0.0
 40
325.0
  0
CIRCLE
  5
47E
100
AcDbEntity
  8
SOLDERMASK_PADS_TOP
100
AcDbCircle
 10
-19050.0
 20
8255.0
 30
0.0
 40
325.0
  0
CIRCLE
  5
47F
100
AcDbEntity
  8
SOLDERMASK_PADS_TOP
100
AcDbCircle
 10
-19050.0
 20
6985.0
 30
0.0
 40
325.0
  0
CIRCLE
  5
480
100
AcDbEntity
  8
SOLDERMASK_PADS_TOP
100
AcDbCircle
 10
-19050.0
 20
5715.0
 30
0.0
 40
325.0
  0
CIRCLE
  5
481
100
AcDbEntity
  8
SOLDERMASK_PADS_TOP
100
AcDbCircle
 10
-19050.0
 20
4445.0
 30
0.0
 40
325.0
  0
CIRCLE
  5
482
100
AcDbEntity
  8
SOLDERMASK_PADS_TOP
100
AcDbCircle
 10
-19050.0
 20
3175.0
 30
0.0
 40
325.0
  0
CIRCLE
  5
483
100
AcDbEntity
  8
SOLDERMASK_PADS_TOP
100
AcDbCircle
 10
-19050.0
 20
1905.0
 30
0.0
 40
325.0
  0
CIRCLE
  5
484
100
AcDbEntity
  8
SOLDERMASK_PADS_TOP
100
AcDbCircle
 10
-19050.0
 20
635.0
 30
0.0
 40
325.0
  0
CIRCLE
  5
485
100
AcDbEntity
  8
SOLDERMASK_PADS_TOP
100
AcDbCircle
 10
19050.0
 20
9525.0
 30
0.0
 40
325.0
  0
CIRCLE
  5
486
100
AcDbEntity
  8
SOLDERMASK_PADS_TOP
100
AcDbCircle
 10
19050.0
 20
8255.0
 30
0.0
 40
325.0
  0
CIRCLE
  5
487
100
AcDbEntity
  8
SOLDERMASK_PADS_TOP
100
AcDbCircle
 10
19050.0
 20
6985.0
 30
0.0
 40
325.0
  0
CIRCLE
  5
488
100
AcDbEntity
  8
SOLDERMASK_PADS_TOP
100
AcDbCircle
 10
19050.0
 20
5715.0
 30
0.0
 40
325.0
  0
CIRCLE
  5
489
100
AcDbEntity
  8
SOLDERMASK_PADS_TOP
100
AcDbCircle
 10
19050.0
 20
4445.0
 30
0.0
 40
325.0
  0
CIRCLE
  5
48A
100
AcDbEntity
  8
SOLDERMASK_PADS_TOP
100
AcDbCircle
 10
19050.0
 20
3175.0
 30
0.0
 40
325.0
  0
CIRCLE
  5
48B
100
AcDbEntity
  8
SOLDERMASK_PADS_TOP
100
AcDbCircle
 10
19050.0
 20
1905.0
 30
0.0
 40
325.0
  0
CIRCLE
  5
48C
100
AcDbEntity
  8
SOLDERMASK_PADS_TOP
100
AcDbCircle
 10
19050.0
 20
635.0
 30
0.0
 40
325.0
  0
CIRCLE
  5
48D
100
AcDbEntity
  8
SOLDERMASK_PADS_TOP
100
AcDbCircle
 10
19050.0
 20
-635.0
 30
0.0
 40
325.0
  0
CIRCLE
  5
48E
100
AcDbEntity
  8
SOLDERMASK_PADS_TOP
100
AcDbCircle
 10
19050.0
 20
-1905.0
 30
0.0
 40
325.0
  0
CIRCLE
  5
48F
100
AcDbEntity
  8
SOLDERMASK_PADS_TOP
100
AcDbCircle
 10
19050.0
 20
-3175.0
 30
0.0
 40
325.0
  0
CIRCLE
  5
490
100
AcDbEntity
  8
SOLDERMASK_PADS_TOP
100
AcDbCircle
 10
19050.0
 20
-4445.0
 30
0.0
 40
325.0
  0
CIRCLE
  5
491
100
AcDbEntity
  8
SOLDERMASK_PADS_TOP
100
AcDbCircle
 10
19050.0
 20
-5715.0
 30
0.0
 40
325.0
  0
CIRCLE
  5
492
100
AcDbEntity
  8
SOLDERMASK_PADS_TOP
100
AcDbCircle
 10
19050.0
 20
-6985.0
 30
0.0
 40
325.0
  0
CIRCLE
  5
493
100
AcDbEntity
  8
SOLDERMASK_PADS_TOP
100
AcDbCircle
 10
19050.0
 20
-8255.0
 30
0.0
 40
325.0
  0
CIRCLE
  5
494
100
AcDbEntity
  8
SOLDERMASK_PADS_TOP
100
AcDbCircle
 10
19050.0
 20
-9525.0
 30
0.0
 40
325.0
  0
CIRCLE
  5
495
100
AcDbEntity
  8
SOLDERMASK_PADS_TOP
100
AcDbCircle
 10
16510.0
 20
13335.0
 30
0.0
 40
325.0
  0
CIRCLE
  5
496
100
AcDbEntity
  8
SOLDERMASK_PADS_TOP
100
AcDbCircle
 10
16510.0
 20
12065.0
 30
0.0
 40
325.0
  0
CIRCLE
  5
497
100
AcDbEntity
  8
SOLDERMASK_PADS_TOP
100
AcDbCircle
 10
16510.0
 20
10795.0
 30
0.0
 40
325.0
  0
CIRCLE
  5
498
100
AcDbEntity
  8
SOLDERMASK_PADS_TOP
100
AcDbCircle
 10
16510.0
 20
9525.0
 30
0.0
 40
325.0
  0
CIRCLE
  5
499
100
AcDbEntity
  8
SOLDERMASK_PADS_TOP
100
AcDbCircle
 10
16510.0
 20
8255.0
 30
0.0
 40
325.0
  0
CIRCLE
  5
49A
100
AcDbEntity
  8
SOLDERMASK_PADS_TOP
100
AcDbCircle
 10
16510.0
 20
6985.0
 30
0.0
 40
325.0
  0
CIRCLE
  5
49B
100
AcDbEntity
  8
SOLDERMASK_PADS_TOP
100
AcDbCircle
 10
16510.0
 20
5715.0
 30
0.0
 40
325.0
  0
CIRCLE
  5
49C
100
AcDbEntity
  8
SOLDERMASK_PADS_TOP
100
AcDbCircle
 10
16510.0
 20
4445.0
 30
0.0
 40
325.0
  0
CIRCLE
  5
49D
100
AcDbEntity
  8
SOLDERMASK_PADS_TOP
100
AcDbCircle
 10
16510.0
 20
3175.0
 30
0.0
 40
325.0
  0
CIRCLE
  5
49E
100
AcDbEntity
  8
SOLDERMASK_PADS_TOP
100
AcDbCircle
 10
16510.0
 20
1905.0
 30
0.0
 40
325.0
  0
CIRCLE
  5
49F
100
AcDbEntity
  8
SOLDERMASK_PADS_TOP
100
AcDbCircle
 10
15240.0
 20
12700.0
 30
0.0
 40
325.0
  0
CIRCLE
  5
4A0
100
AcDbEntity
  8
SOLDERMASK_PADS_TOP
100
AcDbCircle
 10
15240.0
 20
11430.0
 30
0.0
 40
325.0
  0
CIRCLE
  5
4A1
100
AcDbEntity
  8
SOLDERMASK_PADS_TOP
100
AcDbCircle
 10
15240.0
 20
10160.0
 30
0.0
 40
325.0
  0
CIRCLE
  5
4A2
100
AcDbEntity
  8
SOLDERMASK_PADS_TOP
100
AcDbCircle
 10
15240.0
 20
8890.0
 30
0.0
 40
325.0
  0
CIRCLE
  5
4A3
100
AcDbEntity
  8
SOLDERMASK_PADS_TOP
100
AcDbCircle
 10
15240.0
 20
7620.0
 30
0.0
 40
325.0
  0
CIRCLE
  5
4A4
100
AcDbEntity
  8
SOLDERMASK_PADS_TOP
100
AcDbCircle
 10
15240.0
 20
6350.0
 30
0.0
 40
325.0
  0
CIRCLE
  5
4A5
100
AcDbEntity
  8
SOLDERMASK_PADS_TOP
100
AcDbCircle
 10
15240.0
 20
5080.0
 30
0.0
 40
325.0
  0
CIRCLE
  5
4A6
100
AcDbEntity
  8
SOLDERMASK_PADS_TOP
100
AcDbCircle
 10
15240.0
 20
3810.0
 30
0.0
 40
325.0
  0
CIRCLE
  5
4A7
100
AcDbEntity
  8
SOLDERMASK_PADS_TOP
100
AcDbCircle
 10
15240.0
 20
2540.0
 30
0.0
 40
325.0
  0
CIRCLE
  5
4A8
100
AcDbEntity
  8
SOLDERMASK_PADS_TOP
100
AcDbCircle
 10
13970.0
 20
10795.0
 30
0.0
 40
325.0
  0
CIRCLE
  5
4A9
100
AcDbEntity
  8
SOLDERMASK_PADS_TOP
100
AcDbCircle
 10
13970.0
 20
9525.0
 30
0.0
 40
325.0
  0
CIRCLE
  5
4AA
100
AcDbEntity
  8
SOLDERMASK_PADS_TOP
100
AcDbCircle
 10
13970.0
 20
8255.0
 30
0.0
 40
325.0
  0
CIRCLE
  5
4AB
100
AcDbEntity
  8
SOLDERMASK_PADS_TOP
100
AcDbCircle
 10
13970.0
 20
6985.0
 30
0.0
 40
325.0
  0
CIRCLE
  5
4AC
100
AcDbEntity
  8
SOLDERMASK_PADS_TOP
100
AcDbCircle
 10
13970.0
 20
5715.0
 30
0.0
 40
325.0
  0
CIRCLE
  5
4AD
100
AcDbEntity
  8
SOLDERMASK_PADS_TOP
100
AcDbCircle
 10
13970.0
 20
4445.0
 30
0.0
 40
325.0
  0
CIRCLE
  5
4AE
100
AcDbEntity
  8
SOLDERMASK_PADS_TOP
100
AcDbCircle
 10
13970.0
 20
3175.0
 30
0.0
 40
325.0
  0
CIRCLE
  5
4AF
100
AcDbEntity
  8
SOLDERMASK_PADS_TOP
100
AcDbCircle
 10
13970.0
 20
1905.0
 30
0.0
 40
325.0
  0
CIRCLE
  5
4B0
100
AcDbEntity
  8
SOLDERMASK_PADS_TOP
100
AcDbCircle
 10
13970.0
 20
635.0
 30
0.0
 40
325.0
  0
CIRCLE
  5
4B1
100
AcDbEntity
  8
SOLDERMASK_PADS_TOP
100
AcDbCircle
 10
13970.0
 20
-635.0
 30
0.0
 40
325.0
  0
CIRCLE
  5
4B2
100
AcDbEntity
  8
SOLDERMASK_PADS_TOP
100
AcDbCircle
 10
13970.0
 20
-1905.0
 30
0.0
 40
325.0
  0
CIRCLE
  5
4B3
100
AcDbEntity
  8
SOLDERMASK_PADS_TOP
100
AcDbCircle
 10
13970.0
 20
-3175.0
 30
0.0
 40
325.0
  0
CIRCLE
  5
4B4
100
AcDbEntity
  8
SOLDERMASK_PADS_TOP
100
AcDbCircle
 10
13970.0
 20
-4445.0
 30
0.0
 40
325.0
  0
CIRCLE
  5
4B5
100
AcDbEntity
  8
SOLDERMASK_PADS_TOP
100
AcDbCircle
 10
13970.0
 20
-5715.0
 30
0.0
 40
325.0
  0
CIRCLE
  5
4B6
100
AcDbEntity
  8
SOLDERMASK_PADS_TOP
100
AcDbCircle
 10
13970.0
 20
-6985.0
 30
0.0
 40
325.0
  0
CIRCLE
  5
4B7
100
AcDbEntity
  8
SOLDERMASK_PADS_TOP
100
AcDbCircle
 10
13970.0
 20
-8255.0
 30
0.0
 40
325.0
  0
CIRCLE
  5
4B8
100
AcDbEntity
  8
SOLDERMASK_PADS_TOP
100
AcDbCircle
 10
13970.0
 20
-9525.0
 30
0.0
 40
325.0
  0
CIRCLE
  5
4B9
100
AcDbEntity
  8
SOLDERMASK_PADS_TOP
100
AcDbCircle
 10
13970.0
 20
-10795.0
 30
0.0
 40
325.0
  0
CIRCLE
  5
4BA
100
AcDbEntity
  8
SOLDERMASK_PADS_TOP
100
AcDbCircle
 10
-13970.0
 20
10795.0
 30
0.0
 40
325.0
  0
CIRCLE
  5
4BB
100
AcDbEntity
  8
SOLDERMASK_PADS_TOP
100
AcDbCircle
 10
-13970.0
 20
9525.0
 30
0.0
 40
325.0
  0
CIRCLE
  5
4BC
100
AcDbEntity
  8
SOLDERMASK_PADS_TOP
100
AcDbCircle
 10
-13970.0
 20
8255.0
 30
0.0
 40
325.0
  0
CIRCLE
  5
4BD
100
AcDbEntity
  8
SOLDERMASK_PADS_TOP
100
AcDbCircle
 10
-13970.0
 20
6985.0
 30
0.0
 40
325.0
  0
CIRCLE
  5
4BE
100
AcDbEntity
  8
SOLDERMASK_PADS_TOP
100
AcDbCircle
 10
-13970.0
 20
5715.0
 30
0.0
 40
325.0
  0
CIRCLE
  5
4BF
100
AcDbEntity
  8
SOLDERMASK_PADS_TOP
100
AcDbCircle
 10
-13970.0
 20
4445.0
 30
0.0
 40
325.0
  0
CIRCLE
  5
4C0
100
AcDbEntity
  8
SOLDERMASK_PADS_TOP
100
AcDbCircle
 10
-13970.0
 20
3175.0
 30
0.0
 40
325.0
  0
CIRCLE
  5
4C1
100
AcDbEntity
  8
SOLDERMASK_PADS_TOP
100
AcDbCircle
 10
-13970.0
 20
1905.0
 30
0.0
 40
325.0
  0
CIRCLE
  5
4C2
100
AcDbEntity
  8
SOLDERMASK_PADS_TOP
100
AcDbCircle
 10
-13970.0
 20
635.0
 30
0.0
 40
325.0
  0
CIRCLE
  5
4C3
100
AcDbEntity
  8
SOLDERMASK_PADS_TOP
100
AcDbCircle
 10
-13970.0
 20
-635.0
 30
0.0
 40
325.0
  0
CIRCLE
  5
4C4
100
AcDbEntity
  8
SOLDERMASK_PADS_TOP
100
AcDbCircle
 10
-13970.0
 20
-1905.0
 30
0.0
 40
325.0
  0
CIRCLE
  5
4C5
100
AcDbEntity
  8
SOLDERMASK_PADS_TOP
100
AcDbCircle
 10
-13970.0
 20
-3175.0
 30
0.0
 40
325.0
  0
CIRCLE
  5
4C6
100
AcDbEntity
  8
SOLDERMASK_PADS_TOP
100
AcDbCircle
 10
-13970.0
 20
-4445.0
 30
0.0
 40
325.0
  0
CIRCLE
  5
4C7
100
AcDbEntity
  8
SOLDERMASK_PADS_TOP
100
AcDbCircle
 10
-13970.0
 20
-5715.0
 30
0.0
 40
325.0
  0
CIRCLE
  5
4C8
100
AcDbEntity
  8
SOLDERMASK_PADS_TOP
100
AcDbCircle
 10
-13970.0
 20
-6985.0
 30
0.0
 40
325.0
  0
CIRCLE
  5
4C9
100
AcDbEntity
  8
SOLDERMASK_PADS_TOP
100
AcDbCircle
 10
-13970.0
 20
-8255.0
 30
0.0
 40
325.0
  0
CIRCLE
  5
4CA
100
AcDbEntity
  8
SOLDERMASK_PADS_TOP
100
AcDbCircle
 10
-13970.0
 20
-9525.0
 30
0.0
 40
325.0
  0
CIRCLE
  5
4CB
100
AcDbEntity
  8
SOLDERMASK_PADS_TOP
100
AcDbCircle
 10
-13970.0
 20
-10795.0
 30
0.0
 40
325.0
  0
CIRCLE
  5
4CC
100
AcDbEntity
  8
SOLDERMASK_PADS_TOP
100
AcDbCircle
 10
-15240.0
 20
12700.0
 30
0.0
 40
325.0
  0
CIRCLE
  5
4CD
100
AcDbEntity
  8
SOLDERMASK_PADS_TOP
100
AcDbCircle
 10
-15240.0
 20
11430.0
 30
0.0
 40
325.0
  0
CIRCLE
  5
4CE
100
AcDbEntity
  8
SOLDERMASK_PADS_TOP
100
AcDbCircle
 10
-15240.0
 20
10160.0
 30
0.0
 40
325.0
  0
CIRCLE
  5
4CF
100
AcDbEntity
  8
SOLDERMASK_PADS_TOP
100
AcDbCircle
 10
-15240.0
 20
8890.0
 30
0.0
 40
325.0
  0
CIRCLE
  5
4D0
100
AcDbEntity
  8
SOLDERMASK_PADS_TOP
100
AcDbCircle
 10
-15240.0
 20
7620.0
 30
0.0
 40
325.0
  0
CIRCLE
  5
4D1
100
AcDbEntity
  8
SOLDERMASK_PADS_TOP
100
AcDbCircle
 10
-15240.0
 20
6350.0
 30
0.0
 40
325.0
  0
CIRCLE
  5
4D2
100
AcDbEntity
  8
SOLDERMASK_PADS_TOP
100
AcDbCircle
 10
-15240.0
 20
5080.0
 30
0.0
 40
325.0
  0
CIRCLE
  5
4D3
100
AcDbEntity
  8
SOLDERMASK_PADS_TOP
100
AcDbCircle
 10
-15240.0
 20
3810.0
 30
0.0
 40
325.0
  0
CIRCLE
  5
4D4
100
AcDbEntity
  8
SOLDERMASK_PADS_TOP
100
AcDbCircle
 10
-15240.0
 20
2540.0
 30
0.0
 40
325.0
  0
CIRCLE
  5
4D5
100
AcDbEntity
  8
SOLDERMASK_PADS_TOP
100
AcDbCircle
 10
-15240.0
 20
1270.0
 30
0.0
 40
325.0
  0
CIRCLE
  5
4D6
100
AcDbEntity
  8
SOLDERMASK_PADS_TOP
100
AcDbCircle
 10
-15240.0
 20
0.0
 30
0.0
 40
325.0
  0
CIRCLE
  5
4D7
100
AcDbEntity
  8
SOLDERMASK_PADS_TOP
100
AcDbCircle
 10
-15240.0
 20
-1270.0
 30
0.0
 40
325.0
  0
CIRCLE
  5
4D8
100
AcDbEntity
  8
SOLDERMASK_PADS_TOP
100
AcDbCircle
 10
-15240.0
 20
-2540.0
 30
0.0
 40
325.0
  0
CIRCLE
  5
4D9
100
AcDbEntity
  8
SOLDERMASK_PADS_TOP
100
AcDbCircle
 10
-15240.0
 20
-3810.0
 30
0.0
 40
325.0
  0
CIRCLE
  5
4DA
100
AcDbEntity
  8
SOLDERMASK_PADS_TOP
100
AcDbCircle
 10
-15240.0
 20
-5080.0
 30
0.0
 40
325.0
  0
CIRCLE
  5
4DB
100
AcDbEntity
  8
SOLDERMASK_PADS_TOP
100
AcDbCircle
 10
-15240.0
 20
-6350.0
 30
0.0
 40
325.0
  0
CIRCLE
  5
4DC
100
AcDbEntity
  8
SOLDERMASK_PADS_TOP
100
AcDbCircle
 10
-15240.0
 20
-7620.0
 30
0.0
 40
325.0
  0
CIRCLE
  5
4DD
100
AcDbEntity
  8
SOLDERMASK_PADS_TOP
100
AcDbCircle
 10
-15240.0
 20
-8890.0
 30
0.0
 40
325.0
  0
CIRCLE
  5
4DE
100
AcDbEntity
  8
SOLDERMASK_PADS_TOP
100
AcDbCircle
 10
-15240.0
 20
-10160.0
 30
0.0
 40
325.0
  0
CIRCLE
  5
4DF
100
AcDbEntity
  8
SOLDERMASK_PADS_TOP
100
AcDbCircle
 10
-15240.0
 20
-11430.0
 30
0.0
 40
325.0
  0
CIRCLE
  5
4E0
100
AcDbEntity
  8
SOLDERMASK_PADS_TOP
100
AcDbCircle
 10
-15240.0
 20
-12700.0
 30
0.0
 40
325.0
  0
CIRCLE
  5
4E1
100
AcDbEntity
  8
SOLDERMASK_PADS_TOP
100
AcDbCircle
 10
-16510.0
 20
13335.0
 30
0.0
 40
325.0
  0
CIRCLE
  5
4E2
100
AcDbEntity
  8
SOLDERMASK_PADS_TOP
100
AcDbCircle
 10
-16510.0
 20
12065.0
 30
0.0
 40
325.0
  0
CIRCLE
  5
4E3
100
AcDbEntity
  8
SOLDERMASK_PADS_TOP
100
AcDbCircle
 10
-16510.0
 20
10795.0
 30
0.0
 40
325.0
  0
CIRCLE
  5
4E4
100
AcDbEntity
  8
SOLDERMASK_PADS_TOP
100
AcDbCircle
 10
-16510.0
 20
9525.0
 30
0.0
 40
325.0
  0
CIRCLE
  5
4E5
100
AcDbEntity
  8
SOLDERMASK_PADS_TOP
100
AcDbCircle
 10
-16510.0
 20
8255.0
 30
0.0
 40
325.0
  0
CIRCLE
  5
4E6
100
AcDbEntity
  8
SOLDERMASK_PADS_TOP
100
AcDbCircle
 10
-16510.0
 20
6985.0
 30
0.0
 40
325.0
  0
CIRCLE
  5
4E7
100
AcDbEntity
  8
SOLDERMASK_PADS_TOP
100
AcDbCircle
 10
-16510.0
 20
5715.0
 30
0.0
 40
325.0
  0
CIRCLE
  5
4E8
100
AcDbEntity
  8
SOLDERMASK_PADS_TOP
100
AcDbCircle
 10
-16510.0
 20
4445.0
 30
0.0
 40
325.0
  0
CIRCLE
  5
4E9
100
AcDbEntity
  8
SOLDERMASK_PADS_TOP
100
AcDbCircle
 10
-16510.0
 20
3175.0
 30
0.0
 40
325.0
  0
CIRCLE
  5
4EA
100
AcDbEntity
  8
SOLDERMASK_PADS_TOP
100
AcDbCircle
 10
-16510.0
 20
1905.0
 30
0.0
 40
325.0
  0
CIRCLE
  5
4EB
100
AcDbEntity
  8
SOLDERMASK_PADS_TOP
100
AcDbCircle
 10
-16510.0
 20
635.0
 30
0.0
 40
325.0
  0
CIRCLE
  5
4EC
100
AcDbEntity
  8
SOLDERMASK_PADS_TOP
100
AcDbCircle
 10
-16510.0
 20
-635.0
 30
0.0
 40
325.0
  0
CIRCLE
  5
4ED
100
AcDbEntity
  8
SOLDERMASK_PADS_TOP
100
AcDbCircle
 10
-16510.0
 20
-1905.0
 30
0.0
 40
325.0
  0
CIRCLE
  5
4EE
100
AcDbEntity
  8
SOLDERMASK_PADS_TOP
100
AcDbCircle
 10
-16510.0
 20
-3175.0
 30
0.0
 40
325.0
  0
CIRCLE
  5
4EF
100
AcDbEntity
  8
SOLDERMASK_PADS_TOP
100
AcDbCircle
 10
-16510.0
 20
-4445.0
 30
0.0
 40
325.0
  0
CIRCLE
  5
4F0
100
AcDbEntity
  8
SOLDERMASK_PADS_TOP
100
AcDbCircle
 10
-16510.0
 20
-5715.0
 30
0.0
 40
325.0
  0
CIRCLE
  5
4F1
100
AcDbEntity
  8
SOLDERMASK_PADS_TOP
100
AcDbCircle
 10
-16510.0
 20
-6985.0
 30
0.0
 40
325.0
  0
CIRCLE
  5
4F2
100
AcDbEntity
  8
SOLDERMASK_PADS_TOP
100
AcDbCircle
 10
-16510.0
 20
-8255.0
 30
0.0
 40
325.0
  0
CIRCLE
  5
4F3
100
AcDbEntity
  8
SOLDERMASK_PADS_TOP
100
AcDbCircle
 10
-16510.0
 20
-9525.0
 30
0.0
 40
325.0
  0
CIRCLE
  5
4F4
100
AcDbEntity
  8
SOLDERMASK_PADS_TOP
100
AcDbCircle
 10
-16510.0
 20
-10795.0
 30
0.0
 40
325.0
  0
CIRCLE
  5
4F5
100
AcDbEntity
  8
SOLDERMASK_PADS_TOP
100
AcDbCircle
 10
-16510.0
 20
-12065.0
 30
0.0
 40
325.0
  0
CIRCLE
  5
4F6
100
AcDbEntity
  8
SOLDERMASK_PADS_TOP
100
AcDbCircle
 10
-16510.0
 20
-13335.0
 30
0.0
 40
325.0
  0
CIRCLE
  5
4F7
100
AcDbEntity
  8
SOLDERMASK_PADS_TOP
100
AcDbCircle
 10
16510.0
 20
635.0
 30
0.0
 40
325.0
  0
CIRCLE
  5
4F8
100
AcDbEntity
  8
SOLDERMASK_PADS_TOP
100
AcDbCircle
 10
16510.0
 20
-635.0
 30
0.0
 40
325.0
  0
CIRCLE
  5
4F9
100
AcDbEntity
  8
SOLDERMASK_PADS_TOP
100
AcDbCircle
 10
16510.0
 20
-1905.0
 30
0.0
 40
325.0
  0
CIRCLE
  5
4FA
100
AcDbEntity
  8
SOLDERMASK_PADS_TOP
100
AcDbCircle
 10
16510.0
 20
-3175.0
 30
0.0
 40
325.0
  0
CIRCLE
  5
4FB
100
AcDbEntity
  8
SOLDERMASK_PADS_TOP
100
AcDbCircle
 10
16510.0
 20
-4445.0
 30
0.0
 40
325.0
  0
CIRCLE
  5
4FC
100
AcDbEntity
  8
SOLDERMASK_PADS_TOP
100
AcDbCircle
 10
16510.0
 20
-5715.0
 30
0.0
 40
325.0
  0
CIRCLE
  5
4FD
100
AcDbEntity
  8
SOLDERMASK_PADS_TOP
100
AcDbCircle
 10
16510.0
 20
-6985.0
 30
0.0
 40
325.0
  0
CIRCLE
  5
4FE
100
AcDbEntity
  8
SOLDERMASK_PADS_TOP
100
AcDbCircle
 10
16510.0
 20
-8255.0
 30
0.0
 40
325.0
  0
CIRCLE
  5
4FF
100
AcDbEntity
  8
SOLDERMASK_PADS_TOP
100
AcDbCircle
 10
16510.0
 20
-9525.0
 30
0.0
 40
325.0
  0
CIRCLE
  5
500
100
AcDbEntity
  8
SOLDERMASK_PADS_TOP
100
AcDbCircle
 10
16510.0
 20
-10795.0
 30
0.0
 40
325.0
  0
CIRCLE
  5
501
100
AcDbEntity
  8
SOLDERMASK_PADS_TOP
100
AcDbCircle
 10
16510.0
 20
-12065.0
 30
0.0
 40
325.0
  0
CIRCLE
  5
502
100
AcDbEntity
  8
SOLDERMASK_PADS_TOP
100
AcDbCircle
 10
16510.0
 20
-13335.0
 30
0.0
 40
325.0
  0
CIRCLE
  5
503
100
AcDbEntity
  8
SOLDERMASK_PADS_TOP
100
AcDbCircle
 10
-19050.0
 20
-635.0
 30
0.0
 40
325.0
  0
CIRCLE
  5
504
100
AcDbEntity
  8
SOLDERMASK_PADS_TOP
100
AcDbCircle
 10
-19050.0
 20
-1905.0
 30
0.0
 40
325.0
  0
CIRCLE
  5
505
100
AcDbEntity
  8
SOLDERMASK_PADS_TOP
100
AcDbCircle
 10
-19050.0
 20
-3175.0
 30
0.0
 40
325.0
  0
CIRCLE
  5
506
100
AcDbEntity
  8
SOLDERMASK_PADS_TOP
100
AcDbCircle
 10
-19050.0
 20
-4445.0
 30
0.0
 40
325.0
  0
CIRCLE
  5
507
100
AcDbEntity
  8
SOLDERMASK_PADS_TOP
100
AcDbCircle
 10
-19050.0
 20
-5715.0
 30
0.0
 40
325.0
  0
CIRCLE
  5
508
100
AcDbEntity
  8
SOLDERMASK_PADS_TOP
100
AcDbCircle
 10
-19050.0
 20
-6985.0
 30
0.0
 40
325.0
  0
CIRCLE
  5
509
100
AcDbEntity
  8
SOLDERMASK_PADS_TOP
100
AcDbCircle
 10
-19050.0
 20
-8255.0
 30
0.0
 40
325.0
  0
CIRCLE
  5
50A
100
AcDbEntity
  8
SOLDERMASK_PADS_TOP
100
AcDbCircle
 10
-19050.0
 20
-9525.0
 30
0.0
 40
325.0
  0
CIRCLE
  5
50B
100
AcDbEntity
  8
SOLDERMASK_PADS_TOP
100
AcDbCircle
 10
-15240.0
 20
21590.0
 30
0.0
 40
325.0
  0
CIRCLE
  5
50C
100
AcDbEntity
  8
SOLDERMASK_PADS_TOP
100
AcDbCircle
 10
-13970.0
 20
20955.0
 30
0.0
 40
325.0
  0
CIRCLE
  5
50D
100
AcDbEntity
  8
SOLDERMASK_PADS_TOP
100
AcDbCircle
 10
-12700.0
 20
21590.0
 30
0.0
 40
325.0
  0
CIRCLE
  5
50E
100
AcDbEntity
  8
SOLDERMASK_PADS_TOP
100
AcDbCircle
 10
-11430.0
 20
20955.0
 30
0.0
 40
325.0
  0
CIRCLE
  5
50F
100
AcDbEntity
  8
SOLDERMASK_PADS_TOP
100
AcDbCircle
 10
-10160.0
 20
21590.0
 30
0.0
 40
325.0
  0
CIRCLE
  5
510
100
AcDbEntity
  8
SOLDERMASK_PADS_TOP
100
AcDbCircle
 10
-8890.0
 20
20955.0
 30
0.0
 40
325.0
  0
CIRCLE
  5
511
100
AcDbEntity
  8
SOLDERMASK_PADS_TOP
100
AcDbCircle
 10
-7620.0
 20
21590.0
 30
0.0
 40
325.0
  0
CIRCLE
  5
512
100
AcDbEntity
  8
SOLDERMASK_PADS_TOP
100
AcDbCircle
 10
-6350.0
 20
20955.0
 30
0.0
 40
325.0
  0
CIRCLE
  5
513
100
AcDbEntity
  8
SOLDERMASK_PADS_TOP
100
AcDbCircle
 10
-5080.0
 20
21590.0
 30
0.0
 40
325.0
  0
CIRCLE
  5
514
100
AcDbEntity
  8
SOLDERMASK_PADS_TOP
100
AcDbCircle
 10
-3810.0
 20
20955.0
 30
0.0
 40
325.0
  0
CIRCLE
  5
515
100
AcDbEntity
  8
SOLDERMASK_PADS_TOP
100
AcDbCircle
 10
-2540.0
 20
21590.0
 30
0.0
 40
325.0
  0
CIRCLE
  5
516
100
AcDbEntity
  8
SOLDERMASK_PADS_TOP
100
AcDbCircle
 10
-1270.0
 20
20955.0
 30
0.0
 40
325.0
  0
CIRCLE
  5
517
100
AcDbEntity
  8
SOLDERMASK_PADS_TOP
100
AcDbCircle
 10
0.0
 20
21590.0
 30
0.0
 40
325.0
  0
CIRCLE
  5
518
100
AcDbEntity
  8
SOLDERMASK_PADS_TOP
100
AcDbCircle
 10
1270.0
 20
20955.0
 30
0.0
 40
325.0
  0
CIRCLE
  5
519
100
AcDbEntity
  8
SOLDERMASK_PADS_TOP
100
AcDbCircle
 10
2540.0
 20
21590.0
 30
0.0
 40
325.0
  0
CIRCLE
  5
51A
100
AcDbEntity
  8
SOLDERMASK_PADS_TOP
100
AcDbCircle
 10
3810.0
 20
20955.0
 30
0.0
 40
325.0
  0
CIRCLE
  5
51B
100
AcDbEntity
  8
SOLDERMASK_PADS_TOP
100
AcDbCircle
 10
5080.0
 20
21590.0
 30
0.0
 40
325.0
  0
CIRCLE
  5
51C
100
AcDbEntity
  8
SOLDERMASK_PADS_TOP
100
AcDbCircle
 10
6350.0
 20
20955.0
 30
0.0
 40
325.0
  0
CIRCLE
  5
51D
100
AcDbEntity
  8
SOLDERMASK_PADS_TOP
100
AcDbCircle
 10
7620.0
 20
21590.0
 30
0.0
 40
325.0
  0
CIRCLE
  5
51E
100
AcDbEntity
  8
SOLDERMASK_PADS_TOP
100
AcDbCircle
 10
8890.0
 20
20955.0
 30
0.0
 40
325.0
  0
CIRCLE
  5
51F
100
AcDbEntity
  8
SOLDERMASK_PADS_TOP
100
AcDbCircle
 10
10160.0
 20
21590.0
 30
0.0
 40
325.0
  0
CIRCLE
  5
520
100
AcDbEntity
  8
SOLDERMASK_PADS_TOP
100
AcDbCircle
 10
11430.0
 20
20955.0
 30
0.0
 40
325.0
  0
CIRCLE
  5
521
100
AcDbEntity
  8
SOLDERMASK_PADS_TOP
100
AcDbCircle
 10
12700.0
 20
21590.0
 30
0.0
 40
325.0
  0
CIRCLE
  5
522
100
AcDbEntity
  8
SOLDERMASK_PADS_TOP
100
AcDbCircle
 10
13970.0
 20
20955.0
 30
0.0
 40
325.0
  0
CIRCLE
  5
523
100
AcDbEntity
  8
SOLDERMASK_PADS_TOP
100
AcDbCircle
 10
15240.0
 20
21590.0
 30
0.0
 40
325.0
  0
CIRCLE
  5
524
100
AcDbEntity
  8
SOLDERMASK_PADS_TOP
100
AcDbCircle
 10
-11430.0
 20
18415.0
 30
0.0
 40
325.0
  0
CIRCLE
  5
525
100
AcDbEntity
  8
SOLDERMASK_PADS_TOP
100
AcDbCircle
 10
-11430.0
 20
17145.0
 30
0.0
 40
325.0
  0
CIRCLE
  5
526
100
AcDbEntity
  8
SOLDERMASK_PADS_TOP
100
AcDbCircle
 10
-10160.0
 20
19050.0
 30
0.0
 40
325.0
  0
CIRCLE
  5
527
100
AcDbEntity
  8
SOLDERMASK_PADS_TOP
100
AcDbCircle
 10
-10160.0
 20
17780.0
 30
0.0
 40
325.0
  0
CIRCLE
  5
528
100
AcDbEntity
  8
SOLDERMASK_PADS_TOP
100
AcDbCircle
 10
-10160.0
 20
16510.0
 30
0.0
 40
325.0
  0
CIRCLE
  5
529
100
AcDbEntity
  8
SOLDERMASK_PADS_TOP
100
AcDbCircle
 10
-8890.0
 20
18415.0
 30
0.0
 40
325.0
  0
CIRCLE
  5
52A
100
AcDbEntity
  8
SOLDERMASK_PADS_TOP
100
AcDbCircle
 10
-8890.0
 20
17145.0
 30
0.0
 40
325.0
  0
CIRCLE
  5
52B
100
AcDbEntity
  8
SOLDERMASK_PADS_TOP
100
AcDbCircle
 10
-8890.0
 20
15875.0
 30
0.0
 40
325.0
  0
CIRCLE
  5
52C
100
AcDbEntity
  8
SOLDERMASK_PADS_TOP
100
AcDbCircle
 10
-7620.0
 20
19050.0
 30
0.0
 40
325.0
  0
CIRCLE
  5
52D
100
AcDbEntity
  8
SOLDERMASK_PADS_TOP
100
AcDbCircle
 10
-7620.0
 20
17780.0
 30
0.0
 40
325.0
  0
CIRCLE
  5
52E
100
AcDbEntity
  8
SOLDERMASK_PADS_TOP
100
AcDbCircle
 10
-7620.0
 20
16510.0
 30
0.0
 40
325.0
  0
CIRCLE
  5
52F
100
AcDbEntity
  8
SOLDERMASK_PADS_TOP
100
AcDbCircle
 10
-6350.0
 20
18415.0
 30
0.0
 40
325.0
  0
CIRCLE
  5
530
100
AcDbEntity
  8
SOLDERMASK_PADS_TOP
100
AcDbCircle
 10
-6350.0
 20
17145.0
 30
0.0
 40
325.0
  0
CIRCLE
  5
531
100
AcDbEntity
  8
SOLDERMASK_PADS_TOP
100
AcDbCircle
 10
-6350.0
 20
15875.0
 30
0.0
 40
325.0
  0
CIRCLE
  5
532
100
AcDbEntity
  8
SOLDERMASK_PADS_TOP
100
AcDbCircle
 10
-5080.0
 20
19050.0
 30
0.0
 40
325.0
  0
CIRCLE
  5
533
100
AcDbEntity
  8
SOLDERMASK_PADS_TOP
100
AcDbCircle
 10
-5080.0
 20
17780.0
 30
0.0
 40
325.0
  0
CIRCLE
  5
534
100
AcDbEntity
  8
SOLDERMASK_PADS_TOP
100
AcDbCircle
 10
-5080.0
 20
16510.0
 30
0.0
 40
325.0
  0
CIRCLE
  5
535
100
AcDbEntity
  8
SOLDERMASK_PADS_TOP
100
AcDbCircle
 10
-3810.0
 20
18415.0
 30
0.0
 40
325.0
  0
CIRCLE
  5
536
100
AcDbEntity
  8
SOLDERMASK_PADS_TOP
100
AcDbCircle
 10
-3810.0
 20
17145.0
 30
0.0
 40
325.0
  0
CIRCLE
  5
537
100
AcDbEntity
  8
SOLDERMASK_PADS_TOP
100
AcDbCircle
 10
-3810.0
 20
15875.0
 30
0.0
 40
325.0
  0
CIRCLE
  5
538
100
AcDbEntity
  8
SOLDERMASK_PADS_TOP
100
AcDbCircle
 10
-2540.0
 20
19050.0
 30
0.0
 40
325.0
  0
CIRCLE
  5
539
100
AcDbEntity
  8
SOLDERMASK_PADS_TOP
100
AcDbCircle
 10
-2540.0
 20
17780.0
 30
0.0
 40
325.0
  0
CIRCLE
  5
53A
100
AcDbEntity
  8
SOLDERMASK_PADS_TOP
100
AcDbCircle
 10
-2540.0
 20
16510.0
 30
0.0
 40
325.0
  0
CIRCLE
  5
53B
100
AcDbEntity
  8
SOLDERMASK_PADS_TOP
100
AcDbCircle
 10
-1270.0
 20
18415.0
 30
0.0
 40
325.0
  0
CIRCLE
  5
53C
100
AcDbEntity
  8
SOLDERMASK_PADS_TOP
100
AcDbCircle
 10
-1270.0
 20
17145.0
 30
0.0
 40
325.0
  0
CIRCLE
  5
53D
100
AcDbEntity
  8
SOLDERMASK_PADS_TOP
100
AcDbCircle
 10
-1270.0
 20
15875.0
 30
0.0
 40
325.0
  0
CIRCLE
  5
53E
100
AcDbEntity
  8
SOLDERMASK_PADS_TOP
100
AcDbCircle
 10
0.0
 20
19050.0
 30
0.0
 40
325.0
  0
CIRCLE
  5
53F
100
AcDbEntity
  8
SOLDERMASK_PADS_TOP
100
AcDbCircle
 10
0.0
 20
17780.0
 30
0.0
 40
325.0
  0
CIRCLE
  5
540
100
AcDbEntity
  8
SOLDERMASK_PADS_TOP
100
AcDbCircle
 10
0.0
 20
16510.0
 30
0.0
 40
325.0
  0
CIRCLE
  5
541
100
AcDbEntity
  8
SOLDERMASK_PADS_TOP
100
AcDbCircle
 10
1270.0
 20
18415.0
 30
0.0
 40
325.0
  0
CIRCLE
  5
542
100
AcDbEntity
  8
SOLDERMASK_PADS_TOP
100
AcDbCircle
 10
1270.0
 20
17145.0
 30
0.0
 40
325.0
  0
CIRCLE
  5
543
100
AcDbEntity
  8
SOLDERMASK_PADS_TOP
100
AcDbCircle
 10
1270.0
 20
15875.0
 30
0.0
 40
325.0
  0
CIRCLE
  5
544
100
AcDbEntity
  8
SOLDERMASK_PADS_TOP
100
AcDbCircle
 10
2540.0
 20
19050.0
 30
0.0
 40
325.0
  0
CIRCLE
  5
545
100
AcDbEntity
  8
SOLDERMASK_PADS_TOP
100
AcDbCircle
 10
2540.0
 20
17780.0
 30
0.0
 40
325.0
  0
CIRCLE
  5
546
100
AcDbEntity
  8
SOLDERMASK_PADS_TOP
100
AcDbCircle
 10
2540.0
 20
16510.0
 30
0.0
 40
325.0
  0
CIRCLE
  5
547
100
AcDbEntity
  8
SOLDERMASK_PADS_TOP
100
AcDbCircle
 10
3810.0
 20
18415.0
 30
0.0
 40
325.0
  0
CIRCLE
  5
548
100
AcDbEntity
  8
SOLDERMASK_PADS_TOP
100
AcDbCircle
 10
3810.0
 20
17145.0
 30
0.0
 40
325.0
  0
CIRCLE
  5
549
100
AcDbEntity
  8
SOLDERMASK_PADS_TOP
100
AcDbCircle
 10
3810.0
 20
15875.0
 30
0.0
 40
325.0
  0
CIRCLE
  5
54A
100
AcDbEntity
  8
SOLDERMASK_PADS_TOP
100
AcDbCircle
 10
5080.0
 20
19050.0
 30
0.0
 40
325.0
  0
CIRCLE
  5
54B
100
AcDbEntity
  8
SOLDERMASK_PADS_TOP
100
AcDbCircle
 10
5080.0
 20
17780.0
 30
0.0
 40
325.0
  0
CIRCLE
  5
54C
100
AcDbEntity
  8
SOLDERMASK_PADS_TOP
100
AcDbCircle
 10
5080.0
 20
16510.0
 30
0.0
 40
325.0
  0
CIRCLE
  5
54D
100
AcDbEntity
  8
SOLDERMASK_PADS_TOP
100
AcDbCircle
 10
6350.0
 20
18415.0
 30
0.0
 40
325.0
  0
CIRCLE
  5
54E
100
AcDbEntity
  8
SOLDERMASK_PADS_TOP
100
AcDbCircle
 10
6350.0
 20
17145.0
 30
0.0
 40
325.0
  0
CIRCLE
  5
54F
100
AcDbEntity
  8
SOLDERMASK_PADS_TOP
100
AcDbCircle
 10
6350.0
 20
15875.0
 30
0.0
 40
325.0
  0
CIRCLE
  5
550
100
AcDbEntity
  8
SOLDERMASK_PADS_TOP
100
AcDbCircle
 10
7620.0
 20
19050.0
 30
0.0
 40
325.0
  0
CIRCLE
  5
551
100
AcDbEntity
  8
SOLDERMASK_PADS_TOP
100
AcDbCircle
 10
7620.0
 20
17780.0
 30
0.0
 40
325.0
  0
CIRCLE
  5
552
100
AcDbEntity
  8
SOLDERMASK_PADS_TOP
100
AcDbCircle
 10
7620.0
 20
16510.0
 30
0.0
 40
325.0
  0
CIRCLE
  5
553
100
AcDbEntity
  8
SOLDERMASK_PADS_TOP
100
AcDbCircle
 10
8890.0
 20
18415.0
 30
0.0
 40
325.0
  0
CIRCLE
  5
554
100
AcDbEntity
  8
SOLDERMASK_PADS_TOP
100
AcDbCircle
 10
8890.0
 20
17145.0
 30
0.0
 40
325.0
  0
CIRCLE
  5
555
100
AcDbEntity
  8
SOLDERMASK_PADS_TOP
100
AcDbCircle
 10
8890.0
 20
15875.0
 30
0.0
 40
325.0
  0
CIRCLE
  5
556
100
AcDbEntity
  8
SOLDERMASK_PADS_TOP
100
AcDbCircle
 10
10160.0
 20
19050.0
 30
0.0
 40
325.0
  0
CIRCLE
  5
557
100
AcDbEntity
  8
SOLDERMASK_PADS_TOP
100
AcDbCircle
 10
10160.0
 20
17780.0
 30
0.0
 40
325.0
  0
CIRCLE
  5
558
100
AcDbEntity
  8
SOLDERMASK_PADS_TOP
100
AcDbCircle
 10
10160.0
 20
16510.0
 30
0.0
 40
325.0
  0
CIRCLE
  5
559
100
AcDbEntity
  8
SOLDERMASK_PADS_TOP
100
AcDbCircle
 10
11430.0
 20
18415.0
 30
0.0
 40
325.0
  0
CIRCLE
  5
55A
100
AcDbEntity
  8
SOLDERMASK_PADS_TOP
100
AcDbCircle
 10
11430.0
 20
17145.0
 30
0.0
 40
325.0
  0
CIRCLE
  5
55B
100
AcDbEntity
  8
SOLDERMASK_PADS_TOP
100
AcDbCircle
 10
-11430.0
 20
12065.0
 30
0.0
 40
325.0
  0
CIRCLE
  5
55C
100
AcDbEntity
  8
SOLDERMASK_PADS_TOP
100
AcDbCircle
 10
-11430.0
 20
10795.0
 30
0.0
 40
325.0
  0
CIRCLE
  5
55D
100
AcDbEntity
  8
SOLDERMASK_PADS_TOP
100
AcDbCircle
 10
-11430.0
 20
9525.0
 30
0.0
 40
325.0
  0
CIRCLE
  5
55E
100
AcDbEntity
  8
SOLDERMASK_PADS_TOP
100
AcDbCircle
 10
-11430.0
 20
8255.0
 30
0.0
 40
325.0
  0
CIRCLE
  5
55F
100
AcDbEntity
  8
SOLDERMASK_PADS_TOP
100
AcDbCircle
 10
-11430.0
 20
6985.0
 30
0.0
 40
325.0
  0
CIRCLE
  5
560
100
AcDbEntity
  8
SOLDERMASK_PADS_TOP
100
AcDbCircle
 10
-11430.0
 20
5715.0
 30
0.0
 40
325.0
  0
CIRCLE
  5
561
100
AcDbEntity
  8
SOLDERMASK_PADS_TOP
100
AcDbCircle
 10
-11430.0
 20
4445.0
 30
0.0
 40
325.0
  0
CIRCLE
  5
562
100
AcDbEntity
  8
SOLDERMASK_PADS_TOP
100
AcDbCircle
 10
-11430.0
 20
3175.0
 30
0.0
 40
325.0
  0
CIRCLE
  5
563
100
AcDbEntity
  8
SOLDERMASK_PADS_TOP
100
AcDbCircle
 10
-11430.0
 20
1905.0
 30
0.0
 40
325.0
  0
CIRCLE
  5
564
100
AcDbEntity
  8
SOLDERMASK_PADS_TOP
100
AcDbCircle
 10
-11430.0
 20
635.0
 30
0.0
 40
325.0
  0
CIRCLE
  5
565
100
AcDbEntity
  8
SOLDERMASK_PADS_TOP
100
AcDbCircle
 10
-11430.0
 20
-635.0
 30
0.0
 40
325.0
  0
CIRCLE
  5
566
100
AcDbEntity
  8
SOLDERMASK_PADS_TOP
100
AcDbCircle
 10
-11430.0
 20
-1905.0
 30
0.0
 40
325.0
  0
CIRCLE
  5
567
100
AcDbEntity
  8
SOLDERMASK_PADS_TOP
100
AcDbCircle
 10
-11430.0
 20
-3175.0
 30
0.0
 40
325.0
  0
CIRCLE
  5
568
100
AcDbEntity
  8
SOLDERMASK_PADS_TOP
100
AcDbCircle
 10
-11430.0
 20
-4445.0
 30
0.0
 40
325.0
  0
CIRCLE
  5
569
100
AcDbEntity
  8
SOLDERMASK_PADS_TOP
100
AcDbCircle
 10
-11430.0
 20
-5715.0
 30
0.0
 40
325.0
  0
CIRCLE
  5
56A
100
AcDbEntity
  8
SOLDERMASK_PADS_TOP
100
AcDbCircle
 10
-11430.0
 20
-6985.0
 30
0.0
 40
325.0
  0
CIRCLE
  5
56B
100
AcDbEntity
  8
SOLDERMASK_PADS_TOP
100
AcDbCircle
 10
-11430.0
 20
-8255.0
 30
0.0
 40
325.0
  0
CIRCLE
  5
56C
100
AcDbEntity
  8
SOLDERMASK_PADS_TOP
100
AcDbCircle
 10
-11430.0
 20
-9525.0
 30
0.0
 40
325.0
  0
CIRCLE
  5
56D
100
AcDbEntity
  8
SOLDERMASK_PADS_TOP
100
AcDbCircle
 10
-11430.0
 20
-10795.0
 30
0.0
 40
325.0
  0
CIRCLE
  5
56E
100
AcDbEntity
  8
SOLDERMASK_PADS_TOP
100
AcDbCircle
 10
-11430.0
 20
-12065.0
 30
0.0
 40
325.0
  0
CIRCLE
  5
56F
100
AcDbEntity
  8
SOLDERMASK_PADS_TOP
100
AcDbCircle
 10
-10160.0
 20
12700.0
 30
0.0
 40
325.0
  0
CIRCLE
  5
570
100
AcDbEntity
  8
SOLDERMASK_PADS_TOP
100
AcDbCircle
 10
-10160.0
 20
11430.0
 30
0.0
 40
325.0
  0
CIRCLE
  5
571
100
AcDbEntity
  8
SOLDERMASK_PADS_TOP
100
AcDbCircle
 10
-10160.0
 20
10160.0
 30
0.0
 40
325.0
  0
CIRCLE
  5
572
100
AcDbEntity
  8
SOLDERMASK_PADS_TOP
100
AcDbCircle
 10
-10160.0
 20
8890.0
 30
0.0
 40
325.0
  0
CIRCLE
  5
573
100
AcDbEntity
  8
SOLDERMASK_PADS_TOP
100
AcDbCircle
 10
-10160.0
 20
7620.0
 30
0.0
 40
325.0
  0
CIRCLE
  5
574
100
AcDbEntity
  8
SOLDERMASK_PADS_TOP
100
AcDbCircle
 10
-10160.0
 20
6350.0
 30
0.0
 40
325.0
  0
CIRCLE
  5
575
100
AcDbEntity
  8
SOLDERMASK_PADS_TOP
100
AcDbCircle
 10
-10160.0
 20
5080.0
 30
0.0
 40
325.0
  0
CIRCLE
  5
576
100
AcDbEntity
  8
SOLDERMASK_PADS_TOP
100
AcDbCircle
 10
-10160.0
 20
3810.0
 30
0.0
 40
325.0
  0
CIRCLE
  5
577
100
AcDbEntity
  8
SOLDERMASK_PADS_TOP
100
AcDbCircle
 10
-10160.0
 20
2540.0
 30
0.0
 40
325.0
  0
CIRCLE
  5
578
100
AcDbEntity
  8
SOLDERMASK_PADS_TOP
100
AcDbCircle
 10
-10160.0
 20
1270.0
 30
0.0
 40
325.0
  0
CIRCLE
  5
579
100
AcDbEntity
  8
SOLDERMASK_PADS_TOP
100
AcDbCircle
 10
-10160.0
 20
0.0
 30
0.0
 40
325.0
  0
CIRCLE
  5
57A
100
AcDbEntity
  8
SOLDERMASK_PADS_TOP
100
AcDbCircle
 10
-10160.0
 20
-1270.0
 30
0.0
 40
325.0
  0
CIRCLE
  5
57B
100
AcDbEntity
  8
SOLDERMASK_PADS_TOP
100
AcDbCircle
 10
-10160.0
 20
-2540.0
 30
0.0
 40
325.0
  0
CIRCLE
  5
57C
100
AcDbEntity
  8
SOLDERMASK_PADS_TOP
100
AcDbCircle
 10
-10160.0
 20
-3810.0
 30
0.0
 40
325.0
  0
CIRCLE
  5
57D
100
AcDbEntity
  8
SOLDERMASK_PADS_TOP
100
AcDbCircle
 10
-10160.0
 20
-5080.0
 30
0.0
 40
325.0
  0
CIRCLE
  5
57E
100
AcDbEntity
  8
SOLDERMASK_PADS_TOP
100
AcDbCircle
 10
-10160.0
 20
-6350.0
 30
0.0
 40
325.0
  0
CIRCLE
  5
57F
100
AcDbEntity
  8
SOLDERMASK_PADS_TOP
100
AcDbCircle
 10
-10160.0
 20
-7620.0
 30
0.0
 40
325.0
  0
CIRCLE
  5
580
100
AcDbEntity
  8
SOLDERMASK_PADS_TOP
100
AcDbCircle
 10
-10160.0
 20
-8890.0
 30
0.0
 40
325.0
  0
CIRCLE
  5
581
100
AcDbEntity
  8
SOLDERMASK_PADS_TOP
100
AcDbCircle
 10
-10160.0
 20
-10160.0
 30
0.0
 40
325.0
  0
CIRCLE
  5
582
100
AcDbEntity
  8
SOLDERMASK_PADS_TOP
100
AcDbCircle
 10
-10160.0
 20
-11430.0
 30
0.0
 40
325.0
  0
CIRCLE
  5
583
100
AcDbEntity
  8
SOLDERMASK_PADS_TOP
100
AcDbCircle
 10
-10160.0
 20
-12700.0
 30
0.0
 40
325.0
  0
CIRCLE
  5
584
100
AcDbEntity
  8
SOLDERMASK_PADS_TOP
100
AcDbCircle
 10
-8890.0
 20
13335.0
 30
0.0
 40
325.0
  0
CIRCLE
  5
585
100
AcDbEntity
  8
SOLDERMASK_PADS_TOP
100
AcDbCircle
 10
-8890.0
 20
12065.0
 30
0.0
 40
325.0
  0
CIRCLE
  5
586
100
AcDbEntity
  8
SOLDERMASK_PADS_TOP
100
AcDbCircle
 10
-8890.0
 20
10795.0
 30
0.0
 40
325.0
  0
CIRCLE
  5
587
100
AcDbEntity
  8
SOLDERMASK_PADS_TOP
100
AcDbCircle
 10
-8890.0
 20
9525.0
 30
0.0
 40
325.0
  0
CIRCLE
  5
588
100
AcDbEntity
  8
SOLDERMASK_PADS_TOP
100
AcDbCircle
 10
-8890.0
 20
8255.0
 30
0.0
 40
325.0
  0
CIRCLE
  5
589
100
AcDbEntity
  8
SOLDERMASK_PADS_TOP
100
AcDbCircle
 10
-8890.0
 20
6985.0
 30
0.0
 40
325.0
  0
CIRCLE
  5
58A
100
AcDbEntity
  8
SOLDERMASK_PADS_TOP
100
AcDbCircle
 10
-8890.0
 20
5715.0
 30
0.0
 40
325.0
  0
CIRCLE
  5
58B
100
AcDbEntity
  8
SOLDERMASK_PADS_TOP
100
AcDbCircle
 10
-8890.0
 20
4445.0
 30
0.0
 40
325.0
  0
CIRCLE
  5
58C
100
AcDbEntity
  8
SOLDERMASK_PADS_TOP
100
AcDbCircle
 10
-8890.0
 20
3175.0
 30
0.0
 40
325.0
  0
CIRCLE
  5
58D
100
AcDbEntity
  8
SOLDERMASK_PADS_TOP
100
AcDbCircle
 10
-8890.0
 20
1905.0
 30
0.0
 40
325.0
  0
CIRCLE
  5
58E
100
AcDbEntity
  8
SOLDERMASK_PADS_TOP
100
AcDbCircle
 10
-8890.0
 20
635.0
 30
0.0
 40
325.0
  0
CIRCLE
  5
58F
100
AcDbEntity
  8
SOLDERMASK_PADS_TOP
100
AcDbCircle
 10
-8890.0
 20
-635.0
 30
0.0
 40
325.0
  0
CIRCLE
  5
590
100
AcDbEntity
  8
SOLDERMASK_PADS_TOP
100
AcDbCircle
 10
-8890.0
 20
-1905.0
 30
0.0
 40
325.0
  0
CIRCLE
  5
591
100
AcDbEntity
  8
SOLDERMASK_PADS_TOP
100
AcDbCircle
 10
-8890.0
 20
-3175.0
 30
0.0
 40
325.0
  0
CIRCLE
  5
592
100
AcDbEntity
  8
SOLDERMASK_PADS_TOP
100
AcDbCircle
 10
-8890.0
 20
-4445.0
 30
0.0
 40
325.0
  0
CIRCLE
  5
593
100
AcDbEntity
  8
SOLDERMASK_PADS_TOP
100
AcDbCircle
 10
-8890.0
 20
-5715.0
 30
0.0
 40
325.0
  0
CIRCLE
  5
594
100
AcDbEntity
  8
SOLDERMASK_PADS_TOP
100
AcDbCircle
 10
-8890.0
 20
-6985.0
 30
0.0
 40
325.0
  0
CIRCLE
  5
595
100
AcDbEntity
  8
SOLDERMASK_PADS_TOP
100
AcDbCircle
 10
-8890.0
 20
-8255.0
 30
0.0
 40
325.0
  0
CIRCLE
  5
596
100
AcDbEntity
  8
SOLDERMASK_PADS_TOP
100
AcDbCircle
 10
-8890.0
 20
-9525.0
 30
0.0
 40
325.0
  0
CIRCLE
  5
597
100
AcDbEntity
  8
SOLDERMASK_PADS_TOP
100
AcDbCircle
 10
-8890.0
 20
-10795.0
 30
0.0
 40
325.0
  0
CIRCLE
  5
598
100
AcDbEntity
  8
SOLDERMASK_PADS_TOP
100
AcDbCircle
 10
-8890.0
 20
-12065.0
 30
0.0
 40
325.0
  0
CIRCLE
  5
599
100
AcDbEntity
  8
SOLDERMASK_PADS_TOP
100
AcDbCircle
 10
-8890.0
 20
-13335.0
 30
0.0
 40
325.0
  0
CIRCLE
  5
59A
100
AcDbEntity
  8
SOLDERMASK_PADS_TOP
100
AcDbCircle
 10
-7620.0
 20
12700.0
 30
0.0
 40
325.0
  0
CIRCLE
  5
59B
100
AcDbEntity
  8
SOLDERMASK_PADS_TOP
100
AcDbCircle
 10
-7620.0
 20
11430.0
 30
0.0
 40
325.0
  0
CIRCLE
  5
59C
100
AcDbEntity
  8
SOLDERMASK_PADS_TOP
100
AcDbCircle
 10
-7620.0
 20
10160.0
 30
0.0
 40
325.0
  0
CIRCLE
  5
59D
100
AcDbEntity
  8
SOLDERMASK_PADS_TOP
100
AcDbCircle
 10
-6350.0
 20
13335.0
 30
0.0
 40
325.0
  0
CIRCLE
  5
59E
100
AcDbEntity
  8
SOLDERMASK_PADS_TOP
100
AcDbCircle
 10
-6350.0
 20
12065.0
 30
0.0
 40
325.0
  0
CIRCLE
  5
59F
100
AcDbEntity
  8
SOLDERMASK_PADS_TOP
100
AcDbCircle
 10
-6350.0
 20
10795.0
 30
0.0
 40
325.0
  0
CIRCLE
  5
5A0
100
AcDbEntity
  8
SOLDERMASK_PADS_TOP
100
AcDbCircle
 10
-5080.0
 20
12700.0
 30
0.0
 40
325.0
  0
CIRCLE
  5
5A1
100
AcDbEntity
  8
SOLDERMASK_PADS_TOP
100
AcDbCircle
 10
-5080.0
 20
11430.0
 30
0.0
 40
325.0
  0
CIRCLE
  5
5A2
100
AcDbEntity
  8
SOLDERMASK_PADS_TOP
100
AcDbCircle
 10
-5080.0
 20
10160.0
 30
0.0
 40
325.0
  0
CIRCLE
  5
5A3
100
AcDbEntity
  8
SOLDERMASK_PADS_TOP
100
AcDbCircle
 10
-3810.0
 20
13335.0
 30
0.0
 40
325.0
  0
CIRCLE
  5
5A4
100
AcDbEntity
  8
SOLDERMASK_PADS_TOP
100
AcDbCircle
 10
-3810.0
 20
12065.0
 30
0.0
 40
325.0
  0
CIRCLE
  5
5A5
100
AcDbEntity
  8
SOLDERMASK_PADS_TOP
100
AcDbCircle
 10
-3810.0
 20
10795.0
 30
0.0
 40
325.0
  0
CIRCLE
  5
5A6
100
AcDbEntity
  8
SOLDERMASK_PADS_TOP
100
AcDbCircle
 10
-2540.0
 20
12700.0
 30
0.0
 40
325.0
  0
CIRCLE
  5
5A7
100
AcDbEntity
  8
SOLDERMASK_PADS_TOP
100
AcDbCircle
 10
-2540.0
 20
11430.0
 30
0.0
 40
325.0
  0
CIRCLE
  5
5A8
100
AcDbEntity
  8
SOLDERMASK_PADS_TOP
100
AcDbCircle
 10
-2540.0
 20
10160.0
 30
0.0
 40
325.0
  0
CIRCLE
  5
5A9
100
AcDbEntity
  8
SOLDERMASK_PADS_TOP
100
AcDbCircle
 10
-1270.0
 20
13335.0
 30
0.0
 40
325.0
  0
CIRCLE
  5
5AA
100
AcDbEntity
  8
SOLDERMASK_PADS_TOP
100
AcDbCircle
 10
-1270.0
 20
12065.0
 30
0.0
 40
325.0
  0
CIRCLE
  5
5AB
100
AcDbEntity
  8
SOLDERMASK_PADS_TOP
100
AcDbCircle
 10
-1270.0
 20
10795.0
 30
0.0
 40
325.0
  0
CIRCLE
  5
5AC
100
AcDbEntity
  8
SOLDERMASK_PADS_TOP
100
AcDbCircle
 10
0.0
 20
12700.0
 30
0.0
 40
325.0
  0
CIRCLE
  5
5AD
100
AcDbEntity
  8
SOLDERMASK_PADS_TOP
100
AcDbCircle
 10
0.0
 20
11430.0
 30
0.0
 40
325.0
  0
CIRCLE
  5
5AE
100
AcDbEntity
  8
SOLDERMASK_PADS_TOP
100
AcDbCircle
 10
0.0
 20
10160.0
 30
0.0
 40
325.0
  0
CIRCLE
  5
5AF
100
AcDbEntity
  8
SOLDERMASK_PADS_TOP
100
AcDbCircle
 10
1270.0
 20
13335.0
 30
0.0
 40
325.0
  0
CIRCLE
  5
5B0
100
AcDbEntity
  8
SOLDERMASK_PADS_TOP
100
AcDbCircle
 10
1270.0
 20
12065.0
 30
0.0
 40
325.0
  0
CIRCLE
  5
5B1
100
AcDbEntity
  8
SOLDERMASK_PADS_TOP
100
AcDbCircle
 10
1270.0
 20
10795.0
 30
0.0
 40
325.0
  0
CIRCLE
  5
5B2
100
AcDbEntity
  8
SOLDERMASK_PADS_TOP
100
AcDbCircle
 10
2540.0
 20
12700.0
 30
0.0
 40
325.0
  0
CIRCLE
  5
5B3
100
AcDbEntity
  8
SOLDERMASK_PADS_TOP
100
AcDbCircle
 10
2540.0
 20
11430.0
 30
0.0
 40
325.0
  0
CIRCLE
  5
5B4
100
AcDbEntity
  8
SOLDERMASK_PADS_TOP
100
AcDbCircle
 10
2540.0
 20
10160.0
 30
0.0
 40
325.0
  0
CIRCLE
  5
5B5
100
AcDbEntity
  8
SOLDERMASK_PADS_TOP
100
AcDbCircle
 10
5080.0
 20
12700.0
 30
0.0
 40
325.0
  0
CIRCLE
  5
5B6
100
AcDbEntity
  8
SOLDERMASK_PADS_TOP
100
AcDbCircle
 10
5080.0
 20
11430.0
 30
0.0
 40
325.0
  0
CIRCLE
  5
5B7
100
AcDbEntity
  8
SOLDERMASK_PADS_TOP
100
AcDbCircle
 10
5080.0
 20
10160.0
 30
0.0
 40
325.0
  0
CIRCLE
  5
5B8
100
AcDbEntity
  8
SOLDERMASK_PADS_TOP
100
AcDbCircle
 10
6350.0
 20
13335.0
 30
0.0
 40
325.0
  0
CIRCLE
  5
5B9
100
AcDbEntity
  8
SOLDERMASK_PADS_TOP
100
AcDbCircle
 10
6350.0
 20
12065.0
 30
0.0
 40
325.0
  0
CIRCLE
  5
5BA
100
AcDbEntity
  8
SOLDERMASK_PADS_TOP
100
AcDbCircle
 10
6350.0
 20
10795.0
 30
0.0
 40
325.0
  0
CIRCLE
  5
5BB
100
AcDbEntity
  8
SOLDERMASK_PADS_TOP
100
AcDbCircle
 10
7620.0
 20
12700.0
 30
0.0
 40
325.0
  0
CIRCLE
  5
5BC
100
AcDbEntity
  8
SOLDERMASK_PADS_TOP
100
AcDbCircle
 10
7620.0
 20
11430.0
 30
0.0
 40
325.0
  0
CIRCLE
  5
5BD
100
AcDbEntity
  8
SOLDERMASK_PADS_TOP
100
AcDbCircle
 10
7620.0
 20
10160.0
 30
0.0
 40
325.0
  0
CIRCLE
  5
5BE
100
AcDbEntity
  8
SOLDERMASK_PADS_TOP
100
AcDbCircle
 10
8890.0
 20
13335.0
 30
0.0
 40
325.0
  0
CIRCLE
  5
5BF
100
AcDbEntity
  8
SOLDERMASK_PADS_TOP
100
AcDbCircle
 10
8890.0
 20
12065.0
 30
0.0
 40
325.0
  0
CIRCLE
  5
5C0
100
AcDbEntity
  8
SOLDERMASK_PADS_TOP
100
AcDbCircle
 10
8890.0
 20
10795.0
 30
0.0
 40
325.0
  0
CIRCLE
  5
5C1
100
AcDbEntity
  8
SOLDERMASK_PADS_TOP
100
AcDbCircle
 10
8890.0
 20
8255.0
 30
0.0
 40
325.0
  0
CIRCLE
  5
5C2
100
AcDbEntity
  8
SOLDERMASK_PADS_TOP
100
AcDbCircle
 10
8890.0
 20
6985.0
 30
0.0
 40
325.0
  0
CIRCLE
  5
5C3
100
AcDbEntity
  8
SOLDERMASK_PADS_TOP
100
AcDbCircle
 10
8890.0
 20
5715.0
 30
0.0
 40
325.0
  0
CIRCLE
  5
5C4
100
AcDbEntity
  8
SOLDERMASK_PADS_TOP
100
AcDbCircle
 10
8890.0
 20
4445.0
 30
0.0
 40
325.0
  0
CIRCLE
  5
5C5
100
AcDbEntity
  8
SOLDERMASK_PADS_TOP
100
AcDbCircle
 10
8890.0
 20
3175.0
 30
0.0
 40
325.0
  0
CIRCLE
  5
5C6
100
AcDbEntity
  8
SOLDERMASK_PADS_TOP
100
AcDbCircle
 10
8890.0
 20
1905.0
 30
0.0
 40
325.0
  0
CIRCLE
  5
5C7
100
AcDbEntity
  8
SOLDERMASK_PADS_TOP
100
AcDbCircle
 10
8890.0
 20
635.0
 30
0.0
 40
325.0
  0
CIRCLE
  5
5C8
100
AcDbEntity
  8
SOLDERMASK_PADS_TOP
100
AcDbCircle
 10
8890.0
 20
-635.0
 30
0.0
 40
325.0
  0
CIRCLE
  5
5C9
100
AcDbEntity
  8
SOLDERMASK_PADS_TOP
100
AcDbCircle
 10
8890.0
 20
-1905.0
 30
0.0
 40
325.0
  0
CIRCLE
  5
5CA
100
AcDbEntity
  8
SOLDERMASK_PADS_TOP
100
AcDbCircle
 10
8890.0
 20
-3175.0
 30
0.0
 40
325.0
  0
CIRCLE
  5
5CB
100
AcDbEntity
  8
SOLDERMASK_PADS_TOP
100
AcDbCircle
 10
8890.0
 20
-4445.0
 30
0.0
 40
325.0
  0
CIRCLE
  5
5CC
100
AcDbEntity
  8
SOLDERMASK_PADS_TOP
100
AcDbCircle
 10
8890.0
 20
-5715.0
 30
0.0
 40
325.0
  0
CIRCLE
  5
5CD
100
AcDbEntity
  8
SOLDERMASK_PADS_TOP
100
AcDbCircle
 10
8890.0
 20
-6985.0
 30
0.0
 40
325.0
  0
CIRCLE
  5
5CE
100
AcDbEntity
  8
SOLDERMASK_PADS_TOP
100
AcDbCircle
 10
8890.0
 20
-8255.0
 30
0.0
 40
325.0
  0
CIRCLE
  5
5CF
100
AcDbEntity
  8
SOLDERMASK_PADS_TOP
100
AcDbCircle
 10
8890.0
 20
-9525.0
 30
0.0
 40
325.0
  0
CIRCLE
  5
5D0
100
AcDbEntity
  8
SOLDERMASK_PADS_TOP
100
AcDbCircle
 10
8890.0
 20
-10795.0
 30
0.0
 40
325.0
  0
CIRCLE
  5
5D1
100
AcDbEntity
  8
SOLDERMASK_PADS_TOP
100
AcDbCircle
 10
8890.0
 20
-12065.0
 30
0.0
 40
325.0
  0
CIRCLE
  5
5D2
100
AcDbEntity
  8
SOLDERMASK_PADS_TOP
100
AcDbCircle
 10
8890.0
 20
-13335.0
 30
0.0
 40
325.0
  0
CIRCLE
  5
5D3
100
AcDbEntity
  8
SOLDERMASK_PADS_TOP
100
AcDbCircle
 10
10160.0
 20
12700.0
 30
0.0
 40
325.0
  0
CIRCLE
  5
5D4
100
AcDbEntity
  8
SOLDERMASK_PADS_TOP
100
AcDbCircle
 10
10160.0
 20
11430.0
 30
0.0
 40
325.0
  0
CIRCLE
  5
5D5
100
AcDbEntity
  8
SOLDERMASK_PADS_TOP
100
AcDbCircle
 10
10160.0
 20
10160.0
 30
0.0
 40
325.0
  0
CIRCLE
  5
5D6
100
AcDbEntity
  8
SOLDERMASK_PADS_TOP
100
AcDbCircle
 10
10160.0
 20
8890.0
 30
0.0
 40
325.0
  0
CIRCLE
  5
5D7
100
AcDbEntity
  8
SOLDERMASK_PADS_TOP
100
AcDbCircle
 10
10160.0
 20
7620.0
 30
0.0
 40
325.0
  0
CIRCLE
  5
5D8
100
AcDbEntity
  8
SOLDERMASK_PADS_TOP
100
AcDbCircle
 10
10160.0
 20
6350.0
 30
0.0
 40
325.0
  0
CIRCLE
  5
5D9
100
AcDbEntity
  8
SOLDERMASK_PADS_TOP
100
AcDbCircle
 10
10160.0
 20
5080.0
 30
0.0
 40
325.0
  0
CIRCLE
  5
5DA
100
AcDbEntity
  8
SOLDERMASK_PADS_TOP
100
AcDbCircle
 10
10160.0
 20
3810.0
 30
0.0
 40
325.0
  0
CIRCLE
  5
5DB
100
AcDbEntity
  8
SOLDERMASK_PADS_TOP
100
AcDbCircle
 10
10160.0
 20
2540.0
 30
0.0
 40
325.0
  0
CIRCLE
  5
5DC
100
AcDbEntity
  8
SOLDERMASK_PADS_TOP
100
AcDbCircle
 10
10160.0
 20
1270.0
 30
0.0
 40
325.0
  0
CIRCLE
  5
5DD
100
AcDbEntity
  8
SOLDERMASK_PADS_TOP
100
AcDbCircle
 10
10160.0
 20
0.0
 30
0.0
 40
325.0
  0
CIRCLE
  5
5DE
100
AcDbEntity
  8
SOLDERMASK_PADS_TOP
100
AcDbCircle
 10
10160.0
 20
-1270.0
 30
0.0
 40
325.0
  0
CIRCLE
  5
5DF
100
AcDbEntity
  8
SOLDERMASK_PADS_TOP
100
AcDbCircle
 10
10160.0
 20
-2540.0
 30
0.0
 40
325.0
  0
CIRCLE
  5
5E0
100
AcDbEntity
  8
SOLDERMASK_PADS_TOP
100
AcDbCircle
 10
10160.0
 20
-3810.0
 30
0.0
 40
325.0
  0
CIRCLE
  5
5E1
100
AcDbEntity
  8
SOLDERMASK_PADS_TOP
100
AcDbCircle
 10
10160.0
 20
-5080.0
 30
0.0
 40
325.0
  0
CIRCLE
  5
5E2
100
AcDbEntity
  8
SOLDERMASK_PADS_TOP
100
AcDbCircle
 10
10160.0
 20
-6350.0
 30
0.0
 40
325.0
  0
CIRCLE
  5
5E3
100
AcDbEntity
  8
SOLDERMASK_PADS_TOP
100
AcDbCircle
 10
10160.0
 20
-7620.0
 30
0.0
 40
325.0
  0
CIRCLE
  5
5E4
100
AcDbEntity
  8
SOLDERMASK_PADS_TOP
100
AcDbCircle
 10
10160.0
 20
-8890.0
 30
0.0
 40
325.0
  0
CIRCLE
  5
5E5
100
AcDbEntity
  8
SOLDERMASK_PADS_TOP
100
AcDbCircle
 10
10160.0
 20
-10160.0
 30
0.0
 40
325.0
  0
CIRCLE
  5
5E6
100
AcDbEntity
  8
SOLDERMASK_PADS_TOP
100
AcDbCircle
 10
10160.0
 20
-11430.0
 30
0.0
 40
325.0
  0
CIRCLE
  5
5E7
100
AcDbEntity
  8
SOLDERMASK_PADS_TOP
100
AcDbCircle
 10
10160.0
 20
-12700.0
 30
0.0
 40
325.0
  0
CIRCLE
  5
5E8
100
AcDbEntity
  8
SOLDERMASK_PADS_TOP
100
AcDbCircle
 10
11430.0
 20
12065.0
 30
0.0
 40
325.0
  0
CIRCLE
  5
5E9
100
AcDbEntity
  8
SOLDERMASK_PADS_TOP
100
AcDbCircle
 10
11430.0
 20
10795.0
 30
0.0
 40
325.0
  0
CIRCLE
  5
5EA
100
AcDbEntity
  8
SOLDERMASK_PADS_TOP
100
AcDbCircle
 10
11430.0
 20
9525.0
 30
0.0
 40
325.0
  0
CIRCLE
  5
5EB
100
AcDbEntity
  8
SOLDERMASK_PADS_TOP
100
AcDbCircle
 10
11430.0
 20
8255.0
 30
0.0
 40
325.0
  0
CIRCLE
  5
5EC
100
AcDbEntity
  8
SOLDERMASK_PADS_TOP
100
AcDbCircle
 10
11430.0
 20
6985.0
 30
0.0
 40
325.0
  0
CIRCLE
  5
5ED
100
AcDbEntity
  8
SOLDERMASK_PADS_TOP
100
AcDbCircle
 10
11430.0
 20
5715.0
 30
0.0
 40
325.0
  0
CIRCLE
  5
5EE
100
AcDbEntity
  8
SOLDERMASK_PADS_TOP
100
AcDbCircle
 10
11430.0
 20
4445.0
 30
0.0
 40
325.0
  0
CIRCLE
  5
5EF
100
AcDbEntity
  8
SOLDERMASK_PADS_TOP
100
AcDbCircle
 10
11430.0
 20
3175.0
 30
0.0
 40
325.0
  0
CIRCLE
  5
5F0
100
AcDbEntity
  8
SOLDERMASK_PADS_TOP
100
AcDbCircle
 10
11430.0
 20
1905.0
 30
0.0
 40
325.0
  0
CIRCLE
  5
5F1
100
AcDbEntity
  8
SOLDERMASK_PADS_TOP
100
AcDbCircle
 10
11430.0
 20
635.0
 30
0.0
 40
325.0
  0
CIRCLE
  5
5F2
100
AcDbEntity
  8
SOLDERMASK_PADS_TOP
100
AcDbCircle
 10
11430.0
 20
-635.0
 30
0.0
 40
325.0
  0
CIRCLE
  5
5F3
100
AcDbEntity
  8
SOLDERMASK_PADS_TOP
100
AcDbCircle
 10
11430.0
 20
-1905.0
 30
0.0
 40
325.0
  0
CIRCLE
  5
5F4
100
AcDbEntity
  8
SOLDERMASK_PADS_TOP
100
AcDbCircle
 10
11430.0
 20
-3175.0
 30
0.0
 40
325.0
  0
CIRCLE
  5
5F5
100
AcDbEntity
  8
SOLDERMASK_PADS_TOP
100
AcDbCircle
 10
11430.0
 20
-4445.0
 30
0.0
 40
325.0
  0
CIRCLE
  5
5F6
100
AcDbEntity
  8
SOLDERMASK_PADS_TOP
100
AcDbCircle
 10
11430.0
 20
-5715.0
 30
0.0
 40
325.0
  0
CIRCLE
  5
5F7
100
AcDbEntity
  8
SOLDERMASK_PADS_TOP
100
AcDbCircle
 10
11430.0
 20
-6985.0
 30
0.0
 40
325.0
  0
CIRCLE
  5
5F8
100
AcDbEntity
  8
SOLDERMASK_PADS_TOP
100
AcDbCircle
 10
11430.0
 20
-8255.0
 30
0.0
 40
325.0
  0
CIRCLE
  5
5F9
100
AcDbEntity
  8
SOLDERMASK_PADS_TOP
100
AcDbCircle
 10
11430.0
 20
-9525.0
 30
0.0
 40
325.0
  0
CIRCLE
  5
5FA
100
AcDbEntity
  8
SOLDERMASK_PADS_TOP
100
AcDbCircle
 10
11430.0
 20
-10795.0
 30
0.0
 40
325.0
  0
CIRCLE
  5
5FB
100
AcDbEntity
  8
SOLDERMASK_PADS_TOP
100
AcDbCircle
 10
11430.0
 20
-12065.0
 30
0.0
 40
325.0
  0
CIRCLE
  5
5FC
100
AcDbEntity
  8
SOLDERMASK_PADS_TOP
100
AcDbCircle
 10
3810.0
 20
13335.0
 30
0.0
 40
325.0
  0
CIRCLE
  5
5FD
100
AcDbEntity
  8
SOLDERMASK_PADS_TOP
100
AcDbCircle
 10
3810.0
 20
12065.0
 30
0.0
 40
325.0
  0
CIRCLE
  5
5FE
100
AcDbEntity
  8
SOLDERMASK_PADS_TOP
100
AcDbCircle
 10
3810.0
 20
10795.0
 30
0.0
 40
325.0
  0
CIRCLE
  5
5FF
100
AcDbEntity
  8
SOLDERMASK_PADS_TOP
100
AcDbCircle
 10
-7620.0
 20
-10160.0
 30
0.0
 40
325.0
  0
CIRCLE
  5
600
100
AcDbEntity
  8
SOLDERMASK_PADS_TOP
100
AcDbCircle
 10
-7620.0
 20
-11430.0
 30
0.0
 40
325.0
  0
CIRCLE
  5
601
100
AcDbEntity
  8
SOLDERMASK_PADS_TOP
100
AcDbCircle
 10
-7620.0
 20
-12700.0
 30
0.0
 40
325.0
  0
CIRCLE
  5
602
100
AcDbEntity
  8
SOLDERMASK_PADS_TOP
100
AcDbCircle
 10
7620.0
 20
-10160.0
 30
0.0
 40
325.0
  0
CIRCLE
  5
603
100
AcDbEntity
  8
SOLDERMASK_PADS_TOP
100
AcDbCircle
 10
7620.0
 20
-11430.0
 30
0.0
 40
325.0
  0
CIRCLE
  5
604
100
AcDbEntity
  8
SOLDERMASK_PADS_TOP
100
AcDbCircle
 10
7620.0
 20
-12700.0
 30
0.0
 40
325.0
  0
CIRCLE
  5
605
100
AcDbEntity
  8
SOLDERMASK_PADS_TOP
100
AcDbCircle
 10
6350.0
 20
-10795.0
 30
0.0
 40
325.0
  0
CIRCLE
  5
606
100
AcDbEntity
  8
SOLDERMASK_PADS_TOP
100
AcDbCircle
 10
6350.0
 20
-12065.0
 30
0.0
 40
325.0
  0
CIRCLE
  5
607
100
AcDbEntity
  8
SOLDERMASK_PADS_TOP
100
AcDbCircle
 10
6350.0
 20
-13335.0
 30
0.0
 40
325.0
  0
CIRCLE
  5
608
100
AcDbEntity
  8
SOLDERMASK_PADS_TOP
100
AcDbCircle
 10
5080.0
 20
-10160.0
 30
0.0
 40
325.0
  0
CIRCLE
  5
609
100
AcDbEntity
  8
SOLDERMASK_PADS_TOP
100
AcDbCircle
 10
5080.0
 20
-11430.0
 30
0.0
 40
325.0
  0
CIRCLE
  5
60A
100
AcDbEntity
  8
SOLDERMASK_PADS_TOP
100
AcDbCircle
 10
5080.0
 20
-12700.0
 30
0.0
 40
325.0
  0
CIRCLE
  5
60B
100
AcDbEntity
  8
SOLDERMASK_PADS_TOP
100
AcDbCircle
 10
3810.0
 20
-10795.0
 30
0.0
 40
325.0
  0
CIRCLE
  5
60C
100
AcDbEntity
  8
SOLDERMASK_PADS_TOP
100
AcDbCircle
 10
3810.0
 20
-12065.0
 30
0.0
 40
325.0
  0
CIRCLE
  5
60D
100
AcDbEntity
  8
SOLDERMASK_PADS_TOP
100
AcDbCircle
 10
3810.0
 20
-13335.0
 30
0.0
 40
325.0
  0
CIRCLE
  5
60E
100
AcDbEntity
  8
SOLDERMASK_PADS_TOP
100
AcDbCircle
 10
2540.0
 20
-10160.0
 30
0.0
 40
325.0
  0
CIRCLE
  5
60F
100
AcDbEntity
  8
SOLDERMASK_PADS_TOP
100
AcDbCircle
 10
2540.0
 20
-11430.0
 30
0.0
 40
325.0
  0
CIRCLE
  5
610
100
AcDbEntity
  8
SOLDERMASK_PADS_TOP
100
AcDbCircle
 10
2540.0
 20
-12700.0
 30
0.0
 40
325.0
  0
CIRCLE
  5
611
100
AcDbEntity
  8
SOLDERMASK_PADS_TOP
100
AcDbCircle
 10
1270.0
 20
-10795.0
 30
0.0
 40
325.0
  0
CIRCLE
  5
612
100
AcDbEntity
  8
SOLDERMASK_PADS_TOP
100
AcDbCircle
 10
1270.0
 20
-12065.0
 30
0.0
 40
325.0
  0
CIRCLE
  5
613
100
AcDbEntity
  8
SOLDERMASK_PADS_TOP
100
AcDbCircle
 10
1270.0
 20
-13335.0
 30
0.0
 40
325.0
  0
CIRCLE
  5
614
100
AcDbEntity
  8
SOLDERMASK_PADS_TOP
100
AcDbCircle
 10
0.0
 20
-10160.0
 30
0.0
 40
325.0
  0
CIRCLE
  5
615
100
AcDbEntity
  8
SOLDERMASK_PADS_TOP
100
AcDbCircle
 10
0.0
 20
-11430.0
 30
0.0
 40
325.0
  0
CIRCLE
  5
616
100
AcDbEntity
  8
SOLDERMASK_PADS_TOP
100
AcDbCircle
 10
0.0
 20
-12700.0
 30
0.0
 40
325.0
  0
CIRCLE
  5
617
100
AcDbEntity
  8
SOLDERMASK_PADS_TOP
100
AcDbCircle
 10
-1270.0
 20
-10795.0
 30
0.0
 40
325.0
  0
CIRCLE
  5
618
100
AcDbEntity
  8
SOLDERMASK_PADS_TOP
100
AcDbCircle
 10
-1270.0
 20
-12065.0
 30
0.0
 40
325.0
  0
CIRCLE
  5
619
100
AcDbEntity
  8
SOLDERMASK_PADS_TOP
100
AcDbCircle
 10
-1270.0
 20
-13335.0
 30
0.0
 40
325.0
  0
CIRCLE
  5
61A
100
AcDbEntity
  8
SOLDERMASK_PADS_TOP
100
AcDbCircle
 10
-2540.0
 20
-10160.0
 30
0.0
 40
325.0
  0
CIRCLE
  5
61B
100
AcDbEntity
  8
SOLDERMASK_PADS_TOP
100
AcDbCircle
 10
-2540.0
 20
-11430.0
 30
0.0
 40
325.0
  0
CIRCLE
  5
61C
100
AcDbEntity
  8
SOLDERMASK_PADS_TOP
100
AcDbCircle
 10
-2540.0
 20
-12700.0
 30
0.0
 40
325.0
  0
CIRCLE
  5
61D
100
AcDbEntity
  8
SOLDERMASK_PADS_TOP
100
AcDbCircle
 10
-3810.0
 20
-10795.0
 30
0.0
 40
325.0
  0
CIRCLE
  5
61E
100
AcDbEntity
  8
SOLDERMASK_PADS_TOP
100
AcDbCircle
 10
-3810.0
 20
-12065.0
 30
0.0
 40
325.0
  0
CIRCLE
  5
61F
100
AcDbEntity
  8
SOLDERMASK_PADS_TOP
100
AcDbCircle
 10
-3810.0
 20
-13335.0
 30
0.0
 40
325.0
  0
CIRCLE
  5
620
100
AcDbEntity
  8
SOLDERMASK_PADS_TOP
100
AcDbCircle
 10
-5080.0
 20
-10160.0
 30
0.0
 40
325.0
  0
CIRCLE
  5
621
100
AcDbEntity
  8
SOLDERMASK_PADS_TOP
100
AcDbCircle
 10
-5080.0
 20
-11430.0
 30
0.0
 40
325.0
  0
CIRCLE
  5
622
100
AcDbEntity
  8
SOLDERMASK_PADS_TOP
100
AcDbCircle
 10
-5080.0
 20
-12700.0
 30
0.0
 40
325.0
  0
CIRCLE
  5
623
100
AcDbEntity
  8
SOLDERMASK_PADS_TOP
100
AcDbCircle
 10
-6350.0
 20
-10795.0
 30
0.0
 40
325.0
  0
CIRCLE
  5
624
100
AcDbEntity
  8
SOLDERMASK_PADS_TOP
100
AcDbCircle
 10
-6350.0
 20
-12065.0
 30
0.0
 40
325.0
  0
CIRCLE
  5
625
100
AcDbEntity
  8
SOLDERMASK_PADS_TOP
100
AcDbCircle
 10
-6350.0
 20
-13335.0
 30
0.0
 40
325.0
  0
CIRCLE
  5
626
100
AcDbEntity
  8
SOLDERMASK_PADS_TOP
100
AcDbCircle
 10
-6350.0
 20
-15875.0
 30
0.0
 40
325.0
  0
CIRCLE
  5
627
100
AcDbEntity
  8
SOLDERMASK_PADS_TOP
100
AcDbCircle
 10
-6350.0
 20
-17145.0
 30
0.0
 40
325.0
  0
CIRCLE
  5
628
100
AcDbEntity
  8
SOLDERMASK_PADS_TOP
100
AcDbCircle
 10
-6350.0
 20
-18415.0
 30
0.0
 40
325.0
  0
CIRCLE
  5
629
100
AcDbEntity
  8
SOLDERMASK_PADS_TOP
100
AcDbCircle
 10
-7620.0
 20
-16510.0
 30
0.0
 40
325.0
  0
CIRCLE
  5
62A
100
AcDbEntity
  8
SOLDERMASK_PADS_TOP
100
AcDbCircle
 10
-7620.0
 20
-17780.0
 30
0.0
 40
325.0
  0
CIRCLE
  5
62B
100
AcDbEntity
  8
SOLDERMASK_PADS_TOP
100
AcDbCircle
 10
-7620.0
 20
-19050.0
 30
0.0
 40
325.0
  0
CIRCLE
  5
62C
100
AcDbEntity
  8
SOLDERMASK_PADS_TOP
100
AcDbCircle
 10
-8890.0
 20
-15875.0
 30
0.0
 40
325.0
  0
CIRCLE
  5
62D
100
AcDbEntity
  8
SOLDERMASK_PADS_TOP
100
AcDbCircle
 10
-8890.0
 20
-17145.0
 30
0.0
 40
325.0
  0
CIRCLE
  5
62E
100
AcDbEntity
  8
SOLDERMASK_PADS_TOP
100
AcDbCircle
 10
-8890.0
 20
-18415.0
 30
0.0
 40
325.0
  0
CIRCLE
  5
62F
100
AcDbEntity
  8
SOLDERMASK_PADS_TOP
100
AcDbCircle
 10
-10160.0
 20
-16510.0
 30
0.0
 40
325.0
  0
CIRCLE
  5
630
100
AcDbEntity
  8
SOLDERMASK_PADS_TOP
100
AcDbCircle
 10
-10160.0
 20
-17780.0
 30
0.0
 40
325.0
  0
CIRCLE
  5
631
100
AcDbEntity
  8
SOLDERMASK_PADS_TOP
100
AcDbCircle
 10
-10160.0
 20
-19050.0
 30
0.0
 40
325.0
  0
CIRCLE
  5
632
100
AcDbEntity
  8
SOLDERMASK_PADS_TOP
100
AcDbCircle
 10
-11430.0
 20
-17145.0
 30
0.0
 40
325.0
  0
CIRCLE
  5
633
100
AcDbEntity
  8
SOLDERMASK_PADS_TOP
100
AcDbCircle
 10
-11430.0
 20
-18415.0
 30
0.0
 40
325.0
  0
CIRCLE
  5
634
100
AcDbEntity
  8
SOLDERMASK_PADS_TOP
100
AcDbCircle
 10
-5080.0
 20
-16510.0
 30
0.0
 40
325.0
  0
CIRCLE
  5
635
100
AcDbEntity
  8
SOLDERMASK_PADS_TOP
100
AcDbCircle
 10
-5080.0
 20
-17780.0
 30
0.0
 40
325.0
  0
CIRCLE
  5
636
100
AcDbEntity
  8
SOLDERMASK_PADS_TOP
100
AcDbCircle
 10
-5080.0
 20
-19050.0
 30
0.0
 40
325.0
  0
CIRCLE
  5
637
100
AcDbEntity
  8
SOLDERMASK_PADS_TOP
100
AcDbCircle
 10
-3810.0
 20
-15875.0
 30
0.0
 40
325.0
  0
CIRCLE
  5
638
100
AcDbEntity
  8
SOLDERMASK_PADS_TOP
100
AcDbCircle
 10
-3810.0
 20
-17145.0
 30
0.0
 40
325.0
  0
CIRCLE
  5
639
100
AcDbEntity
  8
SOLDERMASK_PADS_TOP
100
AcDbCircle
 10
-3810.0
 20
-18415.0
 30
0.0
 40
325.0
  0
CIRCLE
  5
63A
100
AcDbEntity
  8
SOLDERMASK_PADS_TOP
100
AcDbCircle
 10
-2540.0
 20
-16510.0
 30
0.0
 40
325.0
  0
CIRCLE
  5
63B
100
AcDbEntity
  8
SOLDERMASK_PADS_TOP
100
AcDbCircle
 10
-2540.0
 20
-17780.0
 30
0.0
 40
325.0
  0
CIRCLE
  5
63C
100
AcDbEntity
  8
SOLDERMASK_PADS_TOP
100
AcDbCircle
 10
-2540.0
 20
-19050.0
 30
0.0
 40
325.0
  0
CIRCLE
  5
63D
100
AcDbEntity
  8
SOLDERMASK_PADS_TOP
100
AcDbCircle
 10
-1270.0
 20
-15875.0
 30
0.0
 40
325.0
  0
CIRCLE
  5
63E
100
AcDbEntity
  8
SOLDERMASK_PADS_TOP
100
AcDbCircle
 10
-1270.0
 20
-17145.0
 30
0.0
 40
325.0
  0
CIRCLE
  5
63F
100
AcDbEntity
  8
SOLDERMASK_PADS_TOP
100
AcDbCircle
 10
-1270.0
 20
-18415.0
 30
0.0
 40
325.0
  0
CIRCLE
  5
640
100
AcDbEntity
  8
SOLDERMASK_PADS_TOP
100
AcDbCircle
 10
0.0
 20
-16510.0
 30
0.0
 40
325.0
  0
CIRCLE
  5
641
100
AcDbEntity
  8
SOLDERMASK_PADS_TOP
100
AcDbCircle
 10
0.0
 20
-17780.0
 30
0.0
 40
325.0
  0
CIRCLE
  5
642
100
AcDbEntity
  8
SOLDERMASK_PADS_TOP
100
AcDbCircle
 10
0.0
 20
-19050.0
 30
0.0
 40
325.0
  0
CIRCLE
  5
643
100
AcDbEntity
  8
SOLDERMASK_PADS_TOP
100
AcDbCircle
 10
1270.0
 20
-15875.0
 30
0.0
 40
325.0
  0
CIRCLE
  5
644
100
AcDbEntity
  8
SOLDERMASK_PADS_TOP
100
AcDbCircle
 10
1270.0
 20
-17145.0
 30
0.0
 40
325.0
  0
CIRCLE
  5
645
100
AcDbEntity
  8
SOLDERMASK_PADS_TOP
100
AcDbCircle
 10
1270.0
 20
-18415.0
 30
0.0
 40
325.0
  0
CIRCLE
  5
646
100
AcDbEntity
  8
SOLDERMASK_PADS_TOP
100
AcDbCircle
 10
2540.0
 20
-16510.0
 30
0.0
 40
325.0
  0
CIRCLE
  5
647
100
AcDbEntity
  8
SOLDERMASK_PADS_TOP
100
AcDbCircle
 10
2540.0
 20
-17780.0
 30
0.0
 40
325.0
  0
CIRCLE
  5
648
100
AcDbEntity
  8
SOLDERMASK_PADS_TOP
100
AcDbCircle
 10
2540.0
 20
-19050.0
 30
0.0
 40
325.0
  0
CIRCLE
  5
649
100
AcDbEntity
  8
SOLDERMASK_PADS_TOP
100
AcDbCircle
 10
3810.0
 20
-15875.0
 30
0.0
 40
325.0
  0
CIRCLE
  5
64A
100
AcDbEntity
  8
SOLDERMASK_PADS_TOP
100
AcDbCircle
 10
3810.0
 20
-17145.0
 30
0.0
 40
325.0
  0
CIRCLE
  5
64B
100
AcDbEntity
  8
SOLDERMASK_PADS_TOP
100
AcDbCircle
 10
3810.0
 20
-18415.0
 30
0.0
 40
325.0
  0
CIRCLE
  5
64C
100
AcDbEntity
  8
SOLDERMASK_PADS_TOP
100
AcDbCircle
 10
5080.0
 20
-16510.0
 30
0.0
 40
325.0
  0
CIRCLE
  5
64D
100
AcDbEntity
  8
SOLDERMASK_PADS_TOP
100
AcDbCircle
 10
5080.0
 20
-17780.0
 30
0.0
 40
325.0
  0
CIRCLE
  5
64E
100
AcDbEntity
  8
SOLDERMASK_PADS_TOP
100
AcDbCircle
 10
5080.0
 20
-19050.0
 30
0.0
 40
325.0
  0
CIRCLE
  5
64F
100
AcDbEntity
  8
SOLDERMASK_PADS_TOP
100
AcDbCircle
 10
6350.0
 20
-15875.0
 30
0.0
 40
325.0
  0
CIRCLE
  5
650
100
AcDbEntity
  8
SOLDERMASK_PADS_TOP
100
AcDbCircle
 10
6350.0
 20
-17145.0
 30
0.0
 40
325.0
  0
CIRCLE
  5
651
100
AcDbEntity
  8
SOLDERMASK_PADS_TOP
100
AcDbCircle
 10
6350.0
 20
-18415.0
 30
0.0
 40
325.0
  0
CIRCLE
  5
652
100
AcDbEntity
  8
SOLDERMASK_PADS_TOP
100
AcDbCircle
 10
7620.0
 20
-16510.0
 30
0.0
 40
325.0
  0
CIRCLE
  5
653
100
AcDbEntity
  8
SOLDERMASK_PADS_TOP
100
AcDbCircle
 10
7620.0
 20
-17780.0
 30
0.0
 40
325.0
  0
CIRCLE
  5
654
100
AcDbEntity
  8
SOLDERMASK_PADS_TOP
100
AcDbCircle
 10
7620.0
 20
-19050.0
 30
0.0
 40
325.0
  0
CIRCLE
  5
655
100
AcDbEntity
  8
SOLDERMASK_PADS_TOP
100
AcDbCircle
 10
8890.0
 20
-15875.0
 30
0.0
 40
325.0
  0
CIRCLE
  5
656
100
AcDbEntity
  8
SOLDERMASK_PADS_TOP
100
AcDbCircle
 10
8890.0
 20
-17145.0
 30
0.0
 40
325.0
  0
CIRCLE
  5
657
100
AcDbEntity
  8
SOLDERMASK_PADS_TOP
100
AcDbCircle
 10
8890.0
 20
-18415.0
 30
0.0
 40
325.0
  0
CIRCLE
  5
658
100
AcDbEntity
  8
SOLDERMASK_PADS_TOP
100
AcDbCircle
 10
10160.0
 20
-16510.0
 30
0.0
 40
325.0
  0
CIRCLE
  5
659
100
AcDbEntity
  8
SOLDERMASK_PADS_TOP
100
AcDbCircle
 10
10160.0
 20
-17780.0
 30
0.0
 40
325.0
  0
CIRCLE
  5
65A
100
AcDbEntity
  8
SOLDERMASK_PADS_TOP
100
AcDbCircle
 10
10160.0
 20
-19050.0
 30
0.0
 40
325.0
  0
CIRCLE
  5
65B
100
AcDbEntity
  8
SOLDERMASK_PADS_TOP
100
AcDbCircle
 10
11430.0
 20
-17145.0
 30
0.0
 40
325.0
  0
CIRCLE
  5
65C
100
AcDbEntity
  8
SOLDERMASK_PADS_TOP
100
AcDbCircle
 10
11430.0
 20
-18415.0
 30
0.0
 40
325.0
  0
CIRCLE
  5
65D
100
AcDbEntity
  8
SOLDERMASK_PADS_TOP
100
AcDbCircle
 10
11430.0
 20
-20955.0
 30
0.0
 40
325.0
  0
CIRCLE
  5
65E
100
AcDbEntity
  8
SOLDERMASK_PADS_TOP
100
AcDbCircle
 10
10160.0
 20
-21590.0
 30
0.0
 40
325.0
  0
CIRCLE
  5
65F
100
AcDbEntity
  8
SOLDERMASK_PADS_TOP
100
AcDbCircle
 10
8890.0
 20
-20955.0
 30
0.0
 40
325.0
  0
CIRCLE
  5
660
100
AcDbEntity
  8
SOLDERMASK_PADS_TOP
100
AcDbCircle
 10
7620.0
 20
-21590.0
 30
0.0
 40
325.0
  0
CIRCLE
  5
661
100
AcDbEntity
  8
SOLDERMASK_PADS_TOP
100
AcDbCircle
 10
6350.0
 20
-20955.0
 30
0.0
 40
325.0
  0
CIRCLE
  5
662
100
AcDbEntity
  8
SOLDERMASK_PADS_TOP
100
AcDbCircle
 10
5080.0
 20
-21590.0
 30
0.0
 40
325.0
  0
CIRCLE
  5
663
100
AcDbEntity
  8
SOLDERMASK_PADS_TOP
100
AcDbCircle
 10
3810.0
 20
-20955.0
 30
0.0
 40
325.0
  0
CIRCLE
  5
664
100
AcDbEntity
  8
SOLDERMASK_PADS_TOP
100
AcDbCircle
 10
2540.0
 20
-21590.0
 30
0.0
 40
325.0
  0
CIRCLE
  5
665
100
AcDbEntity
  8
SOLDERMASK_PADS_TOP
100
AcDbCircle
 10
0.0
 20
-21590.0
 30
0.0
 40
325.0
  0
CIRCLE
  5
666
100
AcDbEntity
  8
SOLDERMASK_PADS_TOP
100
AcDbCircle
 10
1270.0
 20
-20955.0
 30
0.0
 40
325.0
  0
CIRCLE
  5
667
100
AcDbEntity
  8
SOLDERMASK_PADS_TOP
100
AcDbCircle
 10
-1270.0
 20
-20955.0
 30
0.0
 40
325.0
  0
CIRCLE
  5
668
100
AcDbEntity
  8
SOLDERMASK_PADS_TOP
100
AcDbCircle
 10
-2540.0
 20
-21590.0
 30
0.0
 40
325.0
  0
CIRCLE
  5
669
100
AcDbEntity
  8
SOLDERMASK_PADS_TOP
100
AcDbCircle
 10
-3810.0
 20
-20955.0
 30
0.0
 40
325.0
  0
CIRCLE
  5
66A
100
AcDbEntity
  8
SOLDERMASK_PADS_TOP
100
AcDbCircle
 10
-5080.0
 20
-21590.0
 30
0.0
 40
325.0
  0
CIRCLE
  5
66B
100
AcDbEntity
  8
SOLDERMASK_PADS_TOP
100
AcDbCircle
 10
-6350.0
 20
-20955.0
 30
0.0
 40
325.0
  0
CIRCLE
  5
66C
100
AcDbEntity
  8
SOLDERMASK_PADS_TOP
100
AcDbCircle
 10
-7620.0
 20
-21590.0
 30
0.0
 40
325.0
  0
CIRCLE
  5
66D
100
AcDbEntity
  8
SOLDERMASK_PADS_TOP
100
AcDbCircle
 10
-8890.0
 20
-20955.0
 30
0.0
 40
325.0
  0
CIRCLE
  5
66E
100
AcDbEntity
  8
SOLDERMASK_PADS_TOP
100
AcDbCircle
 10
-10160.0
 20
-21590.0
 30
0.0
 40
325.0
  0
CIRCLE
  5
66F
100
AcDbEntity
  8
SOLDERMASK_PADS_TOP
100
AcDbCircle
 10
-11430.0
 20
-20955.0
 30
0.0
 40
325.0
  0
CIRCLE
  5
670
100
AcDbEntity
  8
SOLDERMASK_PADS_TOP
100
AcDbCircle
 10
-12700.0
 20
-21590.0
 30
0.0
 40
325.0
  0
CIRCLE
  5
671
100
AcDbEntity
  8
SOLDERMASK_PADS_TOP
100
AcDbCircle
 10
-13970.0
 20
-20955.0
 30
0.0
 40
325.0
  0
CIRCLE
  5
672
100
AcDbEntity
  8
SOLDERMASK_PADS_TOP
100
AcDbCircle
 10
-15240.0
 20
-21590.0
 30
0.0
 40
325.0
  0
CIRCLE
  5
673
100
AcDbEntity
  8
SOLDERMASK_PADS_TOP
100
AcDbCircle
 10
12700.0
 20
-21590.0
 30
0.0
 40
325.0
  0
CIRCLE
  5
674
100
AcDbEntity
  8
SOLDERMASK_PADS_TOP
100
AcDbCircle
 10
13970.0
 20
-20955.0
 30
0.0
 40
325.0
  0
CIRCLE
  5
675
100
AcDbEntity
  8
SOLDERMASK_PADS_TOP
100
AcDbCircle
 10
15240.0
 20
-21590.0
 30
0.0
 40
325.0
  0
CIRCLE
  5
676
100
AcDbEntity
  8
SOLDERMASK_PADS_TOP
100
AcDbCircle
 10
15240.0
 20
1270.0
 30
0.0
 40
325.0
  0
CIRCLE
  5
677
100
AcDbEntity
  8
SOLDERMASK_PADS_TOP
100
AcDbCircle
 10
15240.0
 20
0.0
 30
0.0
 40
325.0
  0
CIRCLE
  5
678
100
AcDbEntity
  8
SOLDERMASK_PADS_TOP
100
AcDbCircle
 10
15240.0
 20
-1270.0
 30
0.0
 40
325.0
  0
CIRCLE
  5
679
100
AcDbEntity
  8
SOLDERMASK_PADS_TOP
100
AcDbCircle
 10
15240.0
 20
-2540.0
 30
0.0
 40
325.0
  0
CIRCLE
  5
67A
100
AcDbEntity
  8
SOLDERMASK_PADS_TOP
100
AcDbCircle
 10
15240.0
 20
-3810.0
 30
0.0
 40
325.0
  0
CIRCLE
  5
67B
100
AcDbEntity
  8
SOLDERMASK_PADS_TOP
100
AcDbCircle
 10
15240.0
 20
-5080.0
 30
0.0
 40
325.0
  0
CIRCLE
  5
67C
100
AcDbEntity
  8
SOLDERMASK_PADS_TOP
100
AcDbCircle
 10
15240.0
 20
-6350.0
 30
0.0
 40
325.0
  0
CIRCLE
  5
67D
100
AcDbEntity
  8
SOLDERMASK_PADS_TOP
100
AcDbCircle
 10
15240.0
 20
-7620.0
 30
0.0
 40
325.0
  0
CIRCLE
  5
67E
100
AcDbEntity
  8
SOLDERMASK_PADS_TOP
100
AcDbCircle
 10
15240.0
 20
-8890.0
 30
0.0
 40
325.0
  0
CIRCLE
  5
67F
100
AcDbEntity
  8
SOLDERMASK_PADS_TOP
100
AcDbCircle
 10
15240.0
 20
-10160.0
 30
0.0
 40
325.0
  0
CIRCLE
  5
680
100
AcDbEntity
  8
SOLDERMASK_PADS_TOP
100
AcDbCircle
 10
15240.0
 20
-11430.0
 30
0.0
 40
325.0
  0
CIRCLE
  5
681
100
AcDbEntity
  8
SOLDERMASK_PADS_TOP
100
AcDbCircle
 10
15240.0
 20
-12700.0
 30
0.0
 40
325.0
  0
CIRCLE
  5
682
100
AcDbEntity
  8
SOLDERMASK_PADS_TOP
100
AcDbCircle
 10
20500.0
 20
12500.0
 30
0.0
 40
1450.0
  0
CIRCLE
  5
683
100
AcDbEntity
  8
SOLDERMASK_PADS_TOP
100
AcDbCircle
 10
26500.0
 20
12500.0
 30
0.0
 40
1450.0
  0
CIRCLE
  5
684
100
AcDbEntity
  8
SOLDERMASK_PADS_TOP
100
AcDbCircle
 10
20500.0
 20
-12500.0
 30
0.0
 40
1450.0
  0
CIRCLE
  5
685
100
AcDbEntity
  8
SOLDERMASK_PADS_TOP
100
AcDbCircle
 10
26500.0
 20
-12500.0
 30
0.0
 40
1450.0
  0
CIRCLE
  5
686
100
AcDbEntity
  8
SOLDERMASK_PADS_TOP
100
AcDbCircle
 10
-20500.0
 20
-12500.0
 30
0.0
 40
1450.0
  0
CIRCLE
  5
687
100
AcDbEntity
  8
SOLDERMASK_PADS_TOP
100
AcDbCircle
 10
-26500.0
 20
-12500.0
 30
0.0
 40
1450.0
  0
CIRCLE
  5
688
100
AcDbEntity
  8
SOLDERMASK_PADS_TOP
100
AcDbCircle
 10
-20500.0
 20
12500.0
 30
0.0
 40
1450.0
  0
CIRCLE
  5
689
100
AcDbEntity
  8
SOLDERMASK_PADS_TOP
100
AcDbCircle
 10
-26500.0
 20
12500.0
 30
0.0
 40
1450.0
  0
CIRCLE
  5
68A
100
AcDbEntity
  8
SOLDERMASK_PADS_TOP
100
AcDbCircle
 10
-21590.0
 20
9525.0
 30
0.0
 40
325.0
  0
CIRCLE
  5
68B
100
AcDbEntity
  8
SOLDERMASK_PADS_TOP
100
AcDbCircle
 10
-21590.0
 20
6985.0
 30
0.0
 40
325.0
  0
CIRCLE
  5
68C
100
AcDbEntity
  8
SOLDERMASK_PADS_TOP
100
AcDbCircle
 10
-21590.0
 20
4445.0
 30
0.0
 40
325.0
  0
CIRCLE
  5
68D
100
AcDbEntity
  8
SOLDERMASK_PADS_TOP
100
AcDbCircle
 10
-21590.0
 20
1905.0
 30
0.0
 40
325.0
  0
CIRCLE
  5
68E
100
AcDbEntity
  8
SOLDERMASK_PADS_TOP
100
AcDbCircle
 10
-21590.0
 20
-1905.0
 30
0.0
 40
325.0
  0
CIRCLE
  5
68F
100
AcDbEntity
  8
SOLDERMASK_PADS_TOP
100
AcDbCircle
 10
-21590.0
 20
-4445.0
 30
0.0
 40
325.0
  0
CIRCLE
  5
690
100
AcDbEntity
  8
SOLDERMASK_PADS_TOP
100
AcDbCircle
 10
-21590.0
 20
-6985.0
 30
0.0
 40
325.0
  0
CIRCLE
  5
691
100
AcDbEntity
  8
SOLDERMASK_PADS_TOP
100
AcDbCircle
 10
-21590.0
 20
-9525.0
 30
0.0
 40
325.0
  0
CIRCLE
  5
692
100
AcDbEntity
  8
SOLDERMASK_PADS_TOP
100
AcDbCircle
 10
21590.0
 20
9525.0
 30
0.0
 40
325.0
  0
CIRCLE
  5
693
100
AcDbEntity
  8
SOLDERMASK_PADS_TOP
100
AcDbCircle
 10
21590.0
 20
6985.0
 30
0.0
 40
325.0
  0
CIRCLE
  5
694
100
AcDbEntity
  8
SOLDERMASK_PADS_TOP
100
AcDbCircle
 10
21590.0
 20
4445.0
 30
0.0
 40
325.0
  0
CIRCLE
  5
695
100
AcDbEntity
  8
SOLDERMASK_PADS_TOP
100
AcDbCircle
 10
21590.0
 20
1905.0
 30
0.0
 40
325.0
  0
CIRCLE
  5
696
100
AcDbEntity
  8
SOLDERMASK_PADS_TOP
100
AcDbCircle
 10
21590.0
 20
-1905.0
 30
0.0
 40
325.0
  0
CIRCLE
  5
697
100
AcDbEntity
  8
SOLDERMASK_PADS_TOP
100
AcDbCircle
 10
21590.0
 20
-4445.0
 30
0.0
 40
325.0
  0
CIRCLE
  5
698
100
AcDbEntity
  8
SOLDERMASK_PADS_TOP
100
AcDbCircle
 10
21590.0
 20
-6985.0
 30
0.0
 40
325.0
  0
CIRCLE
  5
699
100
AcDbEntity
  8
SOLDERMASK_PADS_TOP
100
AcDbCircle
 10
21590.0
 20
-9525.0
 30
0.0
 40
325.0
  0
LWPOLYLINE
  5
69A
100
AcDbEntity
  8
SOLDERMASK_PADS_TOP
100
AcDbPolyline
 90
        8
 70
         1
 43
0.0
 10
10746.0
 20
14746.0
 10
20000.0
 20
24000.0
 10
22500.0
 20
24000.0
 10
22500.0
 20
21500.0
 10
13245.0
 20
12245.0
 10
12246.0
 20
12245.0
 10
12246.0
 20
13746.0
 10
10746.0
 20
13746.0
  0
LWPOLYLINE
  5
69B
100
AcDbEntity
  8
SOLDERMASK_PADS_TOP
100
AcDbPolyline
 90
        8
 70
         1
 43
0.0
 10
13246.0
 20
-12246.0
 10
22500.0
 20
-21500.0
 10
22500.0
 20
-24000.0
 10
20000.0
 20
-24000.0
 10
10745.0
 20
-14745.0
 10
10745.0
 20
-13746.0
 10
12246.0
 20
-13746.0
 10
12246.0
 20
-12246.0
  0
LWPOLYLINE
  5
69C
100
AcDbEntity
  8
SOLDERMASK_PADS_TOP
100
AcDbPolyline
 90
        8
 70
         1
 43
0.0
 10
-10746.0
 20
-14746.0
 10
-20000.0
 20
-24000.0
 10
-22500.0
 20
-24000.0
 10
-22500.0
 20
-21500.0
 10
-13245.0
 20
-12245.0
 10
-12246.0
 20
-12245.0
 10
-12246.0
 20
-13746.0
 10
-10746.0
 20
-13746.0
  0
LWPOLYLINE
  5
69D
100
AcDbEntity
  8
SOLDERMASK_PADS_TOP
100
AcDbPolyline
 90
        8
 70
         1
 43
0.0
 10
-13246.0
 20
12246.0
 10
-22500.0
 20
21500.0
 10
-22500.0
 20
24000.0
 10
-20000.0
 20
24000.0
 10
-10745.0
 20
14745.0
 10
-10745.0
 20
13746.0
 10
-12246.0
 20
13746.0
 10
-12246.0
 20
12246.0
  0
LWPOLYLINE
  5
69E
100
AcDbEntity
  8
SOLDERPASTE_TOP
100
AcDbPolyline
 90
        82
 70
         0
 43
120.0
 10
-21327.25
 20
-28150.0
 10
-21073.75
 20
-28355.5
 10
-21069.25
 20
-28361.5
 10
-21067.75
 20
-28369.0
 10
-21066.25
 20
-28373.5
 10
-21064.75
 20
-28378.0
 10
-21063.25
 20
-28381.0
 10
-21063.25
 20
-28690.0
 10
-21064.75
 20
-28694.5
 10
-21067.75
 20
-28705.0
 10
-21069.25
 20
-28708.0
 10
-21073.75
 20
-28714.0
 10
-21325.75
 20
-28919.5
 10
-21333.25
 20
-28922.5
 10
-21334.75
 20
-28924.0
 10
-21337.75
 20
-28924.0
 10
-21340.75
 20
-28925.5
 10
-21342.25
 20
-28925.5
 10
-21345.25
 20
-28925.5
 10
-21850.75
 20
-28925.5
 10
-21856.75
 20
-28924.0
 10
-21862.75
 20
-28922.5
 10
-21868.75
 20
-28919.5
 10
-22120.75
 20
-28714.0
 10
-22128.25
 20
-28706.5
 10
-22129.75
 20
-28702.0
 10
-22129.75
 20
-28697.5
 10
-22128.25
 20
-28687.0
 10
-22122.25
 20
-28676.5
 10
-22116.25
 20
-28669.0
 10
-22107.25
 20
-28663.0
 10
-22096.75
 20
-28661.5
 10
-22086.25
 20
-28664.5
 10
-21841.75
 20
-28864.0
 10
-21357.25
 20
-28864.0
 10
-21123.25
 20
-28675.0
 10
-21123.25
 20
-28396.0
 10
-21357.25
 20
-28205.5
 10
-21850.75
 20
-28205.5
 10
-21856.75
 20
-28205.5
 10
-21864.25
 20
-28204.0
 10
-21868.75
 20
-28201.0
 10
-22120.75
 20
-27995.5
 10
-22123.75
 20
-27994.0
 10
-22126.75
 20
-27991.0
 10
-22129.75
 20
-27986.5
 10
-22132.75
 20
-27976.0
 10
-22134.25
 20
-27970.0
 10
-22134.25
 20
-27661.0
 10
-22132.75
 20
-27653.5
 10
-22129.75
 20
-27647.5
 10
-22126.75
 20
-27644.5
 10
-22123.75
 20
-27641.5
 10
-22120.75
 20
-27637.0
 10
-21868.75
 20
-27431.5
 10
-21862.75
 20
-27430.0
 10
-21858.25
 20
-27428.5
 10
-21856.75
 20
-27427.0
 10
-21850.75
 20
-27425.5
 10
-21345.25
 20
-27425.5
 10
-21339.25
 20
-27427.0
 10
-21336.25
 20
-27428.5
 10
-21331.75
 20
-27430.0
 10
-21327.25
 20
-27431.5
 10
-21138.25
 20
-27586.0
 10
-21130.75
 20
-27593.5
 10
-21127.75
 20
-27602.5
 10
-21129.25
 20
-27613.0
 10
-21133.75
 20
-27623.5
 10
-21141.25
 20
-27631.0
 10
-21151.75
 20
-27637.0
 10
-21163.75
 20
-27638.5
 10
-21174.25
 20
-27635.5
 10
-21354.25
 20
-27487.0
 10
-21841.75
 20
-27487.0
 10
-22072.75
 20
-27676.0
 10
-22072.75
 20
-27955.0
 10
-21841.75
 20
-28145.5
 10
-21345.25
 20
-28145.5
 10
-21339.25
 20
-28147.0
 10
-21333.25
 20
-28148.5
 10
-21327.25
 20
-28150.0
  0
LWPOLYLINE
  5
69F
100
AcDbEntity
  8
SOLDERPASTE_TOP
100
AcDbPolyline
 90
        55
 70
         0
 43
120.0
 10
-20155.75
 20
-27455.5
 10
-20158.75
 20
-27445.0
 10
-20166.25
 20
-27436.0
 10
-20175.25
 20
-27431.5
 10
-20185.75
 20
-27430.0
 10
-20196.25
 20
-27431.5
 10
-20206.75
 20
-27436.0
 10
-20214.25
 20
-27445.0
 10
-20215.75
 20
-27455.5
 10
-20215.75
 20
-27940.0
 10
-20583.25
 20
-27940.0
 10
-20593.75
 20
-27943.0
 10
-20601.25
 20
-27949.0
 10
-20604.25
 20
-27959.5
 10
-20605.75
 20
-27970.0
 10
-20604.25
 20
-27980.5
 10
-20601.25
 20
-27991.0
 10
-20593.75
 20
-27997.0
 10
-20583.25
 20
-28000.0
 10
-20215.75
 20
-28000.0
 10
-20215.75
 20
-28793.5
 10
-20214.25
 20
-28801.0
 10
-20209.75
 20
-28808.5
 10
-20206.75
 20
-28813.0
 10
-20200.75
 20
-28816.0
 10
-20050.75
 20
-28919.5
 10
-20044.75
 20
-28924.0
 10
-20035.75
 20
-28925.5
 10
-19834.75
 20
-28925.5
 10
-19824.25
 20
-28924.0
 10
-19816.75
 20
-28919.5
 10
-19666.75
 20
-28816.0
 10
-19659.25
 20
-28810.0
 10
-19656.25
 20
-28799.5
 10
-19657.75
 20
-28789.0
 10
-19663.75
 20
-28780.0
 10
-19669.75
 20
-28771.0
 10
-19678.75
 20
-28765.0
 10
-19689.25
 20
-28763.5
 10
-19699.75
 20
-28768.0
 10
-19843.75
 20
-28864.0
 10
-20029.75
 20
-28864.0
 10
-20155.75
 20
-28778.5
 10
-20155.75
 20
-28000.0
 10
-19785.25
 20
-28000.0
 10
-19774.75
 20
-27997.0
 10
-19765.75
 20
-27991.0
 10
-19761.25
 20
-27980.5
 10
-19759.75
 20
-27970.0
 10
-19761.25
 20
-27959.5
 10
-19765.75
 20
-27949.0
 10
-19774.75
 20
-27943.0
 10
-19785.25
 20
-27940.0
 10
-20155.75
 20
-27940.0
 10
-20155.75
 20
-27455.5
  0
LWPOLYLINE
  5
6A0
100
AcDbEntity
  8
SOLDERPASTE_TOP
100
AcDbPolyline
 90
        50
 70
         0
 43
120.0
 10
-18978.25
 20
-27853.0
 10
-18571.75
 20
-27854.5
 10
-18565.75
 20
-27856.0
 10
-18559.75
 20
-27857.5
 10
-18550.75
 20
-27862.0
 10
-18246.25
 20
-28165.0
 10
-18244.75
 20
-28172.5
 10
-18243.25
 20
-28178.5
 10
-18243.25
 20
-28181.5
 10
-18241.75
 20
-28181.5
 10
-18240.25
 20
-28189.0
 10
-18240.25
 20
-28289.5
 10
-18241.75
 20
-28300.0
 10
-18249.25
 20
-28309.0
 10
-18256.75
 20
-28316.5
 10
-18270.25
 20
-28319.5
 10
-19249.75
 20
-28319.5
 10
-19249.75
 20
-28679.5
 10
-18970.75
 20
-28865.5
 10
-18586.75
 20
-28865.5
 10
-18291.25
 20
-28570.0
 10
-18282.25
 20
-28564.0
 10
-18271.75
 20
-28564.0
 10
-18259.75
 20
-28567.0
 10
-18250.75
 20
-28574.5
 10
-18243.25
 20
-28583.5
 10
-18240.25
 20
-28594.0
 10
-18240.25
 20
-28606.0
 10
-18246.25
 20
-28615.0
 10
-18550.75
 20
-28916.5
 10
-18559.75
 20
-28922.5
 10
-18565.75
 20
-28924.0
 10
-18571.75
 20
-28925.5
 10
-18978.25
 20
-28925.5
 10
-18987.25
 20
-28924.0
 10
-18994.75
 20
-28919.5
 10
-19296.25
 20
-28718.5
 10
-19302.25
 20
-28715.5
 10
-19305.25
 20
-28709.5
 10
-19309.75
 20
-28702.0
 10
-19311.25
 20
-28694.5
 10
-19311.25
 20
-28085.5
 10
-19309.75
 20
-28078.0
 10
-19305.25
 20
-28070.5
 10
-19302.25
 20
-28066.0
 10
-19299.25
 20
-28064.5
 10
-19296.25
 20
-28061.5
 10
-18994.75
 20
-27860.5
 10
-18987.25
 20
-27854.5
 10
-18978.25
 20
-27853.0
  0
LWPOLYLINE
  5
6A1
100
AcDbEntity
  8
SOLDERPASTE_TOP
100
AcDbPolyline
 90
        7
 70
         0
 43
120.0
 10
-19249.75
 20
-28103.5
 10
-19249.75
 20
-28259.5
 10
-18300.25
 20
-28259.5
 10
-18300.25
 20
-28201.0
 10
-18586.75
 20
-27914.5
 10
-18970.75
 20
-27914.5
 10
-19249.75
 20
-28103.5
  0
LWPOLYLINE
  5
6A2
100
AcDbEntity
  8
SOLDERPASTE_TOP
100
AcDbPolyline
 90
        46
 70
         0
 43
120.0
 10
-16885.75
 20
-28895.5
 10
-16884.25
 20
-28907.5
 10
-16876.75
 20
-28915.0
 10
-16866.25
 20
-28919.5
 10
-16855.75
 20
-28921.0
 10
-16845.25
 20
-28919.5
 10
-16836.25
 20
-28915.0
 10
-16828.75
 20
-28907.5
 10
-16825.75
 20
-28895.5
 10
-16825.75
 20
-28085.5
 10
-16827.25
 20
-28081.0
 10
-16830.25
 20
-28075.0
 10
-16831.75
 20
-28069.0
 10
-16836.25
 20
-28061.5
 10
-17089.75
 20
-27860.5
 10
-17097.25
 20
-27857.5
 10
-17103.25
 20
-27856.0
 10
-17109.25
 20
-27854.5
 10
-17614.75
 20
-27854.5
 10
-17620.75
 20
-27856.0
 10
-17625.25
 20
-27857.5
 10
-17631.25
 20
-27860.5
 10
-17835.25
 20
-28022.5
 10
-17835.25
 20
-27884.5
 10
-17838.25
 20
-27872.5
 10
-17845.75
 20
-27865.0
 10
-17856.25
 20
-27860.5
 10
-17868.25
 20
-27857.5
 10
-17878.75
 20
-27860.5
 10
-17887.75
 20
-27865.0
 10
-17895.25
 20
-27872.5
 10
-17898.25
 20
-27884.5
 10
-17898.25
 20
-28895.5
 10
-17895.25
 20
-28907.5
 10
-17887.75
 20
-28915.0
 10
-17878.75
 20
-28919.5
 10
-17868.25
 20
-28921.0
 10
-17856.25
 20
-28919.5
 10
-17845.75
 20
-28915.0
 10
-17838.25
 20
-28907.5
 10
-17835.25
 20
-28895.5
 10
-17835.25
 20
-28100.5
 10
-17604.25
 20
-27914.5
 10
-17119.75
 20
-27914.5
 10
-16885.75
 20
-28100.5
 10
-16885.75
 20
-28895.5
  0
LWPOLYLINE
  5
6A3
100
AcDbEntity
  8
SOLDERPASTE_TOP
100
AcDbPolyline
 90
        52
 70
         0
 43
120.0
 10
-15741.25
 20
-28925.5
 10
-16147.75
 20
-28925.5
 10
-16156.75
 20
-28924.0
 10
-16164.25
 20
-28919.5
 10
-16465.75
 20
-28718.5
 10
-16471.75
 20
-28715.5
 10
-16474.75
 20
-28709.5
 10
-16479.25
 20
-28702.0
 10
-16480.75
 20
-28694.5
 10
-16480.75
 20
-28085.5
 10
-16479.25
 20
-28078.0
 10
-16474.75
 20
-28070.5
 10
-16471.75
 20
-28066.0
 10
-16468.75
 20
-28064.5
 10
-16465.75
 20
-28061.5
 10
-16164.25
 20
-27860.5
 10
-16156.75
 20
-27854.5
 10
-16147.75
 20
-27853.0
 10
-15741.25
 20
-27854.5
 10
-15738.25
 20
-27854.5
 10
-15738.25
 20
-27856.0
 10
-15730.75
 20
-27857.5
 10
-15720.25
 20
-27862.0
 10
-15415.75
 20
-28165.0
 10
-15409.75
 20
-28177.0
 10
-15411.25
 20
-28187.5
 10
-15414.25
 20
-28198.0
 10
-15421.75
 20
-28207.0
 10
-15429.25
 20
-28213.0
 10
-15441.25
 20
-28217.5
 10
-15451.75
 20
-28216.0
 10
-15460.75
 20
-28210.0
 10
-15756.25
 20
-27914.5
 10
-16140.25
 20
-27914.5
 10
-16419.25
 20
-28103.5
 10
-16419.25
 20
-28679.5
 10
-16140.25
 20
-28865.5
 10
-15756.25
 20
-28865.5
 10
-15460.75
 20
-28570.0
 10
-15451.75
 20
-28564.0
 10
-15441.25
 20
-28564.0
 10
-15429.25
 20
-28567.0
 10
-15420.25
 20
-28574.5
 10
-15412.75
 20
-28583.5
 10
-15409.75
 20
-28594.0
 10
-15409.75
 20
-28606.0
 10
-15415.75
 20
-28615.0
 10
-15720.25
 20
-28916.5
 10
-15730.75
 20
-28922.5
 10
-15738.25
 20
-28924.0
 10
-15738.25
 20
-28925.5
 10
-15741.25
 20
-28925.5
  0
LWPOLYLINE
  5
6A4
100
AcDbEntity
  8
SOLDERPASTE_TOP
100
AcDbPolyline
 90
        36
 70
         0
 43
120.0
 10
-14404.75
 20
-28925.5
 10
-14392.75
 20
-28922.5
 10
-14386.75
 20
-28916.5
 10
-14382.25
 20
-28906.0
 10
-14380.75
 20
-28895.5
 10
-14382.25
 20
-28885.0
 10
-14386.75
 20
-28876.0
 10
-14392.75
 20
-28868.5
 10
-14404.75
 20
-28865.5
 10
-14562.25
 20
-28865.5
 10
-14562.25
 20
-27884.5
 10
-14565.25
 20
-27872.5
 10
-14571.25
 20
-27865.0
 10
-14578.75
 20
-27856.0
 10
-14590.75
 20
-27854.5
 10
-14776.75
 20
-27854.5
 10
-14787.25
 20
-27856.0
 10
-14794.75
 20
-27863.5
 10
-14799.25
 20
-27874.0
 10
-14800.75
 20
-27884.5
 10
-14799.25
 20
-27895.0
 10
-14794.75
 20
-27904.0
 10
-14787.25
 20
-27911.5
 10
-14776.75
 20
-27914.5
 10
-14619.25
 20
-27914.5
 10
-14619.25
 20
-28865.5
 10
-14776.75
 20
-28865.5
 10
-14787.25
 20
-28868.5
 10
-14794.75
 20
-28876.0
 10
-14799.25
 20
-28885.0
 10
-14800.75
 20
-28895.5
 10
-14799.25
 20
-28906.0
 10
-14794.75
 20
-28916.5
 10
-14787.25
 20
-28922.5
 10
-14776.75
 20
-28925.5
 10
-14404.75
 20
-28925.5
  0
LWPOLYLINE
  5
6A5
100
AcDbEntity
  8
SOLDERPASTE_TOP
100
AcDbPolyline
 90
        36
 70
         0
 43
120.0
 10
-13546.75
 20
-27425.5
 10
-13558.75
 20
-27428.5
 10
-13564.75
 20
-27436.0
 10
-13569.25
 20
-27445.0
 10
-13570.75
 20
-27457.0
 10
-13569.25
 20
-27467.5
 10
-13564.75
 20
-27478.0
 10
-13558.75
 20
-27484.0
 10
-13546.75
 20
-27487.0
 10
-13284.25
 20
-27487.0
 10
-13284.25
 20
-28862.5
 10
-13546.75
 20
-28862.5
 10
-13558.75
 20
-28865.5
 10
-13564.75
 20
-28873.0
 10
-13569.25
 20
-28883.5
 10
-13570.75
 20
-28895.5
 10
-13569.25
 20
-28906.0
 10
-13564.75
 20
-28916.5
 10
-13558.75
 20
-28922.5
 10
-13546.75
 20
-28925.5
 10
-12961.75
 20
-28925.5
 10
-12951.25
 20
-28922.5
 10
-12942.25
 20
-28916.5
 10
-12937.75
 20
-28906.0
 10
-12936.25
 20
-28895.5
 10
-12937.75
 20
-28883.5
 10
-12942.25
 20
-28873.0
 10
-12951.25
 20
-28865.5
 10
-12961.75
 20
-28862.5
 10
-13225.75
 20
-28862.5
 10
-13225.75
 20
-27455.5
 10
-13227.25
 20
-27445.0
 10
-13234.75
 20
-27436.0
 10
-13242.25
 20
-27428.5
 10
-13254.25
 20
-27425.5
 10
-13546.75
 20
-27425.5
  0
LWPOLYLINE
  5
6A6
100
AcDbEntity
  8
SOLDERPASTE_TOP
100
AcDbPolyline
 90
        41
 70
         0
 43
120.0
 10
-11113.75
 20
-28864.0
 10
-11125.75
 20
-28867.0
 10
-11131.75
 20
-28873.0
 10
-11136.25
 20
-28883.5
 10
-11137.75
 20
-28895.5
 10
-11136.25
 20
-28906.0
 10
-11131.75
 20
-28916.5
 10
-11125.75
 20
-28924.0
 10
-11113.75
 20
-28925.5
 10
-10528.75
 20
-28925.5
 10
-10518.25
 20
-28924.0
 10
-10509.25
 20
-28916.5
 10
-10504.75
 20
-28906.0
 10
-10503.25
 20
-28895.5
 10
-10504.75
 20
-28883.5
 10
-10509.25
 20
-28873.0
 10
-10518.25
 20
-28867.0
 10
-10528.75
 20
-28864.0
 10
-10792.75
 20
-28864.0
 10
-10792.75
 20
-27455.5
 10
-10794.25
 20
-27445.0
 10
-10798.75
 20
-27437.5
 10
-10806.25
 20
-27433.0
 10
-10816.75
 20
-27431.5
 10
-10824.25
 20
-27430.0
 10
-10831.75
 20
-27430.0
 10
-10837.75
 20
-27433.0
 10
-10843.75
 20
-27439.0
 10
-11136.25
 20
-27850.0
 10
-11140.75
 20
-27860.5
 10
-11140.75
 20
-27871.0
 10
-11136.25
 20
-27880.0
 10
-11128.75
 20
-27887.5
 10
-11119.75
 20
-27893.5
 10
-11109.25
 20
-27896.5
 10
-11103.25
 20
-27896.5
 10
-11098.75
 20
-27895.0
 10
-11091.25
 20
-27886.0
 10
-10851.25
 20
-27550.0
 10
-10851.25
 20
-28864.0
 10
-11113.75
 20
-28864.0
  0
LWPOLYLINE
  5
6A7
100
AcDbEntity
  8
SOLDERPASTE_TOP
100
AcDbPolyline
 90
        43
 70
         0
 43
120.0
 10
-9951.25
 20
-27637.0
 10
-9699.25
 20
-27431.5
 10
-9693.25
 20
-27430.0
 10
-9688.75
 20
-27428.5
 10
-9687.25
 20
-27427.0
 10
-9681.25
 20
-27425.5
 10
-9175.75
 20
-27425.5
 10
-9169.75
 20
-27427.0
 10
-9168.25
 20
-27427.0
 10
-9166.75
 20
-27428.5
 10
-9162.25
 20
-27430.0
 10
-9156.25
 20
-27431.5
 10
-8904.25
 20
-27637.0
 10
-8899.75
 20
-27644.5
 10
-8898.25
 20
-27650.5
 10
-8895.25
 20
-27655.0
 10
-8893.75
 20
-27661.0
 10
-8893.75
 20
-28690.0
 10
-8895.25
 20
-28694.5
 10
-8898.25
 20
-28705.0
 10
-8899.75
 20
-28708.0
 10
-8904.25
 20
-28714.0
 10
-9156.25
 20
-28919.5
 10
-9162.25
 20
-28921.0
 10
-9165.25
 20
-28922.5
 10
-9168.25
 20
-28924.0
 10
-9171.25
 20
-28925.5
 10
-9175.75
 20
-28925.5
 10
-9681.25
 20
-28925.5
 10
-9687.25
 20
-28924.0
 10
-9693.25
 20
-28922.5
 10
-9699.25
 20
-28919.5
 10
-9951.25
 20
-28714.0
 10
-9954.25
 20
-28711.0
 10
-9957.25
 20
-28709.5
 10
-9960.25
 20
-28705.0
 10
-9963.25
 20
-28694.5
 10
-9964.75
 20
-28690.0
 10
-9964.75
 20
-27661.0
 10
-9963.25
 20
-27655.0
 10
-9960.25
 20
-27650.5
 10
-9957.25
 20
-27644.5
 10
-9951.25
 20
-27637.0
  0
LWPOLYLINE
  5
6A8
100
AcDbEntity
  8
SOLDERPASTE_TOP
100
AcDbPolyline
 90
        7
 70
         0
 43
120.0
 10
-9903.25
 20
-27676.0
 10
-9903.25
 20
-28675.0
 10
-9814.75
 20
-28750.0
 10
-9088.75
 20
-27566.5
 10
-9187.75
 20
-27487.0
 10
-9672.25
 20
-27487.0
 10
-9903.25
 20
-27676.0
  0
LWPOLYLINE
  5
6A9
100
AcDbEntity
  8
SOLDERPASTE_TOP
100
AcDbPolyline
 90
        7
 70
         0
 43
120.0
 10
-9766.75
 20
-28789.0
 10
-9672.25
 20
-28864.0
 10
-9187.75
 20
-28864.0
 10
-8953.75
 20
-28675.0
 10
-8953.75
 20
-27676.0
 10
-9042.25
 20
-27605.5
 10
-9766.75
 20
-28789.0
  0
LWPOLYLINE
  5
6AA
100
AcDbEntity
  8
SOLDERPASTE_TOP
100
AcDbPolyline
 90
        43
 70
         0
 43
120.0
 10
-8533.75
 20
-27637.0
 10
-8281.75
 20
-27431.5
 10
-8275.75
 20
-27430.0
 10
-8271.25
 20
-27428.5
 10
-8269.75
 20
-27427.0
 10
-8263.75
 20
-27425.5
 10
-7758.25
 20
-27425.5
 10
-7752.25
 20
-27427.0
 10
-7750.75
 20
-27427.0
 10
-7749.25
 20
-27428.5
 10
-7744.75
 20
-27430.0
 10
-7738.75
 20
-27431.5
 10
-7486.75
 20
-27637.0
 10
-7482.25
 20
-27644.5
 10
-7480.75
 20
-27650.5
 10
-7477.75
 20
-27655.0
 10
-7476.25
 20
-27661.0
 10
-7476.25
 20
-28690.0
 10
-7477.75
 20
-28694.5
 10
-7480.75
 20
-28705.0
 10
-7482.25
 20
-28708.0
 10
-7486.75
 20
-28714.0
 10
-7738.75
 20
-28919.5
 10
-7744.75
 20
-28921.0
 10
-7747.75
 20
-28922.5
 10
-7750.75
 20
-28924.0
 10
-7753.75
 20
-28925.5
 10
-7758.25
 20
-28925.5
 10
-8263.75
 20
-28925.5
 10
-8269.75
 20
-28924.0
 10
-8275.75
 20
-28922.5
 10
-8281.75
 20
-28919.5
 10
-8533.75
 20
-28714.0
 10
-8536.75
 20
-28711.0
 10
-8539.75
 20
-28709.5
 10
-8542.75
 20
-28705.0
 10
-8545.75
 20
-28694.5
 10
-8547.25
 20
-28690.0
 10
-8547.25
 20
-27661.0
 10
-8545.75
 20
-27655.0
 10
-8542.75
 20
-27650.5
 10
-8539.75
 20
-27644.5
 10
-8533.75
 20
-27637.0
  0
LWPOLYLINE
  5
6AB
100
AcDbEntity
  8
SOLDERPASTE_TOP
100
AcDbPolyline
 90
        7
 70
         0
 43
120.0
 10
-8485.75
 20
-27676.0
 10
-8485.75
 20
-28675.0
 10
-8397.25
 20
-28750.0
 10
-7671.25
 20
-27566.5
 10
-7770.25
 20
-27487.0
 10
-8254.75
 20
-27487.0
 10
-8485.75
 20
-27676.0
  0
LWPOLYLINE
  5
6AC
100
AcDbEntity
  8
SOLDERPASTE_TOP
100
AcDbPolyline
 90
        7
 70
         0
 43
120.0
 10
-8349.25
 20
-28789.0
 10
-8254.75
 20
-28864.0
 10
-7770.25
 20
-28864.0
 10
-7536.25
 20
-28675.0
 10
-7536.25
 20
-27676.0
 10
-7624.75
 20
-27605.5
 10
-8349.25
 20
-28789.0
  0
LWPOLYLINE
  5
6AD
100
AcDbEntity
  8
SOLDERPASTE_TOP
100
AcDbPolyline
 90
        49
 70
         0
 43
120.0
 10
-7131.25
 20
-28694.5
 10
-7129.75
 20
-28699.0
 10
-7126.75
 20
-28706.5
 10
-7123.75
 20
-28712.5
 10
-7117.75
 20
-28717.0
 10
-6864.25
 20
-28919.5
 10
-6859.75
 20
-28922.5
 10
-6853.75
 20
-28924.0
 10
-6847.75
 20
-28925.5
 10
-6342.25
 20
-28925.5
 10
-6337.75
 20
-28925.5
 10
-6336.25
 20
-28924.0
 10
-6334.75
 20
-28924.0
 10
-6331.75
 20
-28924.0
 10
-6328.75
 20
-28922.5
 10
-6322.75
 20
-28919.5
 10
-6118.75
 20
-28756.0
 10
-6118.75
 20
-28895.5
 10
-6117.25
 20
-28907.5
 10
-6109.75
 20
-28915.0
 10
-6099.25
 20
-28919.5
 10
-6088.75
 20
-28921.0
 10
-6078.25
 20
-28919.5
 10
-6069.25
 20
-28915.0
 10
-6061.75
 20
-28907.5
 10
-6058.75
 20
-28895.5
 10
-6058.75
 20
-27884.5
 10
-6061.75
 20
-27872.5
 10
-6069.25
 20
-27865.0
 10
-6078.25
 20
-27860.5
 10
-6088.75
 20
-27857.5
 10
-6099.25
 20
-27860.5
 10
-6109.75
 20
-27865.0
 10
-6117.25
 20
-27872.5
 10
-6118.75
 20
-27884.5
 10
-6118.75
 20
-28679.5
 10
-6352.75
 20
-28865.5
 10
-6837.25
 20
-28865.5
 10
-7068.25
 20
-28679.5
 10
-7068.25
 20
-27884.5
 10
-7071.25
 20
-27872.5
 10
-7078.75
 20
-27865.0
 10
-7089.25
 20
-27860.5
 10
-7101.25
 20
-27857.5
 10
-7111.75
 20
-27860.5
 10
-7120.75
 20
-27865.0
 10
-7128.25
 20
-27872.5
 10
-7131.25
 20
-27884.5
 10
-7131.25
 20
-28694.5
  0
LWPOLYLINE
  5
6AE
100
AcDbEntity
  8
SOLDERPASTE_TOP
100
AcDbPolyline
 90
        63
 70
         0
 43
120.0
 10
-4641.25
 20
-27985.0
 10
-4644.25
 20
-27979.0
 10
-4645.75
 20
-27968.5
 10
-4651.75
 20
-27961.0
 10
-4804.75
 20
-27859.0
 10
-4812.25
 20
-27854.5
 10
-4821.25
 20
-27853.0
 10
-5023.75
 20
-27853.0
 10
-5032.75
 20
-27854.5
 10
-5038.75
 20
-27859.0
 10
-5176.75
 20
-27950.5
 10
-5311.75
 20
-27859.0
 10
-5319.25
 20
-27854.5
 10
-5326.75
 20
-27853.0
 10
-5530.75
 20
-27853.0
 10
-5539.75
 20
-27854.5
 10
-5545.75
 20
-27859.0
 10
-5650.75
 20
-27931.0
 10
-5650.75
 20
-27883.0
 10
-5653.75
 20
-27871.0
 10
-5661.25
 20
-27863.5
 10
-5671.75
 20
-27859.0
 10
-5683.75
 20
-27856.0
 10
-5694.25
 20
-27859.0
 10
-5703.25
 20
-27863.5
 10
-5710.75
 20
-27871.0
 10
-5713.75
 20
-27883.0
 10
-5713.75
 20
-28894.0
 10
-5710.75
 20
-28906.0
 10
-5703.25
 20
-28913.5
 10
-5694.25
 20
-28918.0
 10
-5683.75
 20
-28919.5
 10
-5671.75
 20
-28918.0
 10
-5661.25
 20
-28913.5
 10
-5653.75
 20
-28906.0
 10
-5650.75
 20
-28894.0
 10
-5650.75
 20
-28000.0
 10
-5524.75
 20
-27913.0
 10
-5335.75
 20
-27913.0
 10
-5206.75
 20
-28000.0
 10
-5206.75
 20
-28895.5
 10
-5205.25
 20
-28907.5
 10
-5197.75
 20
-28915.0
 10
-5187.25
 20
-28919.5
 10
-5176.75
 20
-28921.0
 10
-5164.75
 20
-28919.5
 10
-5154.25
 20
-28915.0
 10
-5148.25
 20
-28907.5
 10
-5145.25
 20
-28895.5
 10
-5145.25
 20
-28001.5
 10
-5016.25
 20
-27911.5
 10
-4827.25
 20
-27911.5
 10
-4701.25
 20
-28000.0
 10
-4701.25
 20
-28895.5
 10
-4699.75
 20
-28907.5
 10
-4692.25
 20
-28915.0
 10
-4681.75
 20
-28919.5
 10
-4671.25
 20
-28921.0
 10
-4660.75
 20
-28919.5
 10
-4651.75
 20
-28915.0
 10
-4644.25
 20
-28907.5
 10
-4641.25
 20
-28895.5
 10
-4641.25
 20
-27985.0
  0
ENDSEC
  0
SECTION
  2
OBJECTS
  0
DICTIONARY
  5
16
100
AcDbDictionary
  3
ACAD_GROUP
350
17
  3
ACAD_MLINESTYLE
350
18
  0
DICTIONARY
  5
17
102
{ACAD_REACTORS
330
16
102
}
100
AcDbDictionary
  0
DICTIONARY
  5
18
102
{ACAD_REACTORS
330
16
102
}
100
AcDbDictionary
  3
STANDARD
350
19
  0
MLINESTYLE
  5
19
102
{ACAD_REACTORS
330
18
102
}
100
AcDbMlineStyle
  2
STANDARD
 70
         0
  3

 62
         0
 51
90.0
 52
90.0
 71
        2
 49
0.5
 62
         256
  6
BYLAYER
 49
-0.5
 62
         256
  6
BYLAYER
  0
DICTIONARY
  5
1A
102
{ACAD_REACTORS
330
16
102
}
100
AcDbDictionary
  0
ENDSEC
  0
EOF
