  0
SECTION
  2
HEADER
  9
$ACADVER
  1
AC1014
  9
$ACADMAINTVER
 70
         0
  9
$DWGCODEPAGE
  3
ANSI_1252
  9
$INSBASE
 10
0.0
 20
0.0
 30
0.0
  9
$EXTMIN
 10
-254000.0
 20
-254000.0
 30
0.0
  9
$EXTMAX
 10
254000.0
 20
254000.0
 30
0.0
  9
$LIMMIN
 10
0.0
 20
0.0
  9
$LIMMAX
 10
0.0
 20
0.0
  9
$ORTHOMODE
 70
         0
  9
$REGENMODE
 70
         1
  9
$FILLMODE
 70
         1
  9
$QTEXTMODE
 70
         0
  9
$MIRRTEXT
 70
         1
  9
$DRAGMODE
 70
         2
  9
$LTSCALE
 40
1.0
  9
$OSMODE
 70
         0
  9
$ATTMODE
 70
         1
  9
$TEXTSIZE
 40
0.2
  9
$TRACEWID
 40
0.05
  9
$TEXTSTYLE
  7
STANDARD
  9
$CLAYER
  8
0
  9
$CELTYPE
  6
CONTINUOUS
  9
$CECOLOR
 62
       256
  9
$CELTSCALE
 40
1.0
  9
$DELOBJ
 70
         1
  9
$DISPSILH
 70
         0
  9
$DIMSCALE
 40
1.0
  9
$DIMASZ
 40
0.18
  9
$DIMEXO
 40
0.0625
  9
$DIMDLI
 40
0.38
  9
$DIMRND
 40
0.0
  9
$DIMDLE
 40
0.0
  9
$DIMEXE
 40
0.18
  9
$DIMTP
 40
0.0
  9
$DIMTM
 40
0.0
  9
$DIMTXT
 40
0.18
  9
$DIMCEN
 40
0.09
  9
$DIMTSZ
 40
0.0
  9
$DIMTOL
 70
         0
  9
$DIMLIM
 70
         0
  9
$DIMTIH
 70
         1
  9
$DIMTOH
 70
         1
  9
$DIMSE1
 70
         0
  9
$DIMSE2
 70
         0
  9
$DIMTAD
 70
         0
  9
$DIMZIN
 70
         0
  9
$DIMBLK
  1

  9
$DIMASO
 70
         1
  9
$DIMSHO
 70
         1
  9
$DIMPOST
  1

  9
$DIMAPOST
  1

  9
$DIMALT
 70
         0
  9
$DIMALTD
 70
         2
  9
$DIMALTF
 40
25.4
  9
$DIMLFAC
 40
1.0
  9
$DIMTOFL
 70
         0
  9
$DIMTVP
 40
0.0
  9
$DIMTIX
 70
         0
  9
$DIMSOXD
 70
         0
  9
$DIMSAH
 70
         0
  9
$DIMBLK1
  1

  9
$DIMBLK2
  1

  9
$DIMSTYLE
  2
STANDARD
  9
$DIMCLRD
 70
         0
  9
$DIMCLRE
 70
         0
  9
$DIMCLRT
 70
         0
  9
$DIMTFAC
 40
1.0
  9
$DIMGAP
 40
0.09
  9
$DIMJUST
 70
         0
  9
$DIMSD1
 70
         0
  9
$DIMSD2
 70
         0
  9
$DIMTOLJ
 70
         1
  9
$DIMTZIN
 70
         0
  9
$DIMALTZ
 70
         0
  9
$DIMALTTZ
 70
         0
  9
$DIMFIT
 70
         3
  9
$DIMUPT
 70
         0
  9
$DIMUNIT
 70
         2
  9
$DIMDEC
 70
         4
  9
$DIMTDEC
 70
         4
  9
$DIMALTU
 70
         2
  9
$DIMALTTD
 70
         2
  9
$DIMTXSTY
  7
STANDARD
  9
$DIMAUNIT
 70
         0
  9
$LUNITS
 70
         2
  9
$LUPREC
 70
         4
  9
$SKETCHINC
 40
0.1
  9
$FILLETRAD
 40
0.0
  9
$AUNITS
 70
         0
  9
$AUPREC
 70
         0
  9
$MENU
  1
acad
  9
$ELEVATION
 40
0.0
  9
$PELEVATION
 40
0.0
  9
$THICKNESS
 40
0.0
  9
$LIMCHECK
 70
         0
  9
$BLIPMODE
 70
         1
  9
$CHAMFERA
 40
0.0
  9
$CHAMFERB
 40
0.0
  9
$CHAMFERC
 40
0.0
  9
$CHAMFERD
 40
0.0
  9
$SKPOLY
 70
         0
  9
$TDCREATE
 40
2456275.463113426
  9
$TDUPDATE
 40
0.000000000
  9
$TDINDWG
 40
0.0000000000
  9
$TDUSRTIMER
 40
0.0000000000
  9
$USRTIMER
 70
         1
  9
$ANGBASE
 50
0.0
  9
$ANGDIR
 70
         0
  9
$PDMODE
 70
         0
  9
$PDSIZE
 40
0.0
  9
$PLINEWID
 40
0.0
  9
$COORDS
 70
         0
  9
$SPLFRAME
 70
         0
  9
$SPLINETYPE
 70
         6
  9
$SPLINESEGS
 70
         8
  9
$ATTDIA
 70
         0
  9
$ATTREQ
 70
         1
  9
$HANDLING
 70
         1
  9
$HANDSEED
  5
461
  9
$SURFTAB1
 70
         6
  9
$SURFTAB2
 70
         6
  9
$SURFTYPE
 70
         6
  9
$SURFU
 70
         6
  9
$SURFV
 70
         6
  9
$UCSNAME
  2

  9
$UCSORG
 10
0.0
 20
0.0
 30
0.0
  9
$UCSXDIR
 10
1.0
 20
0.0
 30
0.0
  9
$UCSYDIR
 10
0.0
 20
1.0
 30
0.0
  9
$PUCSNAME
  2

  9
$PUCSORG
 10
0.0
 20
0.0
 30
0.0
  9
$PUCSXDIR
 10
1.0
 20
0.0
 30
0.0
  9
$PUCSYDIR
 10
0.0
 20
1.0
 30
0.0
  9
$USERI1
 70
        -4
  9
$USERI2
 70
         0
  9
$USERI3
 70
         0
  9
$USERI4
 70
         0
  9
$USERI5
 70
         0
  9
$USERR1
 40
0.0
  9
$USERR2
 40
0.0
  9
$USERR3
 40
0.0
  9
$USERR4
 40
0.0
  9
$USERR5
 40
0.0
  9
$WORLDVIEW
 70
         1
  9
$SHADEDGE
 70
         3
  9
$SHADEDIF
 70
        70
  9
$TILEMODE
 70
         1
  9
$MAXACTVP
 70
        16
  9
$PINSBASE
 10
0.0
 20
0.0
 30
0.0
  9
$PLIMCHECK
 70
         0
  9
$PEXTMIN
 10
1.0000000000E+20
 20
1.0000000000E+20
 30
1.0000000000E+20
  9
$PEXTMAX
 10
-1.0000000000E+20
 20
-1.0000000000E+20
 30
-1.0000000000E+20
  9
$PLIMMIN
 10
0.0
 20
0.0
  9
$PLIMMAX
 10
12.0
 20
9.0
  9
$UNITMODE
 70
         0
  9
$VISRETAIN
 70
         0
  9
$PLINEGEN
 70
         1
  9
$PSLTSCALE
 70
         0
  9
$TREEDEPTH
 70
      3020
  9
$PICKSTYLE
 70
         1
  9
$CMLSTYLE
  2
STANDARD
  9
$CMLJUST
 70
         0
  9
$CMLSCALE
 40
1.0
  9
$PROXYGRAPHICS
 70
         0
  9
$MEASUREMENT
 70
         0
  0
ENDSEC
  0
SECTION
  2
CLASSES
  0
CLASS
  1
LWPOLYLINE
  2
AcDbPolyline
  3
"AutoCAD"
 90
        0
280
         0
281
         1
  0
CLASS
  1
IMAGE
  2
AcDbRasterImage
  3
ISM
 90
      127
280
         0
281
         1
  0
CLASS
  1
OLE2FRAME
  2
AcDbOle2Frame
  3
""
 90
        0
280
         0
281
         1
  0
CLASS
  1
HATCH
  2
AcDbHatch
  3
"ACAD_SEDONA"
 90
        0
280
         0
281
         1
  0
CLASS
  1
DICTIONARYVAR
  2
AcDbDictionaryVar
  3
"AutoCAD"
 90
        0
280
         0
281
         0
  0
CLASS
  1
RASTERVARIABLES
  2
AcDbRasterVariables
  3
ISM
 90
        0
280
         0
281
         0
  0
CLASS
  1
IMAGEDEF
  2
AcDbRasterImageDef
  3
ISM
 90
        0
280
         0
281
         0
  0
CLASS
  1
IMAGEDEF_REACTOR
  2
AcDbRasterImageDefReactor
  3
ISM
 90
        1
280
         0
281
         0
  0
CLASS
  1
IDBUFFER
  2
AcDbIdBuffer
  3
"Acad"
 90
        0
280
         0
281
         0
  0
CLASS
  1
SPATIAL_FILTER
  2
AcDbSpatialFilter
  3
"Acad"
 90
        0
280
         0
281
         0
  0
CLASS
  1
XRECORD
  2
AcDbXrecord
  3
"<Built In>"
 90
        0
280
         0
281
         0
  0
CLASS
  1
SORTENTSTABLE
  2
AcDbSortentsTable
  3
"AutoCAD"
 90
        0
280
         0
281
         0
  0
CLASS
  1
LAYER_INDEX
  2
AcDbLayerIndex
  3
"Acad"
 90
        0
280
         0
281
         0
  0
CLASS
  1
SPATIAL_INDEX
  2
AcDbSpatialIndex
  3
"Acad"
 90
        0
280
         0
281
         0
  0
CLASS
  1
OBJECT_PTR
  2
CAseDLPNTableRecord
  3
"ASE-LPNTableRecord"
 90
        1
280
         0
281
         0
  0
CLASS
  1
LAYOUT
  2
AcDbLayout
  3
"AutoCAD 2000"
 90
        0
280
         0
281
         0
  0
CLASS
  1
PLOTSETTINGS
  2
AcDbPlotSettings
  3
"AutoCAD 2000"
 90
        0
280
         0
281
         0
  0
CLASS
  1
ACDBDICTIONARYWDFLT
  2
AcDbDictionaryWithDefault
  3
"AutoCAD 2000"
 90
        0
280
         0
281
         0
  0
CLASS
  1
ACDBPLACEHOLDER
  2
AcDbPlaceHolder
  3
"AutoCAD 2000"
 90
        0
280
         0
281
         0
  0
CLASS
  1
VBA_PROJECT
  2
AcDbVbaProject
  3
"acadvba"
 90
        0
280
         0
281
         0
  0
CLASS
  1
WIPEOUT
  2
AcDbWipeout
  3
WipeOut|AutoCAD Express Tool|expresstools@autodesk.com
 90
      127
280
         0
281
         1
  0
CLASS
  1
WIPEOUTVARIABLES
  2
AcDbWipeoutVariables
  3
WipeOut|AutoCAD Express Tool|expresstools@autodesk.com
 90
        0
280
         0
281
         0
  0
CLASS
  1
RTEXT
  2
RText
  3
RText|AutoCAD Express Tool|expresstools@autodesk.com
 90
        0
280
         0
281
         1
  0
CLASS
  1
ARCALIGNEDTEXT
  2
AcDbArcAlignedText
  3
ATEXT|AutoCAD Express Tool|expresstools@autodesk.com
 90
        0
280
         0
281
         1
  0
ENDSEC
  0
SECTION
  2
TABLES
  0
TABLE
  2
VPORT
  5
7
100
AcDbSymbolTable
 70
         1
  0
VPORT
  5
15
100
AcDbSymbolTableRecord
100
AcDbViewportTableRecord
  2
*ACTIVE
 70
         0
 10
0.0
 20
0.0
 11
1.0
 21
1.0
 12
6.591288
 22
4.579184
 13
0.0
 23
0.0
 14
1.0
 24
1.0
 15
0.0
 25
0.0
 16
0.0
 26
0.0
 36
1.0
 17
0.0
 27
0.0
 37
0.0
 40
9.158369
 41
0.688564
 42
50.0
 43
0.0
 44
0.0
 50
0.0
 51
0.0
 71
         0
 72
       100
 73
         1
 74
         1
 75
         0
 76
         0
 77
         0
 78
         0
  0
ENDTAB
  0
TABLE
  2
LTYPE
  5
4
100
AcDbSymbolTable
 70
         3
  0
LTYPE
  5
11
100
AcDbSymbolTableRecord
100
AcDbLinetypeTableRecord
  2
BYBLOCK
 70
        64
  3

 72
        65
 73
         0
 40
0.0
  0
LTYPE
  5
12
100
AcDbSymbolTableRecord
100
AcDbLinetypeTableRecord
  2
BYLAYER
 70
        64
  3

 72
        65
 73
         0
 40
0.0
  0
LTYPE
  5
13
100
AcDbSymbolTableRecord
100
AcDbLinetypeTableRecord
  2
CONTINUOUS
 70
        64
  3
Solid line
 72
        65
 73
         0
 40
0.0
  0
ENDTAB
  0
TABLE
  2
LAYER
  5
2
100
AcDbSymbolTable
 70
        11
  0
LAYER
  5
14
100
AcDbSymbolTableRecord
100
AcDbLayerTableRecord
  2
0
 70
         0
 62
         7
  6
CONTINUOUS
  0
LAYER
  5
24
100
AcDbSymbolTableRecord
100
AcDbLayerTableRecord
  2
ASSEMBLY_OUTLINES_TOP
 70
         0
 62
       104
  6
CONTINUOUS
  0
LAYER
  5
25
100
AcDbSymbolTableRecord
100
AcDbLayerTableRecord
  2
BOARD_OUTLINE
 70
         0
 62
        10
  6
CONTINUOUS
  0
LAYER
  5
26
100
AcDbSymbolTableRecord
100
AcDbLayerTableRecord
  2
DIMENSION-1
 70
         0
 62
       170
  6
CONTINUOUS
  0
LAYER
  5
27
100
AcDbSymbolTableRecord
100
AcDbLayerTableRecord
  2
MOUNTING_HOLES_LAYER_TOP
 70
         0
 62
       104
  6
CONTINUOUS
  0
LAYER
  5
28
100
AcDbSymbolTableRecord
100
AcDbLayerTableRecord
  2
PART_HOLES_LAYER_TOP
 70
         0
 62
       170
  6
CONTINUOUS
  0
LAYER
  5
29
100
AcDbSymbolTableRecord
100
AcDbLayerTableRecord
  2
PART_PADS_LAYER_TOP
 70
         0
 62
        90
  6
CONTINUOUS
  0
LAYER
  5
2A
100
AcDbSymbolTableRecord
100
AcDbLayerTableRecord
  2
PART_PADS_SMD_TOP
 70
         0
 62
        90
  6
CONTINUOUS
  0
LAYER
  5
2B
100
AcDbSymbolTableRecord
100
AcDbLayerTableRecord
  2
PIN_NUMBERS_TOP
 70
         0
 62
         8
  6
CONTINUOUS
  0
LAYER
  5
2C
100
AcDbSymbolTableRecord
100
AcDbLayerTableRecord
  2
SILKSCREEN_OUTLINES_TOP
 70
         0
 62
       104
  6
CONTINUOUS
  0
LAYER
  5
2D
100
AcDbSymbolTableRecord
100
AcDbLayerTableRecord
  2
SILKSCREEN_REF_DES_TOP
 70
         0
 62
        10
  6
CONTINUOUS
  0
ENDTAB
  0
TABLE
  2
STYLE
  5
3
100
AcDbSymbolTable
 70
         4
  0
STYLE
  5
17
100
AcDbSymbolTableRecord
100
AcDbTextStyleTableRecord
  2
STANDARD
 70
         0
 40
0.0
 41
1.0
 50
0.0
 71
         0
 42
0.0
  3
txt
  4

  0
STYLE
  5
5F
100
AcDbSymbolTableRecord
100
AcDbTextStyleTableRecord
  2
ARIAL
 70
         0
 40
0.0
 41
1.0
 50
0.0
 71
         0
 42
0.0
  3
ARIAL.TTF
  4

  0
STYLE
  5
2DB
100
AcDbSymbolTableRecord
100
AcDbTextStyleTableRecord
  2
COURIER_NEW
 70
         0
 40
0.0
 41
1.0
 50
0.0
 71
         0
 42
0.0
  3
COUR.TTF
  4

  0
STYLE
  5
45F
100
AcDbSymbolTableRecord
100
AcDbTextStyleTableRecord
  2
VERIBEST_GERBER_0
 70
         0
 40
0.0
 41
1.0
 50
0.0
 71
         0
 42
0.0
  3
COUR.TTF
  4

  0
ENDTAB
  0
TABLE
  2
VIEW
  5
5
100
AcDbSymbolTable
 70
         0
  0
ENDTAB
  0
TABLE
  2
UCS
  5
6
100
AcDbSymbolTable
 70
         0
  0
ENDTAB
  0
TABLE
  2
APPID
  5
8
100
AcDbSymbolTable
 70
         1
  0
APPID
  5
16
100
AcDbSymbolTableRecord
100
AcDbRegAppTableRecord
  2
ACAD
 70
         0
  0
ENDTAB
  0
TABLE
  2
DIMSTYLE
  5
9
100
AcDbSymbolTable
 70
         1
  0
DIMSTYLE
105
18
100
AcDbSymbolTableRecord
100
AcDbDimStyleTableRecord
  2
STANDARD
 70
         0
  3

  4

  5

  6

  7

 40
1.0
 41
0.18
 42
0.0625
 43
0.38
 44
0.18
 45
0.0
 46
0.0
 47
0.0
 48
0.0
 71
         0
 72
         0
 73
         1
 74
         1
 75
         0
 76
         0
 77
         0
 78
         0
140
0.18
141
0.09
142
0.0
143
25.4
144
1.0
145
0.0
146
1.0
147
0.09
170
         0
171
         2
172
         0
173
         0
174
         0
175
         0
176
         0
177
         0
178
         0
270
         2
271
         4
272
         4
273
         2
274
         2
275
         0
280
         0
281
         0
282
         0
283
         1
284
         0
285
         0
286
         0
287
         3
288
         0
340
17
  0
ENDTAB
  0
TABLE
  2
BLOCK_RECORD
  5
1
100
AcDbSymbolTable
 70
         0
  0
BLOCK_RECORD
  5
A
100
AcDbSymbolTableRecord
100
AcDbBlockTableRecord
  2
*MODEL_SPACE
  0
BLOCK_RECORD
  5
B
100
AcDbSymbolTableRecord
100
AcDbBlockTableRecord
  2
*PAPER_SPACE
  0
ENDTAB
  0
ENDSEC
  0
SECTION
  2
BLOCKS
  0
BLOCK
  5
D
100
AcDbEntity
  8
0
100
AcDbBlockBegin
  2
*MODEL_SPACE
 70
         0
 10
0.0
 20
0.0
 30
0.0
  3
*MODEL_SPACE
  1

  0
ENDBLK
  5
E
100
AcDbEntity
  8
0
100
AcDbBlockEnd
  0
BLOCK
  5
F
100
AcDbEntity
 67
         1
  8
0
100
AcDbBlockBegin
  2
*PAPER_SPACE
 70
         0
 10
0.0
 20
0.0
 30
0.0
  3
*PAPER_SPACE
  1

  0
ENDBLK
  5
10
100
AcDbEntity
 67
         1
  8
0
100
AcDbBlockEnd
  0
ENDSEC
  0
SECTION
  2
ENTITIES
  0
LWPOLYLINE
  5
2E
100
AcDbEntity
  8
ASSEMBLY_OUTLINES_TOP
100
AcDbPolyline
 90
        6
 70
         1
 43
150.0
 10
-20667.501
 20
-3000.0
 10
-22500.0
 20
-1071.053
 10
-22500.0
 20
3000.0
 10
22500.0
 20
3000.0
 10
22500.0
 20
-947.222
 10
20893.478
 20
-3000.0
  0
LWPOLYLINE
  5
2F
100
AcDbEntity
  8
ASSEMBLY_OUTLINES_TOP
100
AcDbPolyline
 90
        6
 70
         1
 43
150.0
 10
-13184.25
 20
6855.0
 10
-15016.749
 20
8783.947
 10
-15016.749
 20
12855.0
 10
15015.75
 20
12855.0
 10
15015.75
 20
8955.0
 10
13415.75
 20
6855.0
  0
LWPOLYLINE
  5
30
100
AcDbEntity
  8
ASSEMBLY_OUTLINES_TOP
100
AcDbPolyline
 90
        6
 70
         1
 43
150.0
 10
-15683.25
 20
-52303.0
 10
-17515.749
 20
-50374.053
 10
-17515.75
 20
-46303.0
 10
17506.75
 20
-46303.0
 10
17506.75
 20
-50194.255
 10
15900.086
 20
-52303.0
  0
CIRCLE
  5
31
100
AcDbEntity
  8
ASSEMBLY_OUTLINES_TOP
100
AcDbCircle
 10
-22000.0
 20
11850.0
 30
0.0
 40
500.0
  0
LWPOLYLINE
  5
32
100
AcDbEntity
  8
ASSEMBLY_OUTLINES_TOP
100
AcDbPolyline
 90
        2
 70
         0
 43
100.0
 10
0.0
 20
15748.0
 10
0.0
 20
12547.6
  0
LWPOLYLINE
  5
33
100
AcDbEntity
  8
ASSEMBLY_OUTLINES_TOP
100
AcDbPolyline
 90
        2
 70
         0
 43
100.0
 10
0.01
 20
11647.5
 10
0.0
 20
11647.5
  0
LWPOLYLINE
  5
34
100
AcDbEntity
  8
ASSEMBLY_OUTLINES_TOP
100
AcDbPolyline
 90
        2
 70
         0
 43
100.0
 10
0.0
 20
10747.4
 10
0.0
 20
7547.0
  0
LWPOLYLINE
  5
35
100
AcDbEntity
  8
ASSEMBLY_OUTLINES_TOP
100
AcDbPolyline
 90
        2
 70
         0
 43
100.0
 10
0.01
 20
6646.9
 10
0.0
 20
6646.9
  0
LWPOLYLINE
  5
36
100
AcDbEntity
  8
ASSEMBLY_OUTLINES_TOP
100
AcDbPolyline
 90
        2
 70
         0
 43
100.0
 10
0.0
 20
5746.8
 10
0.0
 20
2546.4
  0
LWPOLYLINE
  5
37
100
AcDbEntity
  8
ASSEMBLY_OUTLINES_TOP
100
AcDbPolyline
 90
        2
 70
         0
 43
100.0
 10
0.01
 20
1646.3
 10
0.0
 20
1646.3
  0
LWPOLYLINE
  5
38
100
AcDbEntity
  8
ASSEMBLY_OUTLINES_TOP
100
AcDbPolyline
 90
        2
 70
         0
 43
100.0
 10
0.0
 20
746.2
 10
0.0
 20
-2454.2
  0
LWPOLYLINE
  5
39
100
AcDbEntity
  8
ASSEMBLY_OUTLINES_TOP
100
AcDbPolyline
 90
        2
 70
         0
 43
100.0
 10
0.01
 20
-3354.3
 10
0.0
 20
-3354.3
  0
LWPOLYLINE
  5
3A
100
AcDbEntity
  8
ASSEMBLY_OUTLINES_TOP
100
AcDbPolyline
 90
        2
 70
         0
 43
100.0
 10
0.0
 20
-4254.4
 10
0.0
 20
-7454.8
  0
LWPOLYLINE
  5
3B
100
AcDbEntity
  8
ASSEMBLY_OUTLINES_TOP
100
AcDbPolyline
 90
        2
 70
         0
 43
100.0
 10
0.01
 20
-8354.9
 10
0.0
 20
-8354.9
  0
LWPOLYLINE
  5
3C
100
AcDbEntity
  8
ASSEMBLY_OUTLINES_TOP
100
AcDbPolyline
 90
        2
 70
         0
 43
100.0
 10
0.0
 20
-9255.0
 10
0.0
 20
-12455.4
  0
LWPOLYLINE
  5
3D
100
AcDbEntity
  8
ASSEMBLY_OUTLINES_TOP
100
AcDbPolyline
 90
        2
 70
         0
 43
100.0
 10
0.01
 20
-13355.5
 10
0.0
 20
-13355.5
  0
LWPOLYLINE
  5
3E
100
AcDbEntity
  8
ASSEMBLY_OUTLINES_TOP
100
AcDbPolyline
 90
        2
 70
         0
 43
100.0
 10
0.0
 20
-14255.6
 10
0.0
 20
-17456.0
  0
LWPOLYLINE
  5
3F
100
AcDbEntity
  8
ASSEMBLY_OUTLINES_TOP
100
AcDbPolyline
 90
        2
 70
         0
 43
100.0
 10
0.01
 20
-18356.1
 10
0.0
 20
-18356.1
  0
LWPOLYLINE
  5
40
100
AcDbEntity
  8
ASSEMBLY_OUTLINES_TOP
100
AcDbPolyline
 90
        2
 70
         0
 43
100.0
 10
0.0
 20
-19256.2
 10
0.0
 20
-22456.6
  0
LWPOLYLINE
  5
41
100
AcDbEntity
  8
ASSEMBLY_OUTLINES_TOP
100
AcDbPolyline
 90
        2
 70
         0
 43
100.0
 10
0.01
 20
-23356.7
 10
0.0
 20
-23356.7
  0
LWPOLYLINE
  5
42
100
AcDbEntity
  8
ASSEMBLY_OUTLINES_TOP
100
AcDbPolyline
 90
        2
 70
         0
 43
100.0
 10
0.0
 20
-24256.8
 10
0.0
 20
-27457.2
  0
LWPOLYLINE
  5
43
100
AcDbEntity
  8
ASSEMBLY_OUTLINES_TOP
100
AcDbPolyline
 90
        2
 70
         0
 43
100.0
 10
0.01
 20
-28357.3
 10
0.0
 20
-28357.3
  0
LWPOLYLINE
  5
44
100
AcDbEntity
  8
ASSEMBLY_OUTLINES_TOP
100
AcDbPolyline
 90
        2
 70
         0
 43
100.0
 10
0.0
 20
-29257.4
 10
0.0
 20
-32457.8
  0
LWPOLYLINE
  5
45
100
AcDbEntity
  8
ASSEMBLY_OUTLINES_TOP
100
AcDbPolyline
 90
        2
 70
         0
 43
100.0
 10
0.01
 20
-33357.9
 10
0.0
 20
-33357.9
  0
LWPOLYLINE
  5
46
100
AcDbEntity
  8
ASSEMBLY_OUTLINES_TOP
100
AcDbPolyline
 90
        2
 70
         0
 43
100.0
 10
0.0
 20
-34258.0
 10
0.0
 20
-37458.4
  0
LWPOLYLINE
  5
47
100
AcDbEntity
  8
ASSEMBLY_OUTLINES_TOP
100
AcDbPolyline
 90
        2
 70
         0
 43
100.0
 10
0.01
 20
-38358.5
 10
0.0
 20
-38358.5
  0
LWPOLYLINE
  5
48
100
AcDbEntity
  8
ASSEMBLY_OUTLINES_TOP
100
AcDbPolyline
 90
        2
 70
         0
 43
100.0
 10
0.0
 20
-39258.6
 10
0.0
 20
-42459.0
  0
LWPOLYLINE
  5
49
100
AcDbEntity
  8
ASSEMBLY_OUTLINES_TOP
100
AcDbPolyline
 90
        2
 70
         0
 43
100.0
 10
0.01
 20
-43359.1
 10
0.0
 20
-43359.1
  0
LWPOLYLINE
  5
4A
100
AcDbEntity
  8
ASSEMBLY_OUTLINES_TOP
100
AcDbPolyline
 90
        2
 70
         0
 43
100.0
 10
0.0
 20
-44259.2
 10
0.0
 20
-47459.6
  0
LWPOLYLINE
  5
4B
100
AcDbEntity
  8
ASSEMBLY_OUTLINES_TOP
100
AcDbPolyline
 90
        2
 70
         0
 43
100.0
 10
0.01
 20
-48359.7
 10
0.0
 20
-48359.7
  0
LWPOLYLINE
  5
4C
100
AcDbEntity
  8
ASSEMBLY_OUTLINES_TOP
100
AcDbPolyline
 90
        2
 70
         0
 43
100.0
 10
0.0
 20
-49259.8
 10
0.0
 20
-52460.2
  0
LWPOLYLINE
  5
4D
100
AcDbEntity
  8
ASSEMBLY_OUTLINES_TOP
100
AcDbPolyline
 90
        2
 70
         0
 43
100.0
 10
0.01
 20
-53360.3
 10
0.0
 20
-53360.3
  0
LWPOLYLINE
  5
4E
100
AcDbEntity
  8
ASSEMBLY_OUTLINES_TOP
100
AcDbPolyline
 90
        2
 70
         0
 43
100.0
 10
0.0
 20
-54260.4
 10
0.0
 20
-56642.0
  0
LWPOLYLINE
  5
4F
100
AcDbEntity
  8
ASSEMBLY_OUTLINES_TOP
100
AcDbPolyline
 90
        2
 70
         0
 43
100.0
 10
-22000.0
 20
11850.0
 10
-18799.6
 20
11850.0
  0
LWPOLYLINE
  5
50
100
AcDbEntity
  8
ASSEMBLY_OUTLINES_TOP
100
AcDbPolyline
 90
        2
 70
         0
 43
100.0
 10
-17899.5
 20
11850.0
 10
-14699.1
 20
11850.0
  0
LWPOLYLINE
  5
51
100
AcDbEntity
  8
ASSEMBLY_OUTLINES_TOP
100
AcDbPolyline
 90
        2
 70
         0
 43
100.0
 10
-13799.0
 20
11850.0
 10
-10598.6
 20
11850.0
  0
LWPOLYLINE
  5
52
100
AcDbEntity
  8
ASSEMBLY_OUTLINES_TOP
100
AcDbPolyline
 90
        2
 70
         0
 43
100.0
 10
-9698.5
 20
11850.0
 10
-6498.1
 20
11850.0
  0
LWPOLYLINE
  5
53
100
AcDbEntity
  8
ASSEMBLY_OUTLINES_TOP
100
AcDbPolyline
 90
        2
 70
         0
 43
100.0
 10
-5598.0
 20
11850.0
 10
-2397.6
 20
11850.0
  0
LWPOLYLINE
  5
54
100
AcDbEntity
  8
ASSEMBLY_OUTLINES_TOP
100
AcDbPolyline
 90
        2
 70
         0
 43
100.0
 10
-1497.5
 20
11850.0
 10
1702.9
 20
11850.0
  0
LWPOLYLINE
  5
55
100
AcDbEntity
  8
ASSEMBLY_OUTLINES_TOP
100
AcDbPolyline
 90
        2
 70
         0
 43
100.0
 10
2603.0
 20
11850.0
 10
5803.4
 20
11850.0
  0
LWPOLYLINE
  5
56
100
AcDbEntity
  8
ASSEMBLY_OUTLINES_TOP
100
AcDbPolyline
 90
        2
 70
         0
 43
100.0
 10
6703.5
 20
11850.0
 10
9903.9
 20
11850.0
  0
LWPOLYLINE
  5
57
100
AcDbEntity
  8
ASSEMBLY_OUTLINES_TOP
100
AcDbPolyline
 90
        2
 70
         0
 43
100.0
 10
10804.0
 20
11850.0
 10
14004.4
 20
11850.0
  0
LWPOLYLINE
  5
58
100
AcDbEntity
  8
ASSEMBLY_OUTLINES_TOP
100
AcDbPolyline
 90
        2
 70
         0
 43
100.0
 10
14904.5
 20
11850.0
 10
18104.9
 20
11850.0
  0
LWPOLYLINE
  5
59
100
AcDbEntity
  8
ASSEMBLY_OUTLINES_TOP
100
AcDbPolyline
 90
        2
 70
         0
 43
100.0
 10
19005.0
 20
11850.0
 10
22000.0
 20
11850.0
  0
CIRCLE
  5
5A
100
AcDbEntity
  8
ASSEMBLY_OUTLINES_TOP
100
AcDbCircle
 10
22000.0
 20
-52158.0
 30
0.0
 40
2500.0
  0
LWPOLYLINE
  5
5B
100
AcDbEntity
  8
ASSEMBLY_OUTLINES_TOP
100
AcDbPolyline
 90
        4
 70
         1
 10
-30000.0
 20
-55150.0
 10
-30000.0
 20
14850.0
 10
30000.0
 20
14850.0
 10
30000.0
 20
-55150.0
  0
LWPOLYLINE
  5
5C
100
AcDbEntity
  8
ASSEMBLY_OUTLINES_TOP
100
AcDbPolyline
 90
        4
 70
         1
 10
-30000.0
 20
-55150.0
 10
-30000.0
 20
14850.0
 10
30000.0
 20
14850.0
 10
30000.0
 20
-55150.0
  0
LWPOLYLINE
  5
5D
100
AcDbEntity
  8
ASSEMBLY_OUTLINES_TOP
100
AcDbPolyline
 90
        4
 70
         1
 43
100.0
 10
-30000.0
 20
-55150.0
 10
-30000.0
 20
14850.0
 10
30000.0
 20
14850.0
 10
30000.0
 20
-55150.0
  0
LWPOLYLINE
  5
5E
100
AcDbEntity
  8
BOARD_OUTLINE
100
AcDbPolyline
 90
        4
 70
         1
 43
0.001
 10
-254000.0
 20
-254000.0
 10
-254000.0
 20
254000.0
 10
254000.0
 20
254000.0
 10
254000.0
 20
-254000.0
  0
TEXT
  5
60
100
AcDbEntity
  8
DIMENSION-1
100
AcDbText
 10
-2520.949
 20
-68600.51
 30
0.0
 40
1270.0
  1
44mm
  7
ARIAL
 72
         1
 11
0.001
 21
-67940.11
 31
0.0
100
AcDbText
 73
         2
  0
TEXT
  5
61
100
AcDbEntity
  8
DIMENSION-1
100
AcDbText
 10
4777.002
 20
-63144.4
 30
0.0
 40
1270.0
  1
D2.2mm
  7
ARIAL
 72
         1
 11
8205.367
 21
-62484.0
 31
0.0
100
AcDbText
 73
         2
  0
TEXT
  5
62
100
AcDbEntity
  8
DIMENSION-1
100
AcDbText
 10
-44647.523
 20
-4883.409
 30
0.0
 40
1500.0
  1
5.08mm
 50
90.0
  7
ARIAL
 72
         1
 11
-45427.523
 21
-1011.909
 31
0.0
100
AcDbText
 73
         2
  0
TEXT
  5
63
100
AcDbEntity
  8
DIMENSION-1
100
AcDbText
 10
-41948.463
 20
-8640.389
 30
0.0
 40
1500.0
  1
8.77mm
 50
90.0
  7
ARIAL
 72
         1
 11
-42728.463
 21
-4768.889
 31
0.0
100
AcDbText
 73
         2
  0
TEXT
  5
64
100
AcDbEntity
  8
DIMENSION-1
100
AcDbText
 10
-39556.423
 20
-9455.409
 30
0.0
 40
1500.0
  1
9.82mm
 50
90.0
  7
ARIAL
 72
         1
 11
-40336.423
 21
-5583.909
 31
0.0
100
AcDbText
 73
         2
  0
TEXT
  5
65
100
AcDbEntity
  8
DIMENSION-1
100
AcDbText
 10
11219.997
 20
-42936.077
 30
0.0
 40
1500.0
  1
0.5mm
  7
ARIAL
 72
         1
 11
14495.247
 21
-42156.077
 31
0.0
100
AcDbText
 73
         2
  0
TEXT
  5
66
100
AcDbEntity
  8
DIMENSION-1
100
AcDbText
 10
-4468.251
 20
20100.052
 30
0.0
 40
1500.0
  1
28.48mm
  7
ARIAL
 72
         1
 11
-0.501
 21
20880.052
 31
0.0
100
AcDbText
 73
         2
  0
TEXT
  5
67
100
AcDbEntity
  8
DIMENSION-1
100
AcDbText
 10
-5552.389
 20
8928.953
 30
0.0
 40
1500.0
  1
D1.1mm
  7
ARIAL
 72
         1
 11
-1503.139
 21
9708.953
 31
0.0
100
AcDbText
 73
         2
  0
TEXT
  5
68
100
AcDbEntity
  8
DIMENSION-1
100
AcDbText
 10
-13129.311
 20
-1066.753
 30
0.0
 40
1500.0
  1
D1.1mm
  7
ARIAL
 72
         1
 11
-9080.061
 21
-286.753
 31
0.0
100
AcDbText
 73
         2
  0
TEXT
  5
69
100
AcDbEntity
  8
DIMENSION-1
100
AcDbText
 10
-8388.879
 20
-50141.881
 30
0.0
 40
1500.0
  1
D1.1mm
  7
ARIAL
 72
         1
 11
-4339.629
 21
-49361.881
 31
0.0
100
AcDbText
 73
         2
  0
TEXT
  5
6A
100
AcDbEntity
  8
DIMENSION-1
100
AcDbText
 10
34425.766
 20
-26490.499
 30
0.0
 40
1500.0
  1
49.3mm
 50
90.0
  7
ARIAL
 72
         1
 11
33645.766
 21
-22618.999
 31
0.0
100
AcDbText
 73
         2
  0
TEXT
  5
6B
100
AcDbEntity
  8
DIMENSION-1
100
AcDbText
 10
-34036.707
 20
16124.427
 30
0.0
 40
1500.0
  1
1.09mm
 50
90.0
  7
ARIAL
 72
         1
 11
-34816.707
 21
19995.927
 31
0.0
100
AcDbText
 73
         2
  0
TEXT
  5
6C
100
AcDbEntity
  8
DIMENSION-1
100
AcDbText
 10
-36698.398
 20
-12925.05
 30
0.0
 40
1500.0
  1
14.94mm
 50
90.0
  7
ARIAL
 72
         1
 11
-37478.398
 21
-8457.3
 31
0.0
100
AcDbText
 73
         2
  0
TEXT
  5
6D
100
AcDbEntity
  8
DIMENSION-1
100
AcDbText
 10
-11297.708
 20
-61202.9
 30
0.0
 40
1270.0
  1
7.25mm
  7
ARIAL
 72
         1
 11
-8019.838
 21
-60542.5
 31
0.0
100
AcDbText
 73
         2
  0
TEXT
  5
6E
100
AcDbEntity
  8
DIMENSION-1
100
AcDbText
 10
-11615.64
 20
-64700.3
 30
0.0
 40
1270.0
  1
5.26mm
  7
ARIAL
 72
         1
 11
-8337.77
 21
-64039.9
 31
0.0
100
AcDbText
 73
         2
  0
TEXT
  5
6F
100
AcDbEntity
  8
DIMENSION-1
100
AcDbText
 10
-35997.593
 20
-61868.54
 30
0.0
 40
1270.0
  1
0.23mm
 50
90.0
  7
ARIAL
 72
         1
 11
-36657.993
 21
-58590.67
 31
0.0
100
AcDbText
 73
         2
  0
TEXT
  5
70
100
AcDbEntity
  8
DIMENSION-1
100
AcDbText
 10
-44473.084
 20
-44114.257
 30
0.0
 40
1270.0
  1
4.88mm
 50
90.0
  7
ARIAL
 72
         1
 11
-45133.484
 21
-40836.387
 31
0.0
100
AcDbText
 73
         2
  0
TEXT
  5
71
100
AcDbEntity
  8
DIMENSION-1
100
AcDbText
 10
-39980.746
 20
-43060.258
 30
0.0
 40
1270.0
  1
5.93mm
 50
90.0
  7
ARIAL
 72
         1
 11
-40641.146
 21
-39782.388
 31
0.0
100
AcDbText
 73
         2
  0
TEXT
  5
72
100
AcDbEntity
  8
DIMENSION-1
100
AcDbText
 10
36812.922
 20
-22670.95
 30
0.0
 40
1270.0
  1
64mm
 50
90.0
  7
ARIAL
 72
         1
 11
36152.522
 21
-20150.0
 31
0.0
100
AcDbText
 73
         2
  0
TEXT
  5
73
100
AcDbEntity
  8
DIMENSION-1
100
AcDbText
 10
-17203.446
 20
23216.882
 30
0.0
 40
1270.0
  1
2.25mm
  7
ARIAL
 72
         1
 11
-13925.576
 21
23877.282
 31
0.0
100
AcDbText
 73
         2
  0
TEXT
  5
74
100
AcDbEntity
  8
DIMENSION-1
100
AcDbText
 10
-11479.758
 20
15590.368
 30
0.0
 40
1270.0
  1
9.75mm
  7
ARIAL
 72
         1
 11
-8201.888
 21
16250.768
 31
0.0
100
AcDbText
 73
         2
  0
TEXT
  5
75
100
AcDbEntity
  8
DIMENSION-1
100
AcDbText
 10
-11157.001
 20
18124.269
 30
0.0
 40
1270.0
  1
7.76mm
  7
ARIAL
 72
         1
 11
-7879.131
 21
18784.669
 31
0.0
100
AcDbText
 73
         2
  0
TEXT
  5
76
100
AcDbEntity
  8
DIMENSION-1
100
AcDbText
 10
-18305.188
 20
25232.103
 30
0.0
 40
1270.0
  1
0.26mm
  7
ARIAL
 72
         1
 11
-15027.318
 21
25892.503
 31
0.0
100
AcDbText
 73
         2
  0
TEXT
  5
77
100
AcDbEntity
  8
DIMENSION-1
100
AcDbText
 10
4778.044
 20
-58274.537
 30
0.0
 40
1500.0
  1
D5mm
  7
ARIAL
 72
         1
 11
7933.294
 21
-57494.537
 31
0.0
100
AcDbText
 73
         2
  0
TEXT
  5
78
100
AcDbEntity
  8
DIMENSION-1
100
AcDbText
 10
-28016.125
 20
-58204.604
 30
0.0
 40
1270.0
  1
8mm
  7
ARIAL
 72
         1
 11
-26000.0
 21
-57544.204
 31
0.0
100
AcDbText
 73
         2
  0
TEXT
  5
79
100
AcDbEntity
  8
DIMENSION-1
100
AcDbText
 10
-2977.5
 20
26317.012
 30
0.0
 40
1500.0
  1
60mm
  7
ARIAL
 72
         1
 11
0.0
 21
27097.012
 31
0.0
100
AcDbText
 73
         2
  0
TEXT
  5
7A
100
AcDbEntity
  8
DIMENSION-1
100
AcDbText
 10
39470.174
 20
-23127.499
 30
0.0
 40
1500.0
  1
70mm
 50
90.0
  7
ARIAL
 72
         1
 11
38690.174
 21
-20149.999
 31
0.0
100
AcDbText
 73
         2
  0
TEXT
  5
7B
100
AcDbEntity
  8
DIMENSION-1
100
AcDbText
 10
-31679.249
 20
17959.912
 30
0.0
 40
1500.0
  1
3mm
 50
90.0
  7
ARIAL
 72
         1
 11
-32459.249
 21
20341.162
 31
0.0
100
AcDbText
 73
         2
  0
TEXT
  5
7C
100
AcDbEntity
  8
DIMENSION-1
100
AcDbText
 10
-32318.427
 20
-62696.243
 30
0.0
 40
1270.0
  1
3mm
 50
90.0
  7
ARIAL
 72
         1
 11
-32978.827
 21
-60680.118
 31
0.0
100
AcDbText
 73
         2
  0
TEXT
  5
7D
100
AcDbEntity
  8
DIMENSION-1
100
AcDbText
 10
4826.0
 20
-59726.0
 30
0.0
 40
1500.0
  1
pad
  7
ARIAL
 11
4826.0
 21
-58166.0
 31
0.0
100
AcDbText
 73
         3
  0
TEXT
  5
7E
100
AcDbEntity
  8
DIMENSION-1
100
AcDbText
 10
3302.0
 20
-65568.0
 30
0.0
 40
1500.0
  1
mounting hole
  7
ARIAL
 11
3302.0
 21
-64008.0
 31
0.0
100
AcDbText
 73
         3
  0
LWPOLYLINE
  5
7F
100
AcDbEntity
  8
DIMENSION-1
100
AcDbPolyline
 90
        2
 70
         0
 43
203.2
 10
7250.001
 20
-45707.001
 10
7250.001
 20
-41632.912
  0
LWPOLYLINE
  5
80
100
AcDbEntity
  8
DIMENSION-1
100
AcDbPolyline
 90
        2
 70
         0
 43
203.2
 10
7750.001
 20
-45707.001
 10
7750.001
 20
-41632.912
  0
LWPOLYLINE
  5
81
100
AcDbEntity
  8
DIMENSION-1
100
AcDbPolyline
 90
        2
 70
         0
 43
203.2
 10
6678.501
 20
-42140.912
 10
4392.501
 20
-42140.912
  0
LWPOLYLINE
  5
82
100
AcDbEntity
  8
DIMENSION-1
100
AcDbPolyline
 90
        2
 70
         0
 43
203.2
 10
8321.501
 20
-42140.912
 10
10607.501
 20
-42140.912
  0
LWPOLYLINE
  5
83
100
AcDbEntity
  8
DIMENSION-1
100
AcDbPolyline
 90
        3
 70
         1
 10
7250.001
 20
-42140.912
 10
6107.001
 20
-42712.411
 10
6107.001
 20
-41569.412
  0
HATCH
  5
84
100
AcDbEntity
  8
DIMENSION-1
100
AcDbHatch
 10
0.0
 20
0.0
 30
0.0
210
0.0
220
0.0
230
1.0
  2
SOLID
 70
         1
 71
         1
 91
        1
 92
        2
 72
         0
 73
         1
 93
        3
 10
7250.0010000000002
 20
-42140.911999999997
 10
6107.0010000000002
 20
-42712.411
 10
6107.0010000000002
 20
-41569.411999999997
 97
        1
330
83
 75
         0
 76
         1
 98
        1
 10
0.0
 20
0.0
  0
LWPOLYLINE
  5
85
100
AcDbEntity
  8
DIMENSION-1
100
AcDbPolyline
 90
        3
 70
         1
 10
7750.001
 20
-42140.912
 10
8893.001
 20
-41569.412
 10
8893.001
 20
-42712.412
  0
HATCH
  5
86
100
AcDbEntity
  8
DIMENSION-1
100
AcDbHatch
 10
0.0
 20
0.0
 30
0.0
210
0.0
220
0.0
230
1.0
  2
SOLID
 70
         1
 71
         1
 91
        1
 92
        2
 72
         0
 73
         1
 93
        3
 10
7750.0010000000002
 20
-42140.911999999997
 10
8893.0010000000002
 20
-41569.411999999997
 10
8893.0010000000002
 20
-42712.411999999997
 97
        1
330
85
 75
         0
 76
         1
 98
        1
 10
0.0
 20
0.0
  0
LWPOLYLINE
  5
87
100
AcDbEntity
  8
DIMENSION-1
100
AcDbPolyline
 90
        2
 70
         0
 43
203.2
 10
-14238.0
 20
12394.0
 10
-14238.0
 20
21388.053
  0
LWPOLYLINE
  5
88
100
AcDbEntity
  8
DIMENSION-1
100
AcDbPolyline
 90
        2
 70
         0
 43
203.2
 10
14237.0
 20
12394.0
 10
14237.0
 20
21388.053
  0
LWPOLYLINE
  5
89
100
AcDbEntity
  8
DIMENSION-1
100
AcDbPolyline
 90
        2
 70
         0
 43
203.2
 10
-13666.5
 20
20880.053
 10
-4926.588
 20
20880.053
  0
LWPOLYLINE
  5
8A
100
AcDbEntity
  8
DIMENSION-1
100
AcDbPolyline
 90
        2
 70
         0
 43
203.2
 10
4925.588
 20
20880.053
 10
13665.5
 20
20880.053
  0
LWPOLYLINE
  5
8B
100
AcDbEntity
  8
DIMENSION-1
100
AcDbPolyline
 90
        3
 70
         1
 10
-14238.0
 20
20880.053
 10
-13095.0
 20
21451.553
 10
-13095.0
 20
20308.553
  0
HATCH
  5
8C
100
AcDbEntity
  8
DIMENSION-1
100
AcDbHatch
 10
0.0
 20
0.0
 30
0.0
210
0.0
220
0.0
230
1.0
  2
SOLID
 70
         1
 71
         1
 91
        1
 92
        2
 72
         0
 73
         1
 93
        3
 10
-14238.0
 20
20880.053
 10
-13095.0
 20
21451.553
 10
-13095.0
 20
20308.553
 97
        1
330
8B
 75
         0
 76
         1
 98
        1
 10
0.0
 20
0.0
  0
LWPOLYLINE
  5
8D
100
AcDbEntity
  8
DIMENSION-1
100
AcDbPolyline
 90
        3
 70
         1
 10
14237.0
 20
20880.053
 10
13094.0
 20
20308.554
 10
13094.0
 20
21451.553
  0
HATCH
  5
8E
100
AcDbEntity
  8
DIMENSION-1
100
AcDbHatch
 10
0.0
 20
0.0
 30
0.0
210
0.0
220
0.0
230
1.0
  2
SOLID
 70
         1
 71
         1
 91
        1
 92
        2
 72
         0
 73
         1
 93
        3
 10
14237.0
 20
20880.053
 10
13094.0
 20
20308.554
 10
13094.0
 20
21451.553
 97
        1
330
8D
 75
         0
 76
         1
 98
        1
 10
0.0
 20
0.0
  0
LWPOLYLINE
  5
8F
100
AcDbEntity
  8
DIMENSION-1
100
AcDbPolyline
 90
        2
 70
         0
 43
203.2
 10
-6396.201
 20
9708.953
 10
-10896.201
 20
9708.953
  0
LWPOLYLINE
  5
90
100
AcDbEntity
  8
DIMENSION-1
100
AcDbPolyline
 90
        2
 70
         0
 43
203.2
 10
-10896.201
 20
9708.953
 10
-13777.163
 20
11585.783
  0
LWPOLYLINE
  5
91
100
AcDbEntity
  8
DIMENSION-1
100
AcDbPolyline
 90
        3
 70
         1
 10
-13777.163
 20
11585.783
 10
-12507.51
 20
11440.73
 10
-13131.414
 20
10483.029
  0
HATCH
  5
92
100
AcDbEntity
  8
DIMENSION-1
100
AcDbHatch
 10
0.0
 20
0.0
 30
0.0
210
0.0
220
0.0
230
1.0
  2
SOLID
 70
         1
 71
         1
 91
        1
 92
        2
 72
         0
 73
         1
 93
        3
 10
-13777.163
 20
11585.782999999999
 10
-12507.51
 20
11440.73
 10
-13131.414000000001
 20
10483.029
 97
        1
330
91
 75
         0
 76
         1
 98
        1
 10
0.0
 20
0.0
  0
LWPOLYLINE
  5
93
100
AcDbEntity
  8
DIMENSION-1
100
AcDbPolyline
 90
        2
 70
         0
 43
203.2
 10
-13973.123
 20
-286.753
 10
-18473.123
 20
-286.753
  0
LWPOLYLINE
  5
94
100
AcDbEntity
  8
DIMENSION-1
100
AcDbPolyline
 90
        2
 70
         0
 43
203.2
 10
-18473.123
 20
-286.753
 10
-21289.519
 20
1712.621
  0
LWPOLYLINE
  5
95
100
AcDbEntity
  8
DIMENSION-1
100
AcDbPolyline
 90
        3
 70
         1
 10
-21289.519
 20
1712.621
 10
-20026.671
 20
1516.985
 10
-20688.32
 20
584.96
  0
HATCH
  5
96
100
AcDbEntity
  8
DIMENSION-1
100
AcDbHatch
 10
0.0
 20
0.0
 30
0.0
210
0.0
220
0.0
230
1.0
  2
SOLID
 70
         1
 71
         1
 91
        1
 92
        2
 72
         0
 73
         1
 93
        3
 10
-21289.519
 20
1712.6210000000001
 10
-20026.670999999998
 20
1516.9849999999999
 10
-20688.32
 20
584.96000000000004
 97
        1
330
95
 75
         0
 76
         1
 98
        1
 10
0.0
 20
0.0
  0
LWPOLYLINE
  5
97
100
AcDbEntity
  8
DIMENSION-1
100
AcDbPolyline
 90
        2
 70
         0
 43
203.2
 10
-8844.131
 20
-49361.881
 10
-13344.131
 20
-49361.881
  0
LWPOLYLINE
  5
98
100
AcDbEntity
  8
DIMENSION-1
100
AcDbPolyline
 90
        2
 70
         0
 43
203.2
 10
-13344.131
 20
-49361.881
 10
-16269.855
 20
-47557.688
  0
LWPOLYLINE
  5
99
100
AcDbEntity
  8
DIMENSION-1
100
AcDbPolyline
 90
        3
 70
         1
 10
-16269.855
 20
-47557.688
 10
-14996.993
 20
-47671.19
 10
-15596.94
 20
-48644.079
  0
HATCH
  5
9A
100
AcDbEntity
  8
DIMENSION-1
100
AcDbHatch
 10
0.0
 20
0.0
 30
0.0
210
0.0
220
0.0
230
1.0
  2
SOLID
 70
         1
 71
         1
 91
        1
 92
        2
 72
         0
 73
         1
 93
        3
 10
-16269.855
 20
-47557.688000000002
 10
-14996.993
 20
-47671.190000000002
 10
-15596.940000000001
 20
-48644.078999999998
 97
        1
330
99
 75
         0
 76
         1
 98
        1
 10
0.0
 20
0.0
  0
LWPOLYLINE
  5
9B
100
AcDbEntity
  8
DIMENSION-1
100
AcDbPolyline
 90
        2
 70
         0
 43
203.2
 10
22245.0
 20
2031.0
 10
34153.767
 20
2031.0
  0
LWPOLYLINE
  5
9C
100
AcDbEntity
  8
DIMENSION-1
100
AcDbPolyline
 90
        2
 70
         0
 43
203.2
 10
17244.0
 20
-47269.0
 10
34153.767
 20
-47269.0
  0
LWPOLYLINE
  5
9D
100
AcDbEntity
  8
DIMENSION-1
100
AcDbPolyline
 90
        2
 70
         0
 43
203.2
 10
33645.767
 20
1459.5
 10
33645.767
 20
-18318.975
  0
LWPOLYLINE
  5
9E
100
AcDbEntity
  8
DIMENSION-1
100
AcDbPolyline
 90
        2
 70
         0
 43
203.2
 10
33645.767
 20
-26919.024
 10
33645.767
 20
-46697.5
  0
LWPOLYLINE
  5
9F
100
AcDbEntity
  8
DIMENSION-1
100
AcDbPolyline
 90
        3
 70
         1
 10
33645.767
 20
2031.0
 10
34217.266
 20
888.0
 10
33074.267
 20
888.001
  0
HATCH
  5
A0
100
AcDbEntity
  8
DIMENSION-1
100
AcDbHatch
 10
0.0
 20
0.0
 30
0.0
210
0.0
220
0.0
230
1.0
  2
SOLID
 70
         1
 71
         1
 91
        1
 92
        2
 72
         0
 73
         1
 93
        3
 10
33645.767
 20
2031.0
 10
34217.266000000003
 20
888.0
 10
33074.267
 20
888.00099999999998
 97
        1
330
9F
 75
         0
 76
         1
 98
        1
 10
0.0
 20
0.0
  0
LWPOLYLINE
  5
A1
100
AcDbEntity
  8
DIMENSION-1
100
AcDbPolyline
 90
        3
 70
         1
 10
33645.767
 20
-47269.0
 10
33074.267
 20
-46126.0
 10
34217.267
 20
-46126.0
  0
HATCH
  5
A2
100
AcDbEntity
  8
DIMENSION-1
100
AcDbHatch
 10
0.0
 20
0.0
 30
0.0
210
0.0
220
0.0
230
1.0
  2
SOLID
 70
         1
 71
         1
 91
        1
 92
        2
 72
         0
 73
         1
 93
        3
 10
33645.767
 20
-47269.0
 10
33074.267
 20
-46126.0
 10
34217.267
 20
-46126.0
 97
        1
330
A1
 75
         0
 76
         1
 98
        1
 10
0.0
 20
0.0
  0
LWPOLYLINE
  5
A3
100
AcDbEntity
  8
DIMENSION-1
100
AcDbPolyline
 90
        2
 70
         0
 43
203.2
 10
-12257.996
 20
12940.002
 10
-35324.707
 20
12940.002
  0
LWPOLYLINE
  5
A4
100
AcDbEntity
  8
DIMENSION-1
100
AcDbPolyline
 90
        2
 70
         0
 43
203.2
 10
-22508.0
 20
11850.0
 10
-35324.707
 20
11850.0
  0
LWPOLYLINE
  5
A5
100
AcDbEntity
  8
DIMENSION-1
100
AcDbPolyline
 90
        2
 70
         0
 43
203.2
 10
-34816.707
 20
13511.502
 10
-34816.707
 20
15797.502
  0
LWPOLYLINE
  5
A6
100
AcDbEntity
  8
DIMENSION-1
100
AcDbPolyline
 90
        2
 70
         0
 43
203.2
 10
-34816.707
 20
11278.5
 10
-34816.707
 20
8992.5
  0
LWPOLYLINE
  5
A7
100
AcDbEntity
  8
DIMENSION-1
100
AcDbPolyline
 90
        3
 70
         1
 10
-34816.707
 20
12940.002
 10
-35388.207
 20
14083.002
 10
-34245.207
 20
14083.002
  0
HATCH
  5
A8
100
AcDbEntity
  8
DIMENSION-1
100
AcDbHatch
 10
0.0
 20
0.0
 30
0.0
210
0.0
220
0.0
230
1.0
  2
SOLID
 70
         1
 71
         1
 91
        1
 92
        2
 72
         0
 73
         1
 93
        3
 10
-34816.707000000002
 20
12940.002
 10
-35388.207000000002
 20
14083.002
 10
-34245.207000000002
 20
14083.002
 97
        1
330
A7
 75
         0
 76
         1
 98
        1
 10
0.0
 20
0.0
  0
LWPOLYLINE
  5
A9
100
AcDbEntity
  8
DIMENSION-1
100
AcDbPolyline
 90
        3
 70
         1
 10
-34816.707
 20
11850.0
 10
-34245.208
 20
10707.0
 10
-35388.207
 20
10707.001
  0
HATCH
  5
AA
100
AcDbEntity
  8
DIMENSION-1
100
AcDbHatch
 10
0.0
 20
0.0
 30
0.0
210
0.0
220
0.0
230
1.0
  2
SOLID
 70
         1
 71
         1
 91
        1
 92
        2
 72
         0
 73
         1
 93
        3
 10
-34816.707000000002
 20
11850.0
 10
-34245.207999999999
 20
10707.0
 10
-35388.207000000002
 20
10707.001
 97
        1
330
A9
 75
         0
 76
         1
 98
        1
 10
0.0
 20
0.0
  0
LWPOLYLINE
  5
AB
100
AcDbEntity
  8
DIMENSION-1
100
AcDbPolyline
 90
        2
 70
         0
 43
203.2
 10
-22508.0
 20
11850.0
 10
-37858.0
 20
11850.0
  0
LWPOLYLINE
  5
AC
100
AcDbEntity
  8
DIMENSION-1
100
AcDbPolyline
 90
        2
 70
         0
 43
203.2
 10
-20258.0
 20
-3085.0
 10
-37858.0
 20
-3085.0
  0
LWPOLYLINE
  5
AD
100
AcDbEntity
  8
DIMENSION-1
100
AcDbPolyline
 90
        2
 70
         0
 43
203.2
 10
-37350.0
 20
11278.5
 10
-37350.0
 20
-2513.5
  0
LWPOLYLINE
  5
AE
100
AcDbEntity
  8
DIMENSION-1
100
AcDbPolyline
 90
        3
 70
         1
 10
-37350.0
 20
11850.0
 10
-36778.501
 20
10707.0
 10
-37921.5
 20
10707.001
  0
HATCH
  5
AF
100
AcDbEntity
  8
DIMENSION-1
100
AcDbHatch
 10
0.0
 20
0.0
 30
0.0
210
0.0
220
0.0
230
1.0
  2
SOLID
 70
         1
 71
         1
 91
        1
 92
        2
 72
         0
 73
         1
 93
        3
 10
-37350.0
 20
11850.0
 10
-36778.500999999997
 20
10707.0
 10
-37921.5
 20
10707.001
 97
        1
330
AE
 75
         0
 76
         1
 98
        1
 10
0.0
 20
0.0
  0
LWPOLYLINE
  5
B0
100
AcDbEntity
  8
DIMENSION-1
100
AcDbPolyline
 90
        3
 70
         1
 10
-37350.0
 20
-3085.0
 10
-37921.5
 20
-1942.0
 10
-36778.5
 20
-1942.0
  0
HATCH
  5
B1
100
AcDbEntity
  8
DIMENSION-1
100
AcDbHatch
 10
0.0
 20
0.0
 30
0.0
210
0.0
220
0.0
230
1.0
  2
SOLID
 70
         1
 71
         1
 91
        1
 92
        2
 72
         0
 73
         1
 93
        3
 10
-37350.0
 20
-3085.0
 10
-37921.5
 20
-1942.0
 10
-36778.5
 20
-1942.0
 97
        1
330
B0
 75
         0
 76
         1
 98
        1
 10
0.0
 20
0.0
  0
LWPOLYLINE
  5
B2
100
AcDbEntity
  8
DIMENSION-1
100
AcDbPolyline
 90
        2
 70
         0
 43
203.2
 10
-22508.0
 20
11850.0
 10
-40652.0
 20
11850.0
  0
LWPOLYLINE
  5
B3
100
AcDbEntity
  8
DIMENSION-1
100
AcDbPolyline
 90
        2
 70
         0
 43
203.2
 10
-22246.0
 20
2031.0
 10
-40652.0
 20
2031.0
  0
LWPOLYLINE
  5
B4
100
AcDbEntity
  8
DIMENSION-1
100
AcDbPolyline
 90
        2
 70
         0
 43
203.2
 10
-40144.0
 20
12421.5
 10
-40144.0
 20
14707.5
  0
LWPOLYLINE
  5
B5
100
AcDbEntity
  8
DIMENSION-1
100
AcDbPolyline
 90
        2
 70
         0
 43
203.2
 10
-40144.0
 20
1459.5
 10
-40144.0
 20
-826.5
  0
LWPOLYLINE
  5
B6
100
AcDbEntity
  8
DIMENSION-1
100
AcDbPolyline
 90
        3
 70
         1
 10
-40144.0
 20
11850.0
 10
-40715.5
 20
12993.0
 10
-39572.5
 20
12993.0
  0
HATCH
  5
B7
100
AcDbEntity
  8
DIMENSION-1
100
AcDbHatch
 10
0.0
 20
0.0
 30
0.0
210
0.0
220
0.0
230
1.0
  2
SOLID
 70
         1
 71
         1
 91
        1
 92
        2
 72
         0
 73
         1
 93
        3
 10
-40144.0
 20
11850.0
 10
-40715.5
 20
12993.0
 10
-39572.5
 20
12993.0
 97
        1
330
B6
 75
         0
 76
         1
 98
        1
 10
0.0
 20
0.0
  0
LWPOLYLINE
  5
B8
100
AcDbEntity
  8
DIMENSION-1
100
AcDbPolyline
 90
        3
 70
         1
 10
-40144.0
 20
2031.0
 10
-39572.501
 20
888.0
 10
-40715.5
 20
888.001
  0
HATCH
  5
B9
100
AcDbEntity
  8
DIMENSION-1
100
AcDbHatch
 10
0.0
 20
0.0
 30
0.0
210
0.0
220
0.0
230
1.0
  2
SOLID
 70
         1
 71
         1
 91
        1
 92
        2
 72
         0
 73
         1
 93
        3
 10
-40144.0
 20
2031.0
 10
-39572.500999999997
 20
888.0
 10
-40715.5
 20
888.00099999999998
 97
        1
330
B8
 75
         0
 76
         1
 98
        1
 10
0.0
 20
0.0
  0
LWPOLYLINE
  5
BA
100
AcDbEntity
  8
DIMENSION-1
100
AcDbPolyline
 90
        2
 70
         0
 43
203.2
 10
-22508.0
 20
11850.0
 10
-43192.0
 20
11850.0
  0
LWPOLYLINE
  5
BB
100
AcDbEntity
  8
DIMENSION-1
100
AcDbPolyline
 90
        2
 70
         0
 43
203.2
 10
-20258.0
 20
3085.0
 10
-43192.0
 20
3085.0
  0
LWPOLYLINE
  5
BC
100
AcDbEntity
  8
DIMENSION-1
100
AcDbPolyline
 90
        2
 70
         0
 43
203.2
 10
-42684.0
 20
12421.5
 10
-42684.0
 20
14707.5
  0
LWPOLYLINE
  5
BD
100
AcDbEntity
  8
DIMENSION-1
100
AcDbPolyline
 90
        2
 70
         0
 43
203.2
 10
-42684.0
 20
2513.5
 10
-42684.0
 20
227.5
  0
LWPOLYLINE
  5
BE
100
AcDbEntity
  8
DIMENSION-1
100
AcDbPolyline
 90
        3
 70
         1
 10
-42684.0
 20
11850.0
 10
-43255.5
 20
12993.0
 10
-42112.5
 20
12993.0
  0
HATCH
  5
BF
100
AcDbEntity
  8
DIMENSION-1
100
AcDbHatch
 10
0.0
 20
0.0
 30
0.0
210
0.0
220
0.0
230
1.0
  2
SOLID
 70
         1
 71
         1
 91
        1
 92
        2
 72
         0
 73
         1
 93
        3
 10
-42684.0
 20
11850.0
 10
-43255.5
 20
12993.0
 10
-42112.5
 20
12993.0
 97
        1
330
BE
 75
         0
 76
         1
 98
        1
 10
0.0
 20
0.0
  0
LWPOLYLINE
  5
C0
100
AcDbEntity
  8
DIMENSION-1
100
AcDbPolyline
 90
        3
 70
         1
 10
-42684.0
 20
3085.0
 10
-42112.501
 20
1942.0
 10
-43255.5
 20
1942.001
  0
HATCH
  5
C1
100
AcDbEntity
  8
DIMENSION-1
100
AcDbHatch
 10
0.0
 20
0.0
 30
0.0
210
0.0
220
0.0
230
1.0
  2
SOLID
 70
         1
 71
         1
 91
        1
 92
        2
 72
         0
 73
         1
 93
        3
 10
-42684.0
 20
3085.0
 10
-42112.500999999997
 20
1942.0
 10
-43255.5
 20
1942.001
 97
        1
330
C0
 75
         0
 76
         1
 98
        1
 10
0.0
 20
0.0
  0
LWPOLYLINE
  5
C2
100
AcDbEntity
  8
DIMENSION-1
100
AcDbPolyline
 90
        2
 70
         0
 43
203.2
 10
-22508.0
 20
11850.0
 10
-45732.0
 20
11850.0
  0
LWPOLYLINE
  5
C3
100
AcDbEntity
  8
DIMENSION-1
100
AcDbPolyline
 90
        2
 70
         0
 43
203.2
 10
-12757.996
 20
6770.002
 10
-45732.0
 20
6770.002
  0
LWPOLYLINE
  5
C4
100
AcDbEntity
  8
DIMENSION-1
100
AcDbPolyline
 90
        2
 70
         0
 43
203.2
 10
-45224.0
 20
12421.5
 10
-45224.0
 20
14707.5
  0
LWPOLYLINE
  5
C5
100
AcDbEntity
  8
DIMENSION-1
100
AcDbPolyline
 90
        2
 70
         0
 43
203.2
 10
-45224.0
 20
6198.502
 10
-45224.0
 20
3912.502
  0
LWPOLYLINE
  5
C6
100
AcDbEntity
  8
DIMENSION-1
100
AcDbPolyline
 90
        3
 70
         1
 10
-45224.0
 20
11850.0
 10
-45795.5
 20
12993.0
 10
-44652.5
 20
12993.0
  0
HATCH
  5
C7
100
AcDbEntity
  8
DIMENSION-1
100
AcDbHatch
 10
0.0
 20
0.0
 30
0.0
210
0.0
220
0.0
230
1.0
  2
SOLID
 70
         1
 71
         1
 91
        1
 92
        2
 72
         0
 73
         1
 93
        3
 10
-45224.0
 20
11850.0
 10
-45795.5
 20
12993.0
 10
-44652.5
 20
12993.0
 97
        1
330
C6
 75
         0
 76
         1
 98
        1
 10
0.0
 20
0.0
  0
LWPOLYLINE
  5
C8
100
AcDbEntity
  8
DIMENSION-1
100
AcDbPolyline
 90
        3
 70
         1
 10
-45224.0
 20
6770.002
 10
-44652.501
 20
5627.002
 10
-45795.5
 20
5627.003
  0
HATCH
  5
C9
100
AcDbEntity
  8
DIMENSION-1
100
AcDbHatch
 10
0.0
 20
0.0
 30
0.0
210
0.0
220
0.0
230
1.0
  2
SOLID
 70
         1
 71
         1
 91
        1
 92
        2
 72
         0
 73
         1
 93
        3
 10
-45224.0
 20
6770.0020000000004
 10
-44652.500999999997
 20
5627.0020000000004
 10
-45795.5
 20
5627.0029999999997
 97
        1
330
C8
 75
         0
 76
         1
 98
        1
 10
0.0
 20
0.0
  0
LWPOLYLINE
  5
CA
100
AcDbEntity
  8
DIMENSION-1
100
AcDbPolyline
 90
        2
 70
         0
 43
203.0
 10
12446.0
 20
-62484.0
 10
16256.0
 20
-62484.0
  0
LWPOLYLINE
  5
CB
100
AcDbEntity
  8
DIMENSION-1
100
AcDbPolyline
 90
        2
 70
         0
 43
203.0
 10
16256.0
 20
-62484.0
 10
21465.587
 20
-53111.458
  0
LWPOLYLINE
  5
CC
100
AcDbEntity
  8
DIMENSION-1
100
AcDbPolyline
 90
        3
 70
         1
 10
21465.587
 20
-53111.458
 10
21409.806
 20
-54388.152
 10
20410.763
 20
-53832.849
  0
HATCH
  5
CD
100
AcDbEntity
  8
DIMENSION-1
100
AcDbHatch
 10
0.0
 20
0.0
 30
0.0
210
0.0
220
0.0
230
1.0
  2
SOLID
 70
         1
 71
         1
 91
        1
 92
        2
 72
         0
 73
         1
 93
        3
 10
21465.587
 20
-53111.457999999999
 10
21409.806
 20
-54388.152000000002
 10
20410.762999999999
 20
-53832.849000000002
 97
        1
330
CC
 75
         0
 76
         1
 98
        1
 10
0.0
 20
0.0
  0
LWPOLYLINE
  5
CE
100
AcDbEntity
  8
DIMENSION-1
100
AcDbPolyline
 90
        2
 70
         0
 43
203.0
 10
-22000.0
 20
-52658.0
 10
-22000.0
 20
-68448.11
  0
LWPOLYLINE
  5
CF
100
AcDbEntity
  8
DIMENSION-1
100
AcDbPolyline
 90
        2
 70
         0
 43
203.0
 10
22000.0
 20
-52658.0
 10
22000.0
 20
-68448.11
  0
LWPOLYLINE
  5
D0
100
AcDbEntity
  8
DIMENSION-1
100
AcDbPolyline
 90
        2
 70
         0
 43
203.0
 10
-21428.5
 20
-67940.11
 10
-2881.846
 20
-67940.11
  0
LWPOLYLINE
  5
D1
100
AcDbEntity
  8
DIMENSION-1
100
AcDbPolyline
 90
        2
 70
         0
 43
203.0
 10
2881.849
 20
-67940.11
 10
21428.5
 20
-67940.11
  0
LWPOLYLINE
  5
D2
100
AcDbEntity
  8
DIMENSION-1
100
AcDbPolyline
 90
        3
 70
         1
 10
-22000.0
 20
-67940.11
 10
-20857.0
 20
-67368.61
 10
-20857.0
 20
-68511.61
  0
HATCH
  5
D3
100
AcDbEntity
  8
DIMENSION-1
100
AcDbHatch
 10
0.0
 20
0.0
 30
0.0
210
0.0
220
0.0
230
1.0
  2
SOLID
 70
         1
 71
         1
 91
        1
 92
        2
 72
         0
 73
         1
 93
        3
 10
-22000.0
 20
-67940.110000000001
 10
-20857.0
 20
-67368.610000000001
 10
-20857.0
 20
-68511.610000000001
 97
        1
330
D2
 75
         0
 76
         1
 98
        1
 10
0.0
 20
0.0
  0
LWPOLYLINE
  5
D4
100
AcDbEntity
  8
DIMENSION-1
100
AcDbPolyline
 90
        3
 70
         1
 10
22000.0
 20
-67940.11
 10
20857.0
 20
-68511.609
 10
20857.0
 20
-67368.61
  0
HATCH
  5
D5
100
AcDbEntity
  8
DIMENSION-1
100
AcDbHatch
 10
0.0
 20
0.0
 30
0.0
210
0.0
220
0.0
230
1.0
  2
SOLID
 70
         1
 71
         1
 91
        1
 92
        2
 72
         0
 73
         1
 93
        3
 10
22000.0
 20
-67940.110000000001
 10
20857.0
 20
-68511.608999999997
 10
20857.0
 20
-67368.610000000001
 97
        1
330
D4
 75
         0
 76
         1
 98
        1
 10
0.0
 20
0.0
  0
LWPOLYLINE
  5
D6
100
AcDbEntity
  8
DIMENSION-1
100
AcDbPolyline
 90
        2
 70
         0
 43
203.0
 10
-22000.0
 20
-52658.0
 10
-22000.0
 20
-61088.709
  0
LWPOLYLINE
  5
D7
100
AcDbEntity
  8
DIMENSION-1
100
AcDbPolyline
 90
        2
 70
         0
 43
203.0
 10
-14749.999
 20
-46723.001
 10
-14749.999
 20
-61088.709
  0
LWPOLYLINE
  5
D8
100
AcDbEntity
  8
DIMENSION-1
100
AcDbPolyline
 90
        2
 70
         0
 43
203.0
 10
-22571.5
 20
-60580.709
 10
-24857.5
 20
-60580.709
  0
LWPOLYLINE
  5
D9
100
AcDbEntity
  8
DIMENSION-1
100
AcDbPolyline
 90
        2
 70
         0
 43
203.0
 10
-14178.499
 20
-60580.709
 10
-11892.499
 20
-60580.709
  0
LWPOLYLINE
  5
DA
100
AcDbEntity
  8
DIMENSION-1
100
AcDbPolyline
 90
        3
 70
         1
 10
-22000.0
 20
-60580.709
 10
-23143.0
 20
-61152.208
 10
-23143.0
 20
-60009.209
  0
HATCH
  5
DB
100
AcDbEntity
  8
DIMENSION-1
100
AcDbHatch
 10
0.0
 20
0.0
 30
0.0
210
0.0
220
0.0
230
1.0
  2
SOLID
 70
         1
 71
         1
 91
        1
 92
        2
 72
         0
 73
         1
 93
        3
 10
-22000.0
 20
-60580.709000000003
 10
-23143.0
 20
-61152.207999999999
 10
-23143.0
 20
-60009.209000000003
 97
        1
330
DA
 75
         0
 76
         1
 98
        1
 10
0.0
 20
0.0
  0
LWPOLYLINE
  5
DC
100
AcDbEntity
  8
DIMENSION-1
100
AcDbPolyline
 90
        3
 70
         1
 10
-14749.999
 20
-60580.709
 10
-13606.999
 20
-60009.209
 10
-13606.999
 20
-61152.209
  0
HATCH
  5
DD
100
AcDbEntity
  8
DIMENSION-1
100
AcDbHatch
 10
0.0
 20
0.0
 30
0.0
210
0.0
220
0.0
230
1.0
  2
SOLID
 70
         1
 71
         1
 91
        1
 92
        2
 72
         0
 73
         1
 93
        3
 10
-14749.999
 20
-60580.709000000003
 10
-13606.999
 20
-60009.209000000003
 10
-13606.999
 20
-61152.209000000003
 97
        1
330
DC
 75
         0
 76
         1
 98
        1
 10
0.0
 20
0.0
  0
LWPOLYLINE
  5
DE
100
AcDbEntity
  8
DIMENSION-1
100
AcDbPolyline
 90
        2
 70
         0
 43
203.0
 10
-22000.0
 20
-52658.0
 10
-22000.0
 20
-64218.201
  0
LWPOLYLINE
  5
DF
100
AcDbEntity
  8
DIMENSION-1
100
AcDbPolyline
 90
        2
 70
         0
 43
203.0
 10
-16738.0
 20
-47777.0
 10
-16738.0
 20
-64218.201
  0
LWPOLYLINE
  5
E0
100
AcDbEntity
  8
DIMENSION-1
100
AcDbPolyline
 90
        2
 70
         0
 43
203.0
 10
-22571.5
 20
-63710.201
 10
-24857.5
 20
-63710.201
  0
LWPOLYLINE
  5
E1
100
AcDbEntity
  8
DIMENSION-1
100
AcDbPolyline
 90
        2
 70
         0
 43
203.0
 10
-16166.5
 20
-63710.201
 10
-13880.5
 20
-63710.201
  0
LWPOLYLINE
  5
E2
100
AcDbEntity
  8
DIMENSION-1
100
AcDbPolyline
 90
        3
 70
         1
 10
-22000.0
 20
-63710.201
 10
-23143.0
 20
-64281.7
 10
-23143.0
 20
-63138.701
  0
HATCH
  5
E3
100
AcDbEntity
  8
DIMENSION-1
100
AcDbHatch
 10
0.0
 20
0.0
 30
0.0
210
0.0
220
0.0
230
1.0
  2
SOLID
 70
         1
 71
         1
 91
        1
 92
        2
 72
         0
 73
         1
 93
        3
 10
-22000.0
 20
-63710.201000000001
 10
-23143.0
 20
-64281.699999999997
 10
-23143.0
 20
-63138.701000000001
 97
        1
330
E2
 75
         0
 76
         1
 98
        1
 10
0.0
 20
0.0
  0
LWPOLYLINE
  5
E4
100
AcDbEntity
  8
DIMENSION-1
100
AcDbPolyline
 90
        3
 70
         1
 10
-16738.0
 20
-63710.201
 10
-15595.0
 20
-63138.701
 10
-15595.0
 20
-64281.701
  0
HATCH
  5
E5
100
AcDbEntity
  8
DIMENSION-1
100
AcDbHatch
 10
0.0
 20
0.0
 30
0.0
210
0.0
220
0.0
230
1.0
  2
SOLID
 70
         1
 71
         1
 91
        1
 92
        2
 72
         0
 73
         1
 93
        3
 10
-16738.0
 20
-63710.201000000001
 10
-15595.0
 20
-63138.701000000001
 10
-15595.0
 20
-64281.701000000001
 97
        1
330
E4
 75
         0
 76
         1
 98
        1
 10
0.0
 20
0.0
  0
LWPOLYLINE
  5
E6
100
AcDbEntity
  8
DIMENSION-1
100
AcDbPolyline
 90
        2
 70
         0
 43
203.0
 10
-22508.0
 20
-52150.0
 10
-36956.693
 20
-52150.0
  0
LWPOLYLINE
  5
E7
100
AcDbEntity
  8
DIMENSION-1
100
AcDbPolyline
 90
        2
 70
         0
 43
203.0
 10
-15258.0
 20
-52384.997
 10
-36956.693
 20
-52384.997
  0
LWPOLYLINE
  5
E8
100
AcDbEntity
  8
DIMENSION-1
100
AcDbPolyline
 90
        2
 70
         0
 43
203.0
 10
-36448.693
 20
-51578.5
 10
-36448.693
 20
-49292.5
  0
LWPOLYLINE
  5
E9
100
AcDbEntity
  8
DIMENSION-1
100
AcDbPolyline
 90
        2
 70
         0
 43
203.0
 10
-36448.693
 20
-52956.497
 10
-36448.693
 20
-55242.497
  0
LWPOLYLINE
  5
EA
100
AcDbEntity
  8
DIMENSION-1
100
AcDbPolyline
 90
        3
 70
         1
 10
-36448.693
 20
-52150.0
 10
-37020.193
 20
-51007.0
 10
-35877.193
 20
-51007.0
  0
HATCH
  5
EB
100
AcDbEntity
  8
DIMENSION-1
100
AcDbHatch
 10
0.0
 20
0.0
 30
0.0
210
0.0
220
0.0
230
1.0
  2
SOLID
 70
         1
 71
         1
 91
        1
 92
        2
 72
         0
 73
         1
 93
        3
 10
-36448.692999999999
 20
-52150.0
 10
-37020.192999999999
 20
-51007.0
 10
-35877.192999999999
 20
-51007.0
 97
        1
330
EA
 75
         0
 76
         1
 98
        1
 10
0.0
 20
0.0
  0
LWPOLYLINE
  5
EC
100
AcDbEntity
  8
DIMENSION-1
100
AcDbPolyline
 90
        3
 70
         1
 10
-36448.693
 20
-52384.997
 10
-35877.194
 20
-53527.997
 10
-37020.193
 20
-53527.996
  0
HATCH
  5
ED
100
AcDbEntity
  8
DIMENSION-1
100
AcDbHatch
 10
0.0
 20
0.0
 30
0.0
210
0.0
220
0.0
230
1.0
  2
SOLID
 70
         1
 71
         1
 91
        1
 92
        2
 72
         0
 73
         1
 93
        3
 10
-36448.692999999999
 20
-52384.997000000003
 10
-35877.194000000003
 20
-53527.997000000003
 10
-37020.192999999999
 20
-53527.995999999999
 97
        1
330
EC
 75
         0
 76
         1
 98
        1
 10
0.0
 20
0.0
  0
LWPOLYLINE
  5
EE
100
AcDbEntity
  8
DIMENSION-1
100
AcDbPolyline
 90
        2
 70
         0
 43
203.0
 10
-17246.0
 20
-47269.0
 10
-45641.484
 20
-47269.0
  0
LWPOLYLINE
  5
EF
100
AcDbEntity
  8
DIMENSION-1
100
AcDbPolyline
 90
        2
 70
         0
 43
203.0
 10
-22508.0
 20
-52150.0
 10
-45641.484
 20
-52150.0
  0
LWPOLYLINE
  5
F0
100
AcDbEntity
  8
DIMENSION-1
100
AcDbPolyline
 90
        2
 70
         0
 43
203.0
 10
-45133.484
 20
-46697.5
 10
-45133.484
 20
-44411.5
  0
LWPOLYLINE
  5
F1
100
AcDbEntity
  8
DIMENSION-1
100
AcDbPolyline
 90
        2
 70
         0
 43
203.0
 10
-45133.484
 20
-52721.5
 10
-45133.484
 20
-55007.5
  0
LWPOLYLINE
  5
F2
100
AcDbEntity
  8
DIMENSION-1
100
AcDbPolyline
 90
        3
 70
         1
 10
-45133.484
 20
-47269.0
 10
-45704.984
 20
-46126.0
 10
-44561.984
 20
-46126.0
  0
HATCH
  5
F3
100
AcDbEntity
  8
DIMENSION-1
100
AcDbHatch
 10
0.0
 20
0.0
 30
0.0
210
0.0
220
0.0
230
1.0
  2
SOLID
 70
         1
 71
         1
 91
        1
 92
        2
 72
         0
 73
         1
 93
        3
 10
-45133.483999999997
 20
-47269.0
 10
-45704.983999999997
 20
-46126.0
 10
-44561.983999999997
 20
-46126.0
 97
        1
330
F2
 75
         0
 76
         1
 98
        1
 10
0.0
 20
0.0
  0
LWPOLYLINE
  5
F4
100
AcDbEntity
  8
DIMENSION-1
100
AcDbPolyline
 90
        3
 70
         1
 10
-45133.484
 20
-52150.0
 10
-44561.985
 20
-53293.0
 10
-45704.984
 20
-53292.999
  0
HATCH
  5
F5
100
AcDbEntity
  8
DIMENSION-1
100
AcDbHatch
 10
0.0
 20
0.0
 30
0.0
210
0.0
220
0.0
230
1.0
  2
SOLID
 70
         1
 71
         1
 91
        1
 92
        2
 72
         0
 73
         1
 93
        3
 10
-45133.483999999997
 20
-52150.0
 10
-44561.985000000001
 20
-53293.0
 10
-45704.983999999997
 20
-53292.999000000003
 97
        1
330
F4
 75
         0
 76
         1
 98
        1
 10
0.0
 20
0.0
  0
LWPOLYLINE
  5
F6
100
AcDbEntity
  8
DIMENSION-1
100
AcDbPolyline
 90
        2
 70
         0
 43
203.0
 10
-15257.999
 20
-46215.001
 10
-41149.146
 20
-46215.001
  0
LWPOLYLINE
  5
F7
100
AcDbEntity
  8
DIMENSION-1
100
AcDbPolyline
 90
        2
 70
         0
 43
203.0
 10
-22508.0
 20
-52150.0
 10
-41149.146
 20
-52150.0
  0
LWPOLYLINE
  5
F8
100
AcDbEntity
  8
DIMENSION-1
100
AcDbPolyline
 90
        2
 70
         0
 43
203.0
 10
-40641.146
 20
-45643.501
 10
-40641.146
 20
-43357.501
  0
LWPOLYLINE
  5
F9
100
AcDbEntity
  8
DIMENSION-1
100
AcDbPolyline
 90
        2
 70
         0
 43
203.0
 10
-40641.146
 20
-52721.5
 10
-40641.146
 20
-55007.5
  0
LWPOLYLINE
  5
FA
100
AcDbEntity
  8
DIMENSION-1
100
AcDbPolyline
 90
        3
 70
         1
 10
-40641.146
 20
-46215.001
 10
-41212.646
 20
-45072.001
 10
-40069.646
 20
-45072.001
  0
HATCH
  5
FB
100
AcDbEntity
  8
DIMENSION-1
100
AcDbHatch
 10
0.0
 20
0.0
 30
0.0
210
0.0
220
0.0
230
1.0
  2
SOLID
 70
         1
 71
         1
 91
        1
 92
        2
 72
         0
 73
         1
 93
        3
 10
-40641.146000000001
 20
-46215.000999999997
 10
-41212.646000000001
 20
-45072.000999999997
 10
-40069.646000000001
 20
-45072.000999999997
 97
        1
330
FA
 75
         0
 76
         1
 98
        1
 10
0.0
 20
0.0
  0
LWPOLYLINE
  5
FC
100
AcDbEntity
  8
DIMENSION-1
100
AcDbPolyline
 90
        3
 70
         1
 10
-40641.146
 20
-52150.0
 10
-40069.647
 20
-53293.0
 10
-41212.646
 20
-53292.999
  0
HATCH
  5
FD
100
AcDbEntity
  8
DIMENSION-1
100
AcDbHatch
 10
0.0
 20
0.0
 30
0.0
210
0.0
220
0.0
230
1.0
  2
SOLID
 70
         1
 71
         1
 91
        1
 92
        2
 72
         0
 73
         1
 93
        3
 10
-40641.146000000001
 20
-52150.0
 10
-40069.646999999997
 20
-53293.0
 10
-41212.646000000001
 20
-53292.999000000003
 97
        1
330
FC
 75
         0
 76
         1
 98
        1
 10
0.0
 20
0.0
  0
LWPOLYLINE
  5
FE
100
AcDbEntity
  8
DIMENSION-1
100
AcDbPolyline
 90
        2
 70
         0
 43
203.0
 10
22508.0
 20
11850.0
 10
36660.523
 20
11850.0
  0
LWPOLYLINE
  5
FF
100
AcDbEntity
  8
DIMENSION-1
100
AcDbPolyline
 90
        2
 70
         0
 43
203.0
 10
22508.0
 20
-52150.0
 10
36660.523
 20
-52150.0
  0
LWPOLYLINE
  5
100
100
AcDbEntity
  8
DIMENSION-1
100
AcDbPolyline
 90
        2
 70
         0
 43
203.0
 10
36152.523
 20
11278.5
 10
36152.523
 20
-17268.152
  0
LWPOLYLINE
  5
101
100
AcDbEntity
  8
DIMENSION-1
100
AcDbPolyline
 90
        2
 70
         0
 43
203.0
 10
36152.523
 20
-23031.846
 10
36152.523
 20
-51578.5
  0
LWPOLYLINE
  5
102
100
AcDbEntity
  8
DIMENSION-1
100
AcDbPolyline
 90
        3
 70
         1
 10
36152.523
 20
11850.0
 10
36724.022
 20
10707.0
 10
35581.023
 20
10707.001
  0
HATCH
  5
103
100
AcDbEntity
  8
DIMENSION-1
100
AcDbHatch
 10
0.0
 20
0.0
 30
0.0
210
0.0
220
0.0
230
1.0
  2
SOLID
 70
         1
 71
         1
 91
        1
 92
        2
 72
         0
 73
         1
 93
        3
 10
36152.523000000001
 20
11850.0
 10
36724.021999999997
 20
10707.0
 10
35581.023000000001
 20
10707.001
 97
        1
330
102
 75
         0
 76
         1
 98
        1
 10
0.0
 20
0.0
  0
LWPOLYLINE
  5
104
100
AcDbEntity
  8
DIMENSION-1
100
AcDbPolyline
 90
        3
 70
         1
 10
36152.523
 20
-52150.0
 10
35581.023
 20
-51007.0
 10
36724.023
 20
-51007.0
  0
HATCH
  5
105
100
AcDbEntity
  8
DIMENSION-1
100
AcDbHatch
 10
0.0
 20
0.0
 30
0.0
210
0.0
220
0.0
230
1.0
  2
SOLID
 70
         1
 71
         1
 91
        1
 92
        2
 72
         0
 73
         1
 93
        3
 10
36152.523000000001
 20
-52150.0
 10
35581.023000000001
 20
-51007.0
 10
36724.023000000001
 20
-51007.0
 97
        1
330
104
 75
         0
 76
         1
 98
        1
 10
0.0
 20
0.0
  0
LWPOLYLINE
  5
106
100
AcDbEntity
  8
DIMENSION-1
100
AcDbPolyline
 90
        2
 70
         0
 43
203.0
 10
-22000.0
 20
12358.0
 10
-22000.0
 20
23204.541
  0
LWPOLYLINE
  5
107
100
AcDbEntity
  8
DIMENSION-1
100
AcDbPolyline
 90
        2
 70
         0
 43
203.0
 10
-19750.0
 20
3593.0
 10
-19750.0
 20
23204.541
  0
LWPOLYLINE
  5
108
100
AcDbEntity
  8
DIMENSION-1
100
AcDbPolyline
 90
        2
 70
         0
 43
203.0
 10
-22571.5
 20
22696.541
 10
-24857.5
 20
22696.541
  0
LWPOLYLINE
  5
109
100
AcDbEntity
  8
DIMENSION-1
100
AcDbPolyline
 90
        2
 70
         0
 43
203.0
 10
-19178.5
 20
22696.541
 10
-16892.5
 20
22696.541
  0
LWPOLYLINE
  5
10A
100
AcDbEntity
  8
DIMENSION-1
100
AcDbPolyline
 90
        3
 70
         1
 10
-22000.0
 20
22696.541
 10
-23143.0
 20
22125.042
 10
-23143.0
 20
23268.041
  0
HATCH
  5
10B
100
AcDbEntity
  8
DIMENSION-1
100
AcDbHatch
 10
0.0
 20
0.0
 30
0.0
210
0.0
220
0.0
230
1.0
  2
SOLID
 70
         1
 71
         1
 91
        1
 92
        2
 72
         0
 73
         1
 93
        3
 10
-22000.0
 20
22696.541000000001
 10
-23143.0
 20
22125.042000000001
 10
-23143.0
 20
23268.041000000001
 97
        1
330
10A
 75
         0
 76
         1
 98
        1
 10
0.0
 20
0.0
  0
LWPOLYLINE
  5
10C
100
AcDbEntity
  8
DIMENSION-1
100
AcDbPolyline
 90
        3
 70
         1
 10
-19750.0
 20
22696.541
 10
-18607.0
 20
23268.041
 10
-18607.0
 20
22125.041
  0
HATCH
  5
10D
100
AcDbEntity
  8
DIMENSION-1
100
AcDbHatch
 10
0.0
 20
0.0
 30
0.0
210
0.0
220
0.0
230
1.0
  2
SOLID
 70
         1
 71
         1
 91
        1
 92
        2
 72
         0
 73
         1
 93
        3
 10
-19750.0
 20
22696.541000000001
 10
-18607.0
 20
23268.041000000001
 10
-18607.0
 20
22125.041000000001
 97
        1
330
10C
 75
         0
 76
         1
 98
        1
 10
0.0
 20
0.0
  0
LWPOLYLINE
  5
10E
100
AcDbEntity
  8
DIMENSION-1
100
AcDbPolyline
 90
        2
 70
         0
 43
203.0
 10
-22000.0
 20
12358.0
 10
-22000.0
 20
16546.106
  0
LWPOLYLINE
  5
10F
100
AcDbEntity
  8
DIMENSION-1
100
AcDbPolyline
 90
        2
 70
         0
 43
203.0
 10
-12249.996
 20
13448.002
 10
-12249.996
 20
16546.106
  0
LWPOLYLINE
  5
110
100
AcDbEntity
  8
DIMENSION-1
100
AcDbPolyline
 90
        2
 70
         0
 43
203.0
 10
-21428.5
 20
16038.106
 10
-12821.496
 20
16038.106
  0
LWPOLYLINE
  5
111
100
AcDbEntity
  8
DIMENSION-1
100
AcDbPolyline
 90
        3
 70
         1
 10
-22000.0
 20
16038.106
 10
-20857.0
 20
16609.606
 10
-20857.0
 20
15466.606
  0
HATCH
  5
112
100
AcDbEntity
  8
DIMENSION-1
100
AcDbHatch
 10
0.0
 20
0.0
 30
0.0
210
0.0
220
0.0
230
1.0
  2
SOLID
 70
         1
 71
         1
 91
        1
 92
        2
 72
         0
 73
         1
 93
        3
 10
-22000.0
 20
16038.106
 10
-20857.0
 20
16609.606
 10
-20857.0
 20
15466.606
 97
        1
330
111
 75
         0
 76
         1
 98
        1
 10
0.0
 20
0.0
  0
LWPOLYLINE
  5
113
100
AcDbEntity
  8
DIMENSION-1
100
AcDbPolyline
 90
        3
 70
         1
 10
-12249.996
 20
16038.106
 10
-13392.996
 20
15466.607
 10
-13392.996
 20
16609.606
  0
HATCH
  5
114
100
AcDbEntity
  8
DIMENSION-1
100
AcDbHatch
 10
0.0
 20
0.0
 30
0.0
210
0.0
220
0.0
230
1.0
  2
SOLID
 70
         1
 71
         1
 91
        1
 92
        2
 72
         0
 73
         1
 93
        3
 10
-12249.995999999999
 20
16038.106
 10
-13392.995999999999
 20
15466.607
 10
-13392.995999999999
 20
16609.606
 97
        1
330
113
 75
         0
 76
         1
 98
        1
 10
0.0
 20
0.0
  0
LWPOLYLINE
  5
115
100
AcDbEntity
  8
DIMENSION-1
100
AcDbPolyline
 90
        2
 70
         0
 43
203.0
 10
-22000.0
 20
12358.0
 10
-22000.0
 20
19304.0
  0
LWPOLYLINE
  5
116
100
AcDbEntity
  8
DIMENSION-1
100
AcDbPolyline
 90
        2
 70
         0
 43
203.0
 10
-14238.0
 20
12394.0
 10
-14238.0
 20
19304.0
  0
LWPOLYLINE
  5
117
100
AcDbEntity
  8
DIMENSION-1
100
AcDbPolyline
 90
        2
 70
         0
 43
203.0
 10
-22571.5
 20
18796.0
 10
-24857.5
 20
18796.0
  0
LWPOLYLINE
  5
118
100
AcDbEntity
  8
DIMENSION-1
100
AcDbPolyline
 90
        2
 70
         0
 43
203.0
 10
-13666.5
 20
18796.0
 10
-11380.5
 20
18796.0
  0
LWPOLYLINE
  5
119
100
AcDbEntity
  8
DIMENSION-1
100
AcDbPolyline
 90
        3
 70
         1
 10
-22000.0
 20
18796.0
 10
-23143.0
 20
18224.501
 10
-23143.0
 20
19367.5
  0
HATCH
  5
11A
100
AcDbEntity
  8
DIMENSION-1
100
AcDbHatch
 10
0.0
 20
0.0
 30
0.0
210
0.0
220
0.0
230
1.0
  2
SOLID
 70
         1
 71
         1
 91
        1
 92
        2
 72
         0
 73
         1
 93
        3
 10
-22000.0
 20
18796.0
 10
-23143.0
 20
18224.501
 10
-23143.0
 20
19367.5
 97
        1
330
119
 75
         0
 76
         1
 98
        1
 10
0.0
 20
0.0
  0
LWPOLYLINE
  5
11B
100
AcDbEntity
  8
DIMENSION-1
100
AcDbPolyline
 90
        3
 70
         1
 10
-14238.0
 20
18796.0
 10
-13095.0
 20
19367.5
 10
-13095.0
 20
18224.5
  0
HATCH
  5
11C
100
AcDbEntity
  8
DIMENSION-1
100
AcDbHatch
 10
0.0
 20
0.0
 30
0.0
210
0.0
220
0.0
230
1.0
  2
SOLID
 70
         1
 71
         1
 91
        1
 92
        2
 72
         0
 73
         1
 93
        3
 10
-14238.0
 20
18796.0
 10
-13095.0
 20
19367.5
 10
-13095.0
 20
18224.5
 97
        1
330
11B
 75
         0
 76
         1
 98
        1
 10
0.0
 20
0.0
  0
LWPOLYLINE
  5
11D
100
AcDbEntity
  8
DIMENSION-1
100
AcDbPolyline
 90
        2
 70
         0
 43
203.0
 10
-22000.0
 20
12358.0
 10
-22000.0
 20
25624.265
  0
LWPOLYLINE
  5
11E
100
AcDbEntity
  8
DIMENSION-1
100
AcDbPolyline
 90
        2
 70
         0
 43
203.0
 10
-21738.0
 20
2539.0
 10
-21738.0
 20
25624.265
  0
LWPOLYLINE
  5
11F
100
AcDbEntity
  8
DIMENSION-1
100
AcDbPolyline
 90
        2
 70
         0
 43
203.0
 10
-22571.5
 20
25116.265
 10
-24857.5
 20
25116.265
  0
LWPOLYLINE
  5
120
100
AcDbEntity
  8
DIMENSION-1
100
AcDbPolyline
 90
        2
 70
         0
 43
203.0
 10
-21166.5
 20
25116.265
 10
-18880.5
 20
25116.265
  0
LWPOLYLINE
  5
121
100
AcDbEntity
  8
DIMENSION-1
100
AcDbPolyline
 90
        3
 70
         1
 10
-22000.0
 20
25116.265
 10
-23143.0
 20
24544.766
 10
-23143.0
 20
25687.765
  0
HATCH
  5
122
100
AcDbEntity
  8
DIMENSION-1
100
AcDbHatch
 10
0.0
 20
0.0
 30
0.0
210
0.0
220
0.0
230
1.0
  2
SOLID
 70
         1
 71
         1
 91
        1
 92
        2
 72
         0
 73
         1
 93
        3
 10
-22000.0
 20
25116.264999999999
 10
-23143.0
 20
24544.766
 10
-23143.0
 20
25687.764999999999
 97
        1
330
121
 75
         0
 76
         1
 98
        1
 10
0.0
 20
0.0
  0
LWPOLYLINE
  5
123
100
AcDbEntity
  8
DIMENSION-1
100
AcDbPolyline
 90
        3
 70
         1
 10
-21738.0
 20
25116.265
 10
-20595.0
 20
25687.765
 10
-20595.0
 20
24544.765
  0
HATCH
  5
124
100
AcDbEntity
  8
DIMENSION-1
100
AcDbHatch
 10
0.0
 20
0.0
 30
0.0
210
0.0
220
0.0
230
1.0
  2
SOLID
 70
         1
 71
         1
 91
        1
 92
        2
 72
         0
 73
         1
 93
        3
 10
-21738.0
 20
25116.264999999999
 10
-20595.0
 20
25687.764999999999
 10
-20595.0
 20
24544.764999999999
 97
        1
330
123
 75
         0
 76
         1
 98
        1
 10
0.0
 20
0.0
  0
LWPOLYLINE
  5
125
100
AcDbEntity
  8
DIMENSION-1
100
AcDbPolyline
 90
        2
 70
         0
 43
203.2
 10
11887.656
 20
-57494.537
 10
16387.656
 20
-57494.537
  0
LWPOLYLINE
  5
126
100
AcDbEntity
  8
DIMENSION-1
100
AcDbPolyline
 90
        2
 70
         0
 43
203.2
 10
16387.656
 20
-57494.537
 10
20188.277
 20
-53880.688
  0
LWPOLYLINE
  5
127
100
AcDbEntity
  8
DIMENSION-1
100
AcDbPolyline
 90
        3
 70
         1
 10
20188.277
 20
-53880.688
 10
19753.765
 20
-55082.461
 10
18966.151
 20
-54254.142
  0
HATCH
  5
128
100
AcDbEntity
  8
DIMENSION-1
100
AcDbHatch
 10
0.0
 20
0.0
 30
0.0
210
0.0
220
0.0
230
1.0
  2
SOLID
 70
         1
 71
         1
 91
        1
 92
        2
 72
         0
 73
         1
 93
        3
 10
20188.276999999998
 20
-53880.688000000002
 10
19753.764999999999
 20
-55082.461000000003
 10
18966.151000000002
 20
-54254.142
 97
        1
330
127
 75
         0
 76
         1
 98
        1
 10
0.0
 20
0.0
  0
LWPOLYLINE
  5
129
100
AcDbEntity
  8
DIMENSION-1
100
AcDbPolyline
 90
        2
 70
         0
 43
203.0
 10
-30000.0
 20
-55658.0
 10
-30000.0
 20
-58052.205
  0
LWPOLYLINE
  5
12A
100
AcDbEntity
  8
DIMENSION-1
100
AcDbPolyline
 90
        2
 70
         0
 43
203.0
 10
-22000.0
 20
-52658.0
 10
-22000.0
 20
-58052.205
  0
LWPOLYLINE
  5
12B
100
AcDbEntity
  8
DIMENSION-1
100
AcDbPolyline
 90
        2
 70
         0
 43
203.0
 10
-29428.5
 20
-57544.205
 10
-28351.781
 20
-57544.205
  0
LWPOLYLINE
  5
12C
100
AcDbEntity
  8
DIMENSION-1
100
AcDbPolyline
 90
        2
 70
         0
 43
203.0
 10
-23648.219
 20
-57544.205
 10
-22571.5
 20
-57544.205
  0
LWPOLYLINE
  5
12D
100
AcDbEntity
  8
DIMENSION-1
100
AcDbPolyline
 90
        3
 70
         1
 10
-30000.0
 20
-57544.205
 10
-28857.0
 20
-56972.705
 10
-28857.0
 20
-58115.705
  0
HATCH
  5
12E
100
AcDbEntity
  8
DIMENSION-1
100
AcDbHatch
 10
0.0
 20
0.0
 30
0.0
210
0.0
220
0.0
230
1.0
  2
SOLID
 70
         1
 71
         1
 91
        1
 92
        2
 72
         0
 73
         1
 93
        3
 10
-30000.0
 20
-57544.205000000002
 10
-28857.0
 20
-56972.705000000002
 10
-28857.0
 20
-58115.705000000002
 97
        1
330
12D
 75
         0
 76
         1
 98
        1
 10
0.0
 20
0.0
  0
LWPOLYLINE
  5
12F
100
AcDbEntity
  8
DIMENSION-1
100
AcDbPolyline
 90
        3
 70
         1
 10
-22000.0
 20
-57544.205
 10
-23143.0
 20
-58115.704
 10
-23143.0
 20
-56972.705
  0
HATCH
  5
130
100
AcDbEntity
  8
DIMENSION-1
100
AcDbHatch
 10
0.0
 20
0.0
 30
0.0
210
0.0
220
0.0
230
1.0
  2
SOLID
 70
         1
 71
         1
 91
        1
 92
        2
 72
         0
 73
         1
 93
        3
 10
-22000.0
 20
-57544.205000000002
 10
-23143.0
 20
-58115.703999999998
 10
-23143.0
 20
-56972.705000000002
 97
        1
330
12F
 75
         0
 76
         1
 98
        1
 10
0.0
 20
0.0
  0
LWPOLYLINE
  5
131
100
AcDbEntity
  8
DIMENSION-1
100
AcDbPolyline
 90
        2
 70
         0
 43
203.2
 10
-30000.0
 20
15358.0
 10
-30000.0
 20
27605.013
  0
LWPOLYLINE
  5
132
100
AcDbEntity
  8
DIMENSION-1
100
AcDbPolyline
 90
        2
 70
         0
 43
203.2
 10
30000.0
 20
15358.0
 10
30000.0
 20
27605.013
  0
LWPOLYLINE
  5
133
100
AcDbEntity
  8
DIMENSION-1
100
AcDbPolyline
 90
        2
 70
         0
 43
203.2
 10
-29428.5
 20
27097.013
 10
-3361.325
 20
27097.013
  0
LWPOLYLINE
  5
134
100
AcDbEntity
  8
DIMENSION-1
100
AcDbPolyline
 90
        2
 70
         0
 43
203.2
 10
3361.325
 20
27097.013
 10
29428.5
 20
27097.013
  0
LWPOLYLINE
  5
135
100
AcDbEntity
  8
DIMENSION-1
100
AcDbPolyline
 90
        3
 70
         1
 10
-30000.0
 20
27097.013
 10
-28857.0
 20
27668.513
 10
-28857.0
 20
26525.513
  0
HATCH
  5
136
100
AcDbEntity
  8
DIMENSION-1
100
AcDbHatch
 10
0.0
 20
0.0
 30
0.0
210
0.0
220
0.0
230
1.0
  2
SOLID
 70
         1
 71
         1
 91
        1
 92
        2
 72
         0
 73
         1
 93
        3
 10
-30000.0
 20
27097.012999999999
 10
-28857.0
 20
27668.512999999999
 10
-28857.0
 20
26525.512999999999
 97
        1
330
135
 75
         0
 76
         1
 98
        1
 10
0.0
 20
0.0
  0
LWPOLYLINE
  5
137
100
AcDbEntity
  8
DIMENSION-1
100
AcDbPolyline
 90
        3
 70
         1
 10
30000.0
 20
27097.013
 10
28857.0
 20
26525.514
 10
28857.0
 20
27668.513
  0
HATCH
  5
138
100
AcDbEntity
  8
DIMENSION-1
100
AcDbHatch
 10
0.0
 20
0.0
 30
0.0
210
0.0
220
0.0
230
1.0
  2
SOLID
 70
         1
 71
         1
 91
        1
 92
        2
 72
         0
 73
         1
 93
        3
 10
30000.0
 20
27097.012999999999
 10
28857.0
 20
26525.513999999999
 10
28857.0
 20
27668.512999999999
 97
        1
330
137
 75
         0
 76
         1
 98
        1
 10
0.0
 20
0.0
  0
LWPOLYLINE
  5
139
100
AcDbEntity
  8
DIMENSION-1
100
AcDbPolyline
 90
        2
 70
         0
 43
203.2
 10
30508.0
 20
14850.0
 10
39198.174
 20
14850.0
  0
LWPOLYLINE
  5
13A
100
AcDbEntity
  8
DIMENSION-1
100
AcDbPolyline
 90
        2
 70
         0
 43
203.2
 10
30508.0
 20
-55150.0
 10
39198.174
 20
-55150.0
  0
LWPOLYLINE
  5
13B
100
AcDbEntity
  8
DIMENSION-1
100
AcDbPolyline
 90
        2
 70
         0
 43
203.2
 10
38690.174
 20
14278.5
 10
38690.174
 20
-16788.675
  0
LWPOLYLINE
  5
13C
100
AcDbEntity
  8
DIMENSION-1
100
AcDbPolyline
 90
        2
 70
         0
 43
203.2
 10
38690.174
 20
-23511.324
 10
38690.174
 20
-54578.5
  0
LWPOLYLINE
  5
13D
100
AcDbEntity
  8
DIMENSION-1
100
AcDbPolyline
 90
        3
 70
         1
 10
38690.174
 20
14850.0
 10
39261.673
 20
13707.0
 10
38118.674
 20
13707.001
  0
HATCH
  5
13E
100
AcDbEntity
  8
DIMENSION-1
100
AcDbHatch
 10
0.0
 20
0.0
 30
0.0
210
0.0
220
0.0
230
1.0
  2
SOLID
 70
         1
 71
         1
 91
        1
 92
        2
 72
         0
 73
         1
 93
        3
 10
38690.173999999999
 20
14850.0
 10
39261.673000000003
 20
13707.0
 10
38118.673999999999
 20
13707.001
 97
        1
330
13D
 75
         0
 76
         1
 98
        1
 10
0.0
 20
0.0
  0
LWPOLYLINE
  5
13F
100
AcDbEntity
  8
DIMENSION-1
100
AcDbPolyline
 90
        3
 70
         1
 10
38690.174
 20
-55150.0
 10
38118.674
 20
-54007.0
 10
39261.674
 20
-54007.0
  0
HATCH
  5
140
100
AcDbEntity
  8
DIMENSION-1
100
AcDbHatch
 10
0.0
 20
0.0
 30
0.0
210
0.0
220
0.0
230
1.0
  2
SOLID
 70
         1
 71
         1
 91
        1
 92
        2
 72
         0
 73
         1
 93
        3
 10
38690.173999999999
 20
-55150.0
 10
38118.673999999999
 20
-54007.0
 10
39261.673999999999
 20
-54007.0
 97
        1
330
13F
 75
         0
 76
         1
 98
        1
 10
0.0
 20
0.0
  0
LWPOLYLINE
  5
141
100
AcDbEntity
  8
DIMENSION-1
100
AcDbPolyline
 90
        2
 70
         0
 43
203.2
 10
-30508.0
 20
14850.0
 10
-32967.249
 20
14850.0
  0
LWPOLYLINE
  5
142
100
AcDbEntity
  8
DIMENSION-1
100
AcDbPolyline
 90
        2
 70
         0
 43
203.2
 10
-22508.0
 20
11850.0
 10
-32967.249
 20
11850.0
  0
LWPOLYLINE
  5
143
100
AcDbEntity
  8
DIMENSION-1
100
AcDbPolyline
 90
        2
 70
         0
 43
203.2
 10
-32459.249
 20
15421.5
 10
-32459.249
 20
17707.5
  0
LWPOLYLINE
  5
144
100
AcDbEntity
  8
DIMENSION-1
100
AcDbPolyline
 90
        2
 70
         0
 43
203.2
 10
-32459.249
 20
11278.5
 10
-32459.249
 20
8992.5
  0
LWPOLYLINE
  5
145
100
AcDbEntity
  8
DIMENSION-1
100
AcDbPolyline
 90
        3
 70
         1
 10
-32459.249
 20
14850.0
 10
-33030.749
 20
15993.0
 10
-31887.749
 20
15993.0
  0
HATCH
  5
146
100
AcDbEntity
  8
DIMENSION-1
100
AcDbHatch
 10
0.0
 20
0.0
 30
0.0
210
0.0
220
0.0
230
1.0
  2
SOLID
 70
         1
 71
         1
 91
        1
 92
        2
 72
         0
 73
         1
 93
        3
 10
-32459.249
 20
14850.0
 10
-33030.749000000003
 20
15993.0
 10
-31887.749
 20
15993.0
 97
        1
330
145
 75
         0
 76
         1
 98
        1
 10
0.0
 20
0.0
  0
LWPOLYLINE
  5
147
100
AcDbEntity
  8
DIMENSION-1
100
AcDbPolyline
 90
        3
 70
         1
 10
-32459.249
 20
11850.0
 10
-31887.75
 20
10707.0
 10
-33030.749
 20
10707.001
  0
HATCH
  5
148
100
AcDbEntity
  8
DIMENSION-1
100
AcDbHatch
 10
0.0
 20
0.0
 30
0.0
210
0.0
220
0.0
230
1.0
  2
SOLID
 70
         1
 71
         1
 91
        1
 92
        2
 72
         0
 73
         1
 93
        3
 10
-32459.249
 20
11850.0
 10
-31887.75
 20
10707.0
 10
-33030.749000000003
 20
10707.001
 97
        1
330
147
 75
         0
 76
         1
 98
        1
 10
0.0
 20
0.0
  0
LWPOLYLINE
  5
149
100
AcDbEntity
  8
DIMENSION-1
100
AcDbPolyline
 90
        2
 70
         0
 43
203.0
 10
-22508.0
 20
-52150.0
 10
-33203.987
 20
-52150.0
  0
LWPOLYLINE
  5
14A
100
AcDbEntity
  8
DIMENSION-1
100
AcDbPolyline
 90
        2
 70
         0
 43
203.0
 10
-30508.0
 20
-55150.0
 10
-33203.987
 20
-55150.0
  0
LWPOLYLINE
  5
14B
100
AcDbEntity
  8
DIMENSION-1
100
AcDbPolyline
 90
        2
 70
         0
 43
203.0
 10
-32695.987
 20
-51578.5
 10
-32695.987
 20
-49292.5
  0
LWPOLYLINE
  5
14C
100
AcDbEntity
  8
DIMENSION-1
100
AcDbPolyline
 90
        2
 70
         0
 43
203.0
 10
-32695.987
 20
-55721.5
 10
-32695.987
 20
-58007.5
  0
LWPOLYLINE
  5
14D
100
AcDbEntity
  8
DIMENSION-1
100
AcDbPolyline
 90
        3
 70
         1
 10
-32695.987
 20
-52150.0
 10
-33267.487
 20
-51007.0
 10
-32124.487
 20
-51007.0
  0
HATCH
  5
14E
100
AcDbEntity
  8
DIMENSION-1
100
AcDbHatch
 10
0.0
 20
0.0
 30
0.0
210
0.0
220
0.0
230
1.0
  2
SOLID
 70
         1
 71
         1
 91
        1
 92
        2
 72
         0
 73
         1
 93
        3
 10
-32695.987000000001
 20
-52150.0
 10
-33267.487000000001
 20
-51007.0
 10
-32124.487000000001
 20
-51007.0
 97
        1
330
14D
 75
         0
 76
         1
 98
        1
 10
0.0
 20
0.0
  0
LWPOLYLINE
  5
14F
100
AcDbEntity
  8
DIMENSION-1
100
AcDbPolyline
 90
        3
 70
         1
 10
-32695.987
 20
-55150.0
 10
-32124.488
 20
-56293.0
 10
-33267.487
 20
-56292.999
  0
HATCH
  5
150
100
AcDbEntity
  8
DIMENSION-1
100
AcDbHatch
 10
0.0
 20
0.0
 30
0.0
210
0.0
220
0.0
230
1.0
  2
SOLID
 70
         1
 71
         1
 91
        1
 92
        2
 72
         0
 73
         1
 93
        3
 10
-32695.987000000001
 20
-55150.0
 10
-32124.488000000001
 20
-56293.0
 10
-33267.487000000001
 20
-56292.999000000003
 97
        1
330
14F
 75
         0
 76
         1
 98
        1
 10
0.0
 20
0.0
  0
LWPOLYLINE
  5
151
100
AcDbEntity
  8
MOUNTING_HOLES_LAYER_TOP
100
AcDbPolyline
 90
        2
 70
         1
 43
550.0
 10
13962.0
 20
11886.0
 42
-1.0
 10
14512.0
 20
11886.0
 42
-1.0
  0
LWPOLYLINE
  5
152
100
AcDbEntity
  8
MOUNTING_HOLES_LAYER_TOP
100
AcDbPolyline
 90
        2
 70
         1
 43
550.0
 10
-14513.0
 20
11886.0
 42
-1.0
 10
-13963.0
 20
11886.0
 42
-1.0
  0
LWPOLYLINE
  5
153
100
AcDbEntity
  8
MOUNTING_HOLES_LAYER_TOP
100
AcDbPolyline
 90
        2
 70
         1
 43
550.0
 10
21462.0
 20
2031.0
 42
-1.0
 10
22012.0
 20
2031.0
 42
-1.0
  0
LWPOLYLINE
  5
154
100
AcDbEntity
  8
MOUNTING_HOLES_LAYER_TOP
100
AcDbPolyline
 90
        2
 70
         1
 43
550.0
 10
-22013.0
 20
2031.0
 42
-1.0
 10
-21463.0
 20
2031.0
 42
-1.0
  0
LWPOLYLINE
  5
155
100
AcDbEntity
  8
MOUNTING_HOLES_LAYER_TOP
100
AcDbPolyline
 90
        2
 70
         1
 43
550.0
 10
16461.0
 20
-47269.0
 42
-1.0
 10
17011.0
 20
-47269.0
 42
-1.0
  0
LWPOLYLINE
  5
156
100
AcDbEntity
  8
MOUNTING_HOLES_LAYER_TOP
100
AcDbPolyline
 90
        2
 70
         1
 43
550.0
 10
-17013.0
 20
-47269.0
 42
-1.0
 10
-16463.0
 20
-47269.0
 42
-1.0
  0
LWPOLYLINE
  5
157
100
AcDbEntity
  8
PART_HOLES_LAYER_TOP
100
AcDbPolyline
 90
        2
 70
         1
 43
1100.0
 10
-22550.0
 20
11850.0
 42
-1.0
 10
-21450.0
 20
11850.0
 42
-1.0
  0
LWPOLYLINE
  5
158
100
AcDbEntity
  8
PART_HOLES_LAYER_TOP
100
AcDbPolyline
 90
        2
 70
         1
 43
1100.0
 10
21450.0
 20
-52150.0
 42
-1.0
 10
22550.0
 20
-52150.0
 42
-1.0
  0
LWPOLYLINE
  5
159
100
AcDbEntity
  8
PART_HOLES_LAYER_TOP
100
AcDbPolyline
 90
        2
 70
         1
 43
1100.0
 10
21450.0
 20
11850.0
 42
-1.0
 10
22550.0
 20
11850.0
 42
-1.0
  0
LWPOLYLINE
  5
15A
100
AcDbEntity
  8
PART_HOLES_LAYER_TOP
100
AcDbPolyline
 90
        2
 70
         1
 43
1100.0
 10
-22550.0
 20
-52150.0
 42
-1.0
 10
-21450.0
 20
-52150.0
 42
-1.0
  0
CIRCLE
  5
15B
100
AcDbEntity
  8
PART_PADS_LAYER_TOP
100
AcDbCircle
 10
-22000.0
 20
11850.0
 30
0.0
 40
2500.0
  0
CIRCLE
  5
15C
100
AcDbEntity
  8
PART_PADS_LAYER_TOP
100
AcDbCircle
 10
22000.0
 20
-52150.0
 30
0.0
 40
2500.0
  0
CIRCLE
  5
15D
100
AcDbEntity
  8
PART_PADS_LAYER_TOP
100
AcDbCircle
 10
22000.0
 20
11850.0
 30
0.0
 40
2500.0
  0
CIRCLE
  5
15E
100
AcDbEntity
  8
PART_PADS_LAYER_TOP
100
AcDbCircle
 10
-22000.0
 20
-52150.0
 30
0.0
 40
2500.0
  0
LWPOLYLINE
  5
15F
100
AcDbEntity
  8
PART_PADS_SMD_TOP
100
AcDbPolyline
 90
        4
 70
         1
 10
-19900.0
 20
-3810.0
 10
-19900.0
 20
-2360.0
 10
-19600.0
 20
-2360.0
 10
-19600.0
 20
-3810.0
  0
LWPOLYLINE
  5
160
100
AcDbEntity
  8
PART_PADS_SMD_TOP
100
AcDbPolyline
 90
        4
 70
         1
 10
-19400.0
 20
-3810.0
 10
-19400.0
 20
-2360.0
 10
-19100.0
 20
-2360.0
 10
-19100.0
 20
-3810.0
  0
LWPOLYLINE
  5
161
100
AcDbEntity
  8
PART_PADS_SMD_TOP
100
AcDbPolyline
 90
        4
 70
         1
 10
-18900.0
 20
-3810.0
 10
-18900.0
 20
-2360.0
 10
-18600.0
 20
-2360.0
 10
-18600.0
 20
-3810.0
  0
LWPOLYLINE
  5
162
100
AcDbEntity
  8
PART_PADS_SMD_TOP
100
AcDbPolyline
 90
        4
 70
         1
 10
-18400.0
 20
-3810.0
 10
-18400.0
 20
-2360.0
 10
-18100.0
 20
-2360.0
 10
-18100.0
 20
-3810.0
  0
LWPOLYLINE
  5
163
100
AcDbEntity
  8
PART_PADS_SMD_TOP
100
AcDbPolyline
 90
        4
 70
         1
 10
-17900.0
 20
-3810.0
 10
-17900.0
 20
-2360.0
 10
-17600.0
 20
-2360.0
 10
-17600.0
 20
-3810.0
  0
LWPOLYLINE
  5
164
100
AcDbEntity
  8
PART_PADS_SMD_TOP
100
AcDbPolyline
 90
        4
 70
         1
 10
-17400.0
 20
-3810.0
 10
-17400.0
 20
-2360.0
 10
-17100.0
 20
-2360.0
 10
-17100.0
 20
-3810.0
  0
LWPOLYLINE
  5
165
100
AcDbEntity
  8
PART_PADS_SMD_TOP
100
AcDbPolyline
 90
        4
 70
         1
 10
-16900.0
 20
-3810.0
 10
-16900.0
 20
-2360.0
 10
-16600.0
 20
-2360.0
 10
-16600.0
 20
-3810.0
  0
LWPOLYLINE
  5
166
100
AcDbEntity
  8
PART_PADS_SMD_TOP
100
AcDbPolyline
 90
        4
 70
         1
 10
-16400.0
 20
-3810.0
 10
-16400.0
 20
-2360.0
 10
-16100.0
 20
-2360.0
 10
-16100.0
 20
-3810.0
  0
LWPOLYLINE
  5
167
100
AcDbEntity
  8
PART_PADS_SMD_TOP
100
AcDbPolyline
 90
        4
 70
         1
 10
-15900.0
 20
-3810.0
 10
-15900.0
 20
-2360.0
 10
-15600.0
 20
-2360.0
 10
-15600.0
 20
-3810.0
  0
LWPOLYLINE
  5
168
100
AcDbEntity
  8
PART_PADS_SMD_TOP
100
AcDbPolyline
 90
        4
 70
         1
 10
-15400.0
 20
-3810.0
 10
-15400.0
 20
-2360.0
 10
-15100.0
 20
-2360.0
 10
-15100.0
 20
-3810.0
  0
LWPOLYLINE
  5
169
100
AcDbEntity
  8
PART_PADS_SMD_TOP
100
AcDbPolyline
 90
        4
 70
         1
 10
-14900.0
 20
-3810.0
 10
-14900.0
 20
-2360.0
 10
-14600.0
 20
-2360.0
 10
-14600.0
 20
-3810.0
  0
LWPOLYLINE
  5
16A
100
AcDbEntity
  8
PART_PADS_SMD_TOP
100
AcDbPolyline
 90
        4
 70
         1
 10
-14400.0
 20
-3810.0
 10
-14400.0
 20
-2360.0
 10
-14100.0
 20
-2360.0
 10
-14100.0
 20
-3810.0
  0
LWPOLYLINE
  5
16B
100
AcDbEntity
  8
PART_PADS_SMD_TOP
100
AcDbPolyline
 90
        4
 70
         1
 10
-13900.0
 20
-3810.0
 10
-13900.0
 20
-2360.0
 10
-13600.0
 20
-2360.0
 10
-13600.0
 20
-3810.0
  0
LWPOLYLINE
  5
16C
100
AcDbEntity
  8
PART_PADS_SMD_TOP
100
AcDbPolyline
 90
        4
 70
         1
 10
-13400.0
 20
-3810.0
 10
-13400.0
 20
-2360.0
 10
-13100.0
 20
-2360.0
 10
-13100.0
 20
-3810.0
  0
LWPOLYLINE
  5
16D
100
AcDbEntity
  8
PART_PADS_SMD_TOP
100
AcDbPolyline
 90
        4
 70
         1
 10
-12900.0
 20
-3810.0
 10
-12900.0
 20
-2360.0
 10
-12600.0
 20
-2360.0
 10
-12600.0
 20
-3810.0
  0
LWPOLYLINE
  5
16E
100
AcDbEntity
  8
PART_PADS_SMD_TOP
100
AcDbPolyline
 90
        4
 70
         1
 10
-12400.0
 20
-3810.0
 10
-12400.0
 20
-2360.0
 10
-12100.0
 20
-2360.0
 10
-12100.0
 20
-3810.0
  0
LWPOLYLINE
  5
16F
100
AcDbEntity
  8
PART_PADS_SMD_TOP
100
AcDbPolyline
 90
        4
 70
         1
 10
-11900.0
 20
-3810.0
 10
-11900.0
 20
-2360.0
 10
-11600.0
 20
-2360.0
 10
-11600.0
 20
-3810.0
  0
LWPOLYLINE
  5
170
100
AcDbEntity
  8
PART_PADS_SMD_TOP
100
AcDbPolyline
 90
        4
 70
         1
 10
-11400.0
 20
-3810.0
 10
-11400.0
 20
-2360.0
 10
-11100.0
 20
-2360.0
 10
-11100.0
 20
-3810.0
  0
LWPOLYLINE
  5
171
100
AcDbEntity
  8
PART_PADS_SMD_TOP
100
AcDbPolyline
 90
        4
 70
         1
 10
-10900.0
 20
-3810.0
 10
-10900.0
 20
-2360.0
 10
-10600.0
 20
-2360.0
 10
-10600.0
 20
-3810.0
  0
LWPOLYLINE
  5
172
100
AcDbEntity
  8
PART_PADS_SMD_TOP
100
AcDbPolyline
 90
        4
 70
         1
 10
-10400.0
 20
-3810.0
 10
-10400.0
 20
-2360.0
 10
-10100.0
 20
-2360.0
 10
-10100.0
 20
-3810.0
  0
LWPOLYLINE
  5
173
100
AcDbEntity
  8
PART_PADS_SMD_TOP
100
AcDbPolyline
 90
        4
 70
         1
 10
-9900.0
 20
-3810.0
 10
-9900.0
 20
-2360.0
 10
-9600.0
 20
-2360.0
 10
-9600.0
 20
-3810.0
  0
LWPOLYLINE
  5
174
100
AcDbEntity
  8
PART_PADS_SMD_TOP
100
AcDbPolyline
 90
        4
 70
         1
 10
-9400.0
 20
-3810.0
 10
-9400.0
 20
-2360.0
 10
-9100.0
 20
-2360.0
 10
-9100.0
 20
-3810.0
  0
LWPOLYLINE
  5
175
100
AcDbEntity
  8
PART_PADS_SMD_TOP
100
AcDbPolyline
 90
        4
 70
         1
 10
-8900.0
 20
-3810.0
 10
-8900.0
 20
-2360.0
 10
-8600.0
 20
-2360.0
 10
-8600.0
 20
-3810.0
  0
LWPOLYLINE
  5
176
100
AcDbEntity
  8
PART_PADS_SMD_TOP
100
AcDbPolyline
 90
        4
 70
         1
 10
-8400.0
 20
-3810.0
 10
-8400.0
 20
-2360.0
 10
-8100.0
 20
-2360.0
 10
-8100.0
 20
-3810.0
  0
LWPOLYLINE
  5
177
100
AcDbEntity
  8
PART_PADS_SMD_TOP
100
AcDbPolyline
 90
        4
 70
         1
 10
-7900.0
 20
-3810.0
 10
-7900.0
 20
-2360.0
 10
-7600.0
 20
-2360.0
 10
-7600.0
 20
-3810.0
  0
LWPOLYLINE
  5
178
100
AcDbEntity
  8
PART_PADS_SMD_TOP
100
AcDbPolyline
 90
        4
 70
         1
 10
-7400.0
 20
-3810.0
 10
-7400.0
 20
-2360.0
 10
-7100.0
 20
-2360.0
 10
-7100.0
 20
-3810.0
  0
LWPOLYLINE
  5
179
100
AcDbEntity
  8
PART_PADS_SMD_TOP
100
AcDbPolyline
 90
        4
 70
         1
 10
-6900.0
 20
-3810.0
 10
-6900.0
 20
-2360.0
 10
-6600.0
 20
-2360.0
 10
-6600.0
 20
-3810.0
  0
LWPOLYLINE
  5
17A
100
AcDbEntity
  8
PART_PADS_SMD_TOP
100
AcDbPolyline
 90
        4
 70
         1
 10
-6400.0
 20
-3810.0
 10
-6400.0
 20
-2360.0
 10
-6100.0
 20
-2360.0
 10
-6100.0
 20
-3810.0
  0
LWPOLYLINE
  5
17B
100
AcDbEntity
  8
PART_PADS_SMD_TOP
100
AcDbPolyline
 90
        4
 70
         1
 10
-5900.0
 20
-3810.0
 10
-5900.0
 20
-2360.0
 10
-5600.0
 20
-2360.0
 10
-5600.0
 20
-3810.0
  0
LWPOLYLINE
  5
17C
100
AcDbEntity
  8
PART_PADS_SMD_TOP
100
AcDbPolyline
 90
        4
 70
         1
 10
-5400.0
 20
-3810.0
 10
-5400.0
 20
-2360.0
 10
-5100.0
 20
-2360.0
 10
-5100.0
 20
-3810.0
  0
LWPOLYLINE
  5
17D
100
AcDbEntity
  8
PART_PADS_SMD_TOP
100
AcDbPolyline
 90
        4
 70
         1
 10
-4900.0
 20
-3810.0
 10
-4900.0
 20
-2360.0
 10
-4600.0
 20
-2360.0
 10
-4600.0
 20
-3810.0
  0
LWPOLYLINE
  5
17E
100
AcDbEntity
  8
PART_PADS_SMD_TOP
100
AcDbPolyline
 90
        4
 70
         1
 10
-4400.0
 20
-3810.0
 10
-4400.0
 20
-2360.0
 10
-4100.0
 20
-2360.0
 10
-4100.0
 20
-3810.0
  0
LWPOLYLINE
  5
17F
100
AcDbEntity
  8
PART_PADS_SMD_TOP
100
AcDbPolyline
 90
        4
 70
         1
 10
-3900.0
 20
-3810.0
 10
-3900.0
 20
-2360.0
 10
-3600.0
 20
-2360.0
 10
-3600.0
 20
-3810.0
  0
LWPOLYLINE
  5
180
100
AcDbEntity
  8
PART_PADS_SMD_TOP
100
AcDbPolyline
 90
        4
 70
         1
 10
-3400.0
 20
-3810.0
 10
-3400.0
 20
-2360.0
 10
-3100.0
 20
-2360.0
 10
-3100.0
 20
-3810.0
  0
LWPOLYLINE
  5
181
100
AcDbEntity
  8
PART_PADS_SMD_TOP
100
AcDbPolyline
 90
        4
 70
         1
 10
-2900.0
 20
-3810.0
 10
-2900.0
 20
-2360.0
 10
-2600.0
 20
-2360.0
 10
-2600.0
 20
-3810.0
  0
LWPOLYLINE
  5
182
100
AcDbEntity
  8
PART_PADS_SMD_TOP
100
AcDbPolyline
 90
        4
 70
         1
 10
-2400.0
 20
-3810.0
 10
-2400.0
 20
-2360.0
 10
-2100.0
 20
-2360.0
 10
-2100.0
 20
-3810.0
  0
LWPOLYLINE
  5
183
100
AcDbEntity
  8
PART_PADS_SMD_TOP
100
AcDbPolyline
 90
        4
 70
         1
 10
-1900.0
 20
-3810.0
 10
-1900.0
 20
-2360.0
 10
-1600.0
 20
-2360.0
 10
-1600.0
 20
-3810.0
  0
LWPOLYLINE
  5
184
100
AcDbEntity
  8
PART_PADS_SMD_TOP
100
AcDbPolyline
 90
        4
 70
         1
 10
-1400.0
 20
-3810.0
 10
-1400.0
 20
-2360.0
 10
-1100.0
 20
-2360.0
 10
-1100.0
 20
-3810.0
  0
LWPOLYLINE
  5
185
100
AcDbEntity
  8
PART_PADS_SMD_TOP
100
AcDbPolyline
 90
        4
 70
         1
 10
-900.0
 20
-3810.0
 10
-900.0
 20
-2360.0
 10
-600.0
 20
-2360.0
 10
-600.0
 20
-3810.0
  0
LWPOLYLINE
  5
186
100
AcDbEntity
  8
PART_PADS_SMD_TOP
100
AcDbPolyline
 90
        4
 70
         1
 10
-400.0
 20
-3810.0
 10
-400.0
 20
-2360.0
 10
-100.0
 20
-2360.0
 10
-100.0
 20
-3810.0
  0
LWPOLYLINE
  5
187
100
AcDbEntity
  8
PART_PADS_SMD_TOP
100
AcDbPolyline
 90
        4
 70
         1
 10
100.0
 20
-3810.0
 10
100.0
 20
-2360.0
 10
400.0
 20
-2360.0
 10
400.0
 20
-3810.0
  0
LWPOLYLINE
  5
188
100
AcDbEntity
  8
PART_PADS_SMD_TOP
100
AcDbPolyline
 90
        4
 70
         1
 10
600.0
 20
-3810.0
 10
600.0
 20
-2360.0
 10
900.0
 20
-2360.0
 10
900.0
 20
-3810.0
  0
LWPOLYLINE
  5
189
100
AcDbEntity
  8
PART_PADS_SMD_TOP
100
AcDbPolyline
 90
        4
 70
         1
 10
1100.0
 20
-3810.0
 10
1100.0
 20
-2360.0
 10
1400.0
 20
-2360.0
 10
1400.0
 20
-3810.0
  0
LWPOLYLINE
  5
18A
100
AcDbEntity
  8
PART_PADS_SMD_TOP
100
AcDbPolyline
 90
        4
 70
         1
 10
1600.0
 20
-3810.0
 10
1600.0
 20
-2360.0
 10
1900.0
 20
-2360.0
 10
1900.0
 20
-3810.0
  0
LWPOLYLINE
  5
18B
100
AcDbEntity
  8
PART_PADS_SMD_TOP
100
AcDbPolyline
 90
        4
 70
         1
 10
2100.0
 20
-3810.0
 10
2100.0
 20
-2360.0
 10
2400.0
 20
-2360.0
 10
2400.0
 20
-3810.0
  0
LWPOLYLINE
  5
18C
100
AcDbEntity
  8
PART_PADS_SMD_TOP
100
AcDbPolyline
 90
        4
 70
         1
 10
2600.0
 20
-3810.0
 10
2600.0
 20
-2360.0
 10
2900.0
 20
-2360.0
 10
2900.0
 20
-3810.0
  0
LWPOLYLINE
  5
18D
100
AcDbEntity
  8
PART_PADS_SMD_TOP
100
AcDbPolyline
 90
        4
 70
         1
 10
3100.0
 20
-3810.0
 10
3100.0
 20
-2360.0
 10
3400.0
 20
-2360.0
 10
3400.0
 20
-3810.0
  0
LWPOLYLINE
  5
18E
100
AcDbEntity
  8
PART_PADS_SMD_TOP
100
AcDbPolyline
 90
        4
 70
         1
 10
3600.0
 20
-3810.0
 10
3600.0
 20
-2360.0
 10
3900.0
 20
-2360.0
 10
3900.0
 20
-3810.0
  0
LWPOLYLINE
  5
18F
100
AcDbEntity
  8
PART_PADS_SMD_TOP
100
AcDbPolyline
 90
        4
 70
         1
 10
4100.0
 20
-3810.0
 10
4100.0
 20
-2360.0
 10
4400.0
 20
-2360.0
 10
4400.0
 20
-3810.0
  0
LWPOLYLINE
  5
190
100
AcDbEntity
  8
PART_PADS_SMD_TOP
100
AcDbPolyline
 90
        4
 70
         1
 10
4600.0
 20
-3810.0
 10
4600.0
 20
-2360.0
 10
4900.0
 20
-2360.0
 10
4900.0
 20
-3810.0
  0
LWPOLYLINE
  5
191
100
AcDbEntity
  8
PART_PADS_SMD_TOP
100
AcDbPolyline
 90
        4
 70
         1
 10
5100.0
 20
-3810.0
 10
5100.0
 20
-2360.0
 10
5400.0
 20
-2360.0
 10
5400.0
 20
-3810.0
  0
LWPOLYLINE
  5
192
100
AcDbEntity
  8
PART_PADS_SMD_TOP
100
AcDbPolyline
 90
        4
 70
         1
 10
5600.0
 20
-3810.0
 10
5600.0
 20
-2360.0
 10
5900.0
 20
-2360.0
 10
5900.0
 20
-3810.0
  0
LWPOLYLINE
  5
193
100
AcDbEntity
  8
PART_PADS_SMD_TOP
100
AcDbPolyline
 90
        4
 70
         1
 10
6100.0
 20
-3810.0
 10
6100.0
 20
-2360.0
 10
6400.0
 20
-2360.0
 10
6400.0
 20
-3810.0
  0
LWPOLYLINE
  5
194
100
AcDbEntity
  8
PART_PADS_SMD_TOP
100
AcDbPolyline
 90
        4
 70
         1
 10
6600.0
 20
-3810.0
 10
6600.0
 20
-2360.0
 10
6900.0
 20
-2360.0
 10
6900.0
 20
-3810.0
  0
LWPOLYLINE
  5
195
100
AcDbEntity
  8
PART_PADS_SMD_TOP
100
AcDbPolyline
 90
        4
 70
         1
 10
7100.0
 20
-3810.0
 10
7100.0
 20
-2360.0
 10
7400.0
 20
-2360.0
 10
7400.0
 20
-3810.0
  0
LWPOLYLINE
  5
196
100
AcDbEntity
  8
PART_PADS_SMD_TOP
100
AcDbPolyline
 90
        4
 70
         1
 10
7600.0
 20
-3810.0
 10
7600.0
 20
-2360.0
 10
7900.0
 20
-2360.0
 10
7900.0
 20
-3810.0
  0
LWPOLYLINE
  5
197
100
AcDbEntity
  8
PART_PADS_SMD_TOP
100
AcDbPolyline
 90
        4
 70
         1
 10
8100.0
 20
-3810.0
 10
8100.0
 20
-2360.0
 10
8400.0
 20
-2360.0
 10
8400.0
 20
-3810.0
  0
LWPOLYLINE
  5
198
100
AcDbEntity
  8
PART_PADS_SMD_TOP
100
AcDbPolyline
 90
        4
 70
         1
 10
8600.0
 20
-3810.0
 10
8600.0
 20
-2360.0
 10
8900.0
 20
-2360.0
 10
8900.0
 20
-3810.0
  0
LWPOLYLINE
  5
199
100
AcDbEntity
  8
PART_PADS_SMD_TOP
100
AcDbPolyline
 90
        4
 70
         1
 10
9100.0
 20
-3810.0
 10
9100.0
 20
-2360.0
 10
9400.0
 20
-2360.0
 10
9400.0
 20
-3810.0
  0
LWPOLYLINE
  5
19A
100
AcDbEntity
  8
PART_PADS_SMD_TOP
100
AcDbPolyline
 90
        4
 70
         1
 10
9600.0
 20
-3810.0
 10
9600.0
 20
-2360.0
 10
9900.0
 20
-2360.0
 10
9900.0
 20
-3810.0
  0
LWPOLYLINE
  5
19B
100
AcDbEntity
  8
PART_PADS_SMD_TOP
100
AcDbPolyline
 90
        4
 70
         1
 10
10100.0
 20
-3810.0
 10
10100.0
 20
-2360.0
 10
10400.0
 20
-2360.0
 10
10400.0
 20
-3810.0
  0
LWPOLYLINE
  5
19C
100
AcDbEntity
  8
PART_PADS_SMD_TOP
100
AcDbPolyline
 90
        4
 70
         1
 10
10600.0
 20
-3810.0
 10
10600.0
 20
-2360.0
 10
10900.0
 20
-2360.0
 10
10900.0
 20
-3810.0
  0
LWPOLYLINE
  5
19D
100
AcDbEntity
  8
PART_PADS_SMD_TOP
100
AcDbPolyline
 90
        4
 70
         1
 10
11100.0
 20
-3810.0
 10
11100.0
 20
-2360.0
 10
11400.0
 20
-2360.0
 10
11400.0
 20
-3810.0
  0
LWPOLYLINE
  5
19E
100
AcDbEntity
  8
PART_PADS_SMD_TOP
100
AcDbPolyline
 90
        4
 70
         1
 10
11600.0
 20
-3810.0
 10
11600.0
 20
-2360.0
 10
11900.0
 20
-2360.0
 10
11900.0
 20
-3810.0
  0
LWPOLYLINE
  5
19F
100
AcDbEntity
  8
PART_PADS_SMD_TOP
100
AcDbPolyline
 90
        4
 70
         1
 10
12100.0
 20
-3810.0
 10
12100.0
 20
-2360.0
 10
12400.0
 20
-2360.0
 10
12400.0
 20
-3810.0
  0
LWPOLYLINE
  5
1A0
100
AcDbEntity
  8
PART_PADS_SMD_TOP
100
AcDbPolyline
 90
        4
 70
         1
 10
12600.0
 20
-3810.0
 10
12600.0
 20
-2360.0
 10
12900.0
 20
-2360.0
 10
12900.0
 20
-3810.0
  0
LWPOLYLINE
  5
1A1
100
AcDbEntity
  8
PART_PADS_SMD_TOP
100
AcDbPolyline
 90
        4
 70
         1
 10
13100.0
 20
-3810.0
 10
13100.0
 20
-2360.0
 10
13400.0
 20
-2360.0
 10
13400.0
 20
-3810.0
  0
LWPOLYLINE
  5
1A2
100
AcDbEntity
  8
PART_PADS_SMD_TOP
100
AcDbPolyline
 90
        4
 70
         1
 10
13600.0
 20
-3810.0
 10
13600.0
 20
-2360.0
 10
13900.0
 20
-2360.0
 10
13900.0
 20
-3810.0
  0
LWPOLYLINE
  5
1A3
100
AcDbEntity
  8
PART_PADS_SMD_TOP
100
AcDbPolyline
 90
        4
 70
         1
 10
14100.0
 20
-3810.0
 10
14100.0
 20
-2360.0
 10
14400.0
 20
-2360.0
 10
14400.0
 20
-3810.0
  0
LWPOLYLINE
  5
1A4
100
AcDbEntity
  8
PART_PADS_SMD_TOP
100
AcDbPolyline
 90
        4
 70
         1
 10
14600.0
 20
-3810.0
 10
14600.0
 20
-2360.0
 10
14900.0
 20
-2360.0
 10
14900.0
 20
-3810.0
  0
LWPOLYLINE
  5
1A5
100
AcDbEntity
  8
PART_PADS_SMD_TOP
100
AcDbPolyline
 90
        4
 70
         1
 10
15100.0
 20
-3810.0
 10
15100.0
 20
-2360.0
 10
15400.0
 20
-2360.0
 10
15400.0
 20
-3810.0
  0
LWPOLYLINE
  5
1A6
100
AcDbEntity
  8
PART_PADS_SMD_TOP
100
AcDbPolyline
 90
        4
 70
         1
 10
15600.0
 20
-3810.0
 10
15600.0
 20
-2360.0
 10
15900.0
 20
-2360.0
 10
15900.0
 20
-3810.0
  0
LWPOLYLINE
  5
1A7
100
AcDbEntity
  8
PART_PADS_SMD_TOP
100
AcDbPolyline
 90
        4
 70
         1
 10
16100.0
 20
-3810.0
 10
16100.0
 20
-2360.0
 10
16400.0
 20
-2360.0
 10
16400.0
 20
-3810.0
  0
LWPOLYLINE
  5
1A8
100
AcDbEntity
  8
PART_PADS_SMD_TOP
100
AcDbPolyline
 90
        4
 70
         1
 10
16600.0
 20
-3810.0
 10
16600.0
 20
-2360.0
 10
16900.0
 20
-2360.0
 10
16900.0
 20
-3810.0
  0
LWPOLYLINE
  5
1A9
100
AcDbEntity
  8
PART_PADS_SMD_TOP
100
AcDbPolyline
 90
        4
 70
         1
 10
17100.0
 20
-3810.0
 10
17100.0
 20
-2360.0
 10
17400.0
 20
-2360.0
 10
17400.0
 20
-3810.0
  0
LWPOLYLINE
  5
1AA
100
AcDbEntity
  8
PART_PADS_SMD_TOP
100
AcDbPolyline
 90
        4
 70
         1
 10
17600.0
 20
-3810.0
 10
17600.0
 20
-2360.0
 10
17900.0
 20
-2360.0
 10
17900.0
 20
-3810.0
  0
LWPOLYLINE
  5
1AB
100
AcDbEntity
  8
PART_PADS_SMD_TOP
100
AcDbPolyline
 90
        4
 70
         1
 10
18100.0
 20
-3810.0
 10
18100.0
 20
-2360.0
 10
18400.0
 20
-2360.0
 10
18400.0
 20
-3810.0
  0
LWPOLYLINE
  5
1AC
100
AcDbEntity
  8
PART_PADS_SMD_TOP
100
AcDbPolyline
 90
        4
 70
         1
 10
18600.0
 20
-3810.0
 10
18600.0
 20
-2360.0
 10
18900.0
 20
-2360.0
 10
18900.0
 20
-3810.0
  0
LWPOLYLINE
  5
1AD
100
AcDbEntity
  8
PART_PADS_SMD_TOP
100
AcDbPolyline
 90
        4
 70
         1
 10
19100.0
 20
-3810.0
 10
19100.0
 20
-2360.0
 10
19400.0
 20
-2360.0
 10
19400.0
 20
-3810.0
  0
LWPOLYLINE
  5
1AE
100
AcDbEntity
  8
PART_PADS_SMD_TOP
100
AcDbPolyline
 90
        4
 70
         1
 10
19600.0
 20
-3810.0
 10
19600.0
 20
-2360.0
 10
19900.0
 20
-2360.0
 10
19900.0
 20
-3810.0
  0
LWPOLYLINE
  5
1AF
100
AcDbEntity
  8
PART_PADS_SMD_TOP
100
AcDbPolyline
 90
        4
 70
         1
 10
-19900.0
 20
2360.0
 10
-19900.0
 20
3810.0
 10
-19600.0
 20
3810.0
 10
-19600.0
 20
2360.0
  0
LWPOLYLINE
  5
1B0
100
AcDbEntity
  8
PART_PADS_SMD_TOP
100
AcDbPolyline
 90
        4
 70
         1
 10
-19400.0
 20
2360.0
 10
-19400.0
 20
3810.0
 10
-19100.0
 20
3810.0
 10
-19100.0
 20
2360.0
  0
LWPOLYLINE
  5
1B1
100
AcDbEntity
  8
PART_PADS_SMD_TOP
100
AcDbPolyline
 90
        4
 70
         1
 10
-18900.0
 20
2360.0
 10
-18900.0
 20
3810.0
 10
-18600.0
 20
3810.0
 10
-18600.0
 20
2360.0
  0
LWPOLYLINE
  5
1B2
100
AcDbEntity
  8
PART_PADS_SMD_TOP
100
AcDbPolyline
 90
        4
 70
         1
 10
-18400.0
 20
2360.0
 10
-18400.0
 20
3810.0
 10
-18100.0
 20
3810.0
 10
-18100.0
 20
2360.0
  0
LWPOLYLINE
  5
1B3
100
AcDbEntity
  8
PART_PADS_SMD_TOP
100
AcDbPolyline
 90
        4
 70
         1
 10
-17900.0
 20
2360.0
 10
-17900.0
 20
3810.0
 10
-17600.0
 20
3810.0
 10
-17600.0
 20
2360.0
  0
LWPOLYLINE
  5
1B4
100
AcDbEntity
  8
PART_PADS_SMD_TOP
100
AcDbPolyline
 90
        4
 70
         1
 10
-17400.0
 20
2360.0
 10
-17400.0
 20
3810.0
 10
-17100.0
 20
3810.0
 10
-17100.0
 20
2360.0
  0
LWPOLYLINE
  5
1B5
100
AcDbEntity
  8
PART_PADS_SMD_TOP
100
AcDbPolyline
 90
        4
 70
         1
 10
-16900.0
 20
2360.0
 10
-16900.0
 20
3810.0
 10
-16600.0
 20
3810.0
 10
-16600.0
 20
2360.0
  0
LWPOLYLINE
  5
1B6
100
AcDbEntity
  8
PART_PADS_SMD_TOP
100
AcDbPolyline
 90
        4
 70
         1
 10
-16400.0
 20
2360.0
 10
-16400.0
 20
3810.0
 10
-16100.0
 20
3810.0
 10
-16100.0
 20
2360.0
  0
LWPOLYLINE
  5
1B7
100
AcDbEntity
  8
PART_PADS_SMD_TOP
100
AcDbPolyline
 90
        4
 70
         1
 10
-15900.0
 20
2360.0
 10
-15900.0
 20
3810.0
 10
-15600.0
 20
3810.0
 10
-15600.0
 20
2360.0
  0
LWPOLYLINE
  5
1B8
100
AcDbEntity
  8
PART_PADS_SMD_TOP
100
AcDbPolyline
 90
        4
 70
         1
 10
-15400.0
 20
2360.0
 10
-15400.0
 20
3810.0
 10
-15100.0
 20
3810.0
 10
-15100.0
 20
2360.0
  0
LWPOLYLINE
  5
1B9
100
AcDbEntity
  8
PART_PADS_SMD_TOP
100
AcDbPolyline
 90
        4
 70
         1
 10
-14900.0
 20
2360.0
 10
-14900.0
 20
3810.0
 10
-14600.0
 20
3810.0
 10
-14600.0
 20
2360.0
  0
LWPOLYLINE
  5
1BA
100
AcDbEntity
  8
PART_PADS_SMD_TOP
100
AcDbPolyline
 90
        4
 70
         1
 10
-14400.0
 20
2360.0
 10
-14400.0
 20
3810.0
 10
-14100.0
 20
3810.0
 10
-14100.0
 20
2360.0
  0
LWPOLYLINE
  5
1BB
100
AcDbEntity
  8
PART_PADS_SMD_TOP
100
AcDbPolyline
 90
        4
 70
         1
 10
-13900.0
 20
2360.0
 10
-13900.0
 20
3810.0
 10
-13600.0
 20
3810.0
 10
-13600.0
 20
2360.0
  0
LWPOLYLINE
  5
1BC
100
AcDbEntity
  8
PART_PADS_SMD_TOP
100
AcDbPolyline
 90
        4
 70
         1
 10
-13400.0
 20
2360.0
 10
-13400.0
 20
3810.0
 10
-13100.0
 20
3810.0
 10
-13100.0
 20
2360.0
  0
LWPOLYLINE
  5
1BD
100
AcDbEntity
  8
PART_PADS_SMD_TOP
100
AcDbPolyline
 90
        4
 70
         1
 10
-12900.0
 20
2360.0
 10
-12900.0
 20
3810.0
 10
-12600.0
 20
3810.0
 10
-12600.0
 20
2360.0
  0
LWPOLYLINE
  5
1BE
100
AcDbEntity
  8
PART_PADS_SMD_TOP
100
AcDbPolyline
 90
        4
 70
         1
 10
-12400.0
 20
2360.0
 10
-12400.0
 20
3810.0
 10
-12100.0
 20
3810.0
 10
-12100.0
 20
2360.0
  0
LWPOLYLINE
  5
1BF
100
AcDbEntity
  8
PART_PADS_SMD_TOP
100
AcDbPolyline
 90
        4
 70
         1
 10
-11900.0
 20
2360.0
 10
-11900.0
 20
3810.0
 10
-11600.0
 20
3810.0
 10
-11600.0
 20
2360.0
  0
LWPOLYLINE
  5
1C0
100
AcDbEntity
  8
PART_PADS_SMD_TOP
100
AcDbPolyline
 90
        4
 70
         1
 10
-11400.0
 20
2360.0
 10
-11400.0
 20
3810.0
 10
-11100.0
 20
3810.0
 10
-11100.0
 20
2360.0
  0
LWPOLYLINE
  5
1C1
100
AcDbEntity
  8
PART_PADS_SMD_TOP
100
AcDbPolyline
 90
        4
 70
         1
 10
-10900.0
 20
2360.0
 10
-10900.0
 20
3810.0
 10
-10600.0
 20
3810.0
 10
-10600.0
 20
2360.0
  0
LWPOLYLINE
  5
1C2
100
AcDbEntity
  8
PART_PADS_SMD_TOP
100
AcDbPolyline
 90
        4
 70
         1
 10
-10400.0
 20
2360.0
 10
-10400.0
 20
3810.0
 10
-10100.0
 20
3810.0
 10
-10100.0
 20
2360.0
  0
LWPOLYLINE
  5
1C3
100
AcDbEntity
  8
PART_PADS_SMD_TOP
100
AcDbPolyline
 90
        4
 70
         1
 10
-9900.0
 20
2360.0
 10
-9900.0
 20
3810.0
 10
-9600.0
 20
3810.0
 10
-9600.0
 20
2360.0
  0
LWPOLYLINE
  5
1C4
100
AcDbEntity
  8
PART_PADS_SMD_TOP
100
AcDbPolyline
 90
        4
 70
         1
 10
-9400.0
 20
2360.0
 10
-9400.0
 20
3810.0
 10
-9100.0
 20
3810.0
 10
-9100.0
 20
2360.0
  0
LWPOLYLINE
  5
1C5
100
AcDbEntity
  8
PART_PADS_SMD_TOP
100
AcDbPolyline
 90
        4
 70
         1
 10
-8900.0
 20
2360.0
 10
-8900.0
 20
3810.0
 10
-8600.0
 20
3810.0
 10
-8600.0
 20
2360.0
  0
LWPOLYLINE
  5
1C6
100
AcDbEntity
  8
PART_PADS_SMD_TOP
100
AcDbPolyline
 90
        4
 70
         1
 10
-8400.0
 20
2360.0
 10
-8400.0
 20
3810.0
 10
-8100.0
 20
3810.0
 10
-8100.0
 20
2360.0
  0
LWPOLYLINE
  5
1C7
100
AcDbEntity
  8
PART_PADS_SMD_TOP
100
AcDbPolyline
 90
        4
 70
         1
 10
-7900.0
 20
2360.0
 10
-7900.0
 20
3810.0
 10
-7600.0
 20
3810.0
 10
-7600.0
 20
2360.0
  0
LWPOLYLINE
  5
1C8
100
AcDbEntity
  8
PART_PADS_SMD_TOP
100
AcDbPolyline
 90
        4
 70
         1
 10
-7400.0
 20
2360.0
 10
-7400.0
 20
3810.0
 10
-7100.0
 20
3810.0
 10
-7100.0
 20
2360.0
  0
LWPOLYLINE
  5
1C9
100
AcDbEntity
  8
PART_PADS_SMD_TOP
100
AcDbPolyline
 90
        4
 70
         1
 10
-6900.0
 20
2360.0
 10
-6900.0
 20
3810.0
 10
-6600.0
 20
3810.0
 10
-6600.0
 20
2360.0
  0
LWPOLYLINE
  5
1CA
100
AcDbEntity
  8
PART_PADS_SMD_TOP
100
AcDbPolyline
 90
        4
 70
         1
 10
-6400.0
 20
2360.0
 10
-6400.0
 20
3810.0
 10
-6100.0
 20
3810.0
 10
-6100.0
 20
2360.0
  0
LWPOLYLINE
  5
1CB
100
AcDbEntity
  8
PART_PADS_SMD_TOP
100
AcDbPolyline
 90
        4
 70
         1
 10
-5900.0
 20
2360.0
 10
-5900.0
 20
3810.0
 10
-5600.0
 20
3810.0
 10
-5600.0
 20
2360.0
  0
LWPOLYLINE
  5
1CC
100
AcDbEntity
  8
PART_PADS_SMD_TOP
100
AcDbPolyline
 90
        4
 70
         1
 10
-5400.0
 20
2360.0
 10
-5400.0
 20
3810.0
 10
-5100.0
 20
3810.0
 10
-5100.0
 20
2360.0
  0
LWPOLYLINE
  5
1CD
100
AcDbEntity
  8
PART_PADS_SMD_TOP
100
AcDbPolyline
 90
        4
 70
         1
 10
-4900.0
 20
2360.0
 10
-4900.0
 20
3810.0
 10
-4600.0
 20
3810.0
 10
-4600.0
 20
2360.0
  0
LWPOLYLINE
  5
1CE
100
AcDbEntity
  8
PART_PADS_SMD_TOP
100
AcDbPolyline
 90
        4
 70
         1
 10
-4400.0
 20
2360.0
 10
-4400.0
 20
3810.0
 10
-4100.0
 20
3810.0
 10
-4100.0
 20
2360.0
  0
LWPOLYLINE
  5
1CF
100
AcDbEntity
  8
PART_PADS_SMD_TOP
100
AcDbPolyline
 90
        4
 70
         1
 10
-3900.0
 20
2360.0
 10
-3900.0
 20
3810.0
 10
-3600.0
 20
3810.0
 10
-3600.0
 20
2360.0
  0
LWPOLYLINE
  5
1D0
100
AcDbEntity
  8
PART_PADS_SMD_TOP
100
AcDbPolyline
 90
        4
 70
         1
 10
-3400.0
 20
2360.0
 10
-3400.0
 20
3810.0
 10
-3100.0
 20
3810.0
 10
-3100.0
 20
2360.0
  0
LWPOLYLINE
  5
1D1
100
AcDbEntity
  8
PART_PADS_SMD_TOP
100
AcDbPolyline
 90
        4
 70
         1
 10
-2900.0
 20
2360.0
 10
-2900.0
 20
3810.0
 10
-2600.0
 20
3810.0
 10
-2600.0
 20
2360.0
  0
LWPOLYLINE
  5
1D2
100
AcDbEntity
  8
PART_PADS_SMD_TOP
100
AcDbPolyline
 90
        4
 70
         1
 10
-2400.0
 20
2360.0
 10
-2400.0
 20
3810.0
 10
-2100.0
 20
3810.0
 10
-2100.0
 20
2360.0
  0
LWPOLYLINE
  5
1D3
100
AcDbEntity
  8
PART_PADS_SMD_TOP
100
AcDbPolyline
 90
        4
 70
         1
 10
-1900.0
 20
2360.0
 10
-1900.0
 20
3810.0
 10
-1600.0
 20
3810.0
 10
-1600.0
 20
2360.0
  0
LWPOLYLINE
  5
1D4
100
AcDbEntity
  8
PART_PADS_SMD_TOP
100
AcDbPolyline
 90
        4
 70
         1
 10
-1400.0
 20
2360.0
 10
-1400.0
 20
3810.0
 10
-1100.0
 20
3810.0
 10
-1100.0
 20
2360.0
  0
LWPOLYLINE
  5
1D5
100
AcDbEntity
  8
PART_PADS_SMD_TOP
100
AcDbPolyline
 90
        4
 70
         1
 10
-900.0
 20
2360.0
 10
-900.0
 20
3810.0
 10
-600.0
 20
3810.0
 10
-600.0
 20
2360.0
  0
LWPOLYLINE
  5
1D6
100
AcDbEntity
  8
PART_PADS_SMD_TOP
100
AcDbPolyline
 90
        4
 70
         1
 10
-400.0
 20
2360.0
 10
-400.0
 20
3810.0
 10
-100.0
 20
3810.0
 10
-100.0
 20
2360.0
  0
LWPOLYLINE
  5
1D7
100
AcDbEntity
  8
PART_PADS_SMD_TOP
100
AcDbPolyline
 90
        4
 70
         1
 10
100.0
 20
2360.0
 10
100.0
 20
3810.0
 10
400.0
 20
3810.0
 10
400.0
 20
2360.0
  0
LWPOLYLINE
  5
1D8
100
AcDbEntity
  8
PART_PADS_SMD_TOP
100
AcDbPolyline
 90
        4
 70
         1
 10
600.0
 20
2360.0
 10
600.0
 20
3810.0
 10
900.0
 20
3810.0
 10
900.0
 20
2360.0
  0
LWPOLYLINE
  5
1D9
100
AcDbEntity
  8
PART_PADS_SMD_TOP
100
AcDbPolyline
 90
        4
 70
         1
 10
1100.0
 20
2360.0
 10
1100.0
 20
3810.0
 10
1400.0
 20
3810.0
 10
1400.0
 20
2360.0
  0
LWPOLYLINE
  5
1DA
100
AcDbEntity
  8
PART_PADS_SMD_TOP
100
AcDbPolyline
 90
        4
 70
         1
 10
1600.0
 20
2360.0
 10
1600.0
 20
3810.0
 10
1900.0
 20
3810.0
 10
1900.0
 20
2360.0
  0
LWPOLYLINE
  5
1DB
100
AcDbEntity
  8
PART_PADS_SMD_TOP
100
AcDbPolyline
 90
        4
 70
         1
 10
2100.0
 20
2360.0
 10
2100.0
 20
3810.0
 10
2400.0
 20
3810.0
 10
2400.0
 20
2360.0
  0
LWPOLYLINE
  5
1DC
100
AcDbEntity
  8
PART_PADS_SMD_TOP
100
AcDbPolyline
 90
        4
 70
         1
 10
2600.0
 20
2360.0
 10
2600.0
 20
3810.0
 10
2900.0
 20
3810.0
 10
2900.0
 20
2360.0
  0
LWPOLYLINE
  5
1DD
100
AcDbEntity
  8
PART_PADS_SMD_TOP
100
AcDbPolyline
 90
        4
 70
         1
 10
3100.0
 20
2360.0
 10
3100.0
 20
3810.0
 10
3400.0
 20
3810.0
 10
3400.0
 20
2360.0
  0
LWPOLYLINE
  5
1DE
100
AcDbEntity
  8
PART_PADS_SMD_TOP
100
AcDbPolyline
 90
        4
 70
         1
 10
3600.0
 20
2360.0
 10
3600.0
 20
3810.0
 10
3900.0
 20
3810.0
 10
3900.0
 20
2360.0
  0
LWPOLYLINE
  5
1DF
100
AcDbEntity
  8
PART_PADS_SMD_TOP
100
AcDbPolyline
 90
        4
 70
         1
 10
4100.0
 20
2360.0
 10
4100.0
 20
3810.0
 10
4400.0
 20
3810.0
 10
4400.0
 20
2360.0
  0
LWPOLYLINE
  5
1E0
100
AcDbEntity
  8
PART_PADS_SMD_TOP
100
AcDbPolyline
 90
        4
 70
         1
 10
4600.0
 20
2360.0
 10
4600.0
 20
3810.0
 10
4900.0
 20
3810.0
 10
4900.0
 20
2360.0
  0
LWPOLYLINE
  5
1E1
100
AcDbEntity
  8
PART_PADS_SMD_TOP
100
AcDbPolyline
 90
        4
 70
         1
 10
5100.0
 20
2360.0
 10
5100.0
 20
3810.0
 10
5400.0
 20
3810.0
 10
5400.0
 20
2360.0
  0
LWPOLYLINE
  5
1E2
100
AcDbEntity
  8
PART_PADS_SMD_TOP
100
AcDbPolyline
 90
        4
 70
         1
 10
5600.0
 20
2360.0
 10
5600.0
 20
3810.0
 10
5900.0
 20
3810.0
 10
5900.0
 20
2360.0
  0
LWPOLYLINE
  5
1E3
100
AcDbEntity
  8
PART_PADS_SMD_TOP
100
AcDbPolyline
 90
        4
 70
         1
 10
6100.0
 20
2360.0
 10
6100.0
 20
3810.0
 10
6400.0
 20
3810.0
 10
6400.0
 20
2360.0
  0
LWPOLYLINE
  5
1E4
100
AcDbEntity
  8
PART_PADS_SMD_TOP
100
AcDbPolyline
 90
        4
 70
         1
 10
6600.0
 20
2360.0
 10
6600.0
 20
3810.0
 10
6900.0
 20
3810.0
 10
6900.0
 20
2360.0
  0
LWPOLYLINE
  5
1E5
100
AcDbEntity
  8
PART_PADS_SMD_TOP
100
AcDbPolyline
 90
        4
 70
         1
 10
7100.0
 20
2360.0
 10
7100.0
 20
3810.0
 10
7400.0
 20
3810.0
 10
7400.0
 20
2360.0
  0
LWPOLYLINE
  5
1E6
100
AcDbEntity
  8
PART_PADS_SMD_TOP
100
AcDbPolyline
 90
        4
 70
         1
 10
7600.0
 20
2360.0
 10
7600.0
 20
3810.0
 10
7900.0
 20
3810.0
 10
7900.0
 20
2360.0
  0
LWPOLYLINE
  5
1E7
100
AcDbEntity
  8
PART_PADS_SMD_TOP
100
AcDbPolyline
 90
        4
 70
         1
 10
8100.0
 20
2360.0
 10
8100.0
 20
3810.0
 10
8400.0
 20
3810.0
 10
8400.0
 20
2360.0
  0
LWPOLYLINE
  5
1E8
100
AcDbEntity
  8
PART_PADS_SMD_TOP
100
AcDbPolyline
 90
        4
 70
         1
 10
8600.0
 20
2360.0
 10
8600.0
 20
3810.0
 10
8900.0
 20
3810.0
 10
8900.0
 20
2360.0
  0
LWPOLYLINE
  5
1E9
100
AcDbEntity
  8
PART_PADS_SMD_TOP
100
AcDbPolyline
 90
        4
 70
         1
 10
9100.0
 20
2360.0
 10
9100.0
 20
3810.0
 10
9400.0
 20
3810.0
 10
9400.0
 20
2360.0
  0
LWPOLYLINE
  5
1EA
100
AcDbEntity
  8
PART_PADS_SMD_TOP
100
AcDbPolyline
 90
        4
 70
         1
 10
9600.0
 20
2360.0
 10
9600.0
 20
3810.0
 10
9900.0
 20
3810.0
 10
9900.0
 20
2360.0
  0
LWPOLYLINE
  5
1EB
100
AcDbEntity
  8
PART_PADS_SMD_TOP
100
AcDbPolyline
 90
        4
 70
         1
 10
10100.0
 20
2360.0
 10
10100.0
 20
3810.0
 10
10400.0
 20
3810.0
 10
10400.0
 20
2360.0
  0
LWPOLYLINE
  5
1EC
100
AcDbEntity
  8
PART_PADS_SMD_TOP
100
AcDbPolyline
 90
        4
 70
         1
 10
10600.0
 20
2360.0
 10
10600.0
 20
3810.0
 10
10900.0
 20
3810.0
 10
10900.0
 20
2360.0
  0
LWPOLYLINE
  5
1ED
100
AcDbEntity
  8
PART_PADS_SMD_TOP
100
AcDbPolyline
 90
        4
 70
         1
 10
11100.0
 20
2360.0
 10
11100.0
 20
3810.0
 10
11400.0
 20
3810.0
 10
11400.0
 20
2360.0
  0
LWPOLYLINE
  5
1EE
100
AcDbEntity
  8
PART_PADS_SMD_TOP
100
AcDbPolyline
 90
        4
 70
         1
 10
11600.0
 20
2360.0
 10
11600.0
 20
3810.0
 10
11900.0
 20
3810.0
 10
11900.0
 20
2360.0
  0
LWPOLYLINE
  5
1EF
100
AcDbEntity
  8
PART_PADS_SMD_TOP
100
AcDbPolyline
 90
        4
 70
         1
 10
12100.0
 20
2360.0
 10
12100.0
 20
3810.0
 10
12400.0
 20
3810.0
 10
12400.0
 20
2360.0
  0
LWPOLYLINE
  5
1F0
100
AcDbEntity
  8
PART_PADS_SMD_TOP
100
AcDbPolyline
 90
        4
 70
         1
 10
12600.0
 20
2360.0
 10
12600.0
 20
3810.0
 10
12900.0
 20
3810.0
 10
12900.0
 20
2360.0
  0
LWPOLYLINE
  5
1F1
100
AcDbEntity
  8
PART_PADS_SMD_TOP
100
AcDbPolyline
 90
        4
 70
         1
 10
13100.0
 20
2360.0
 10
13100.0
 20
3810.0
 10
13400.0
 20
3810.0
 10
13400.0
 20
2360.0
  0
LWPOLYLINE
  5
1F2
100
AcDbEntity
  8
PART_PADS_SMD_TOP
100
AcDbPolyline
 90
        4
 70
         1
 10
13600.0
 20
2360.0
 10
13600.0
 20
3810.0
 10
13900.0
 20
3810.0
 10
13900.0
 20
2360.0
  0
LWPOLYLINE
  5
1F3
100
AcDbEntity
  8
PART_PADS_SMD_TOP
100
AcDbPolyline
 90
        4
 70
         1
 10
14100.0
 20
2360.0
 10
14100.0
 20
3810.0
 10
14400.0
 20
3810.0
 10
14400.0
 20
2360.0
  0
LWPOLYLINE
  5
1F4
100
AcDbEntity
  8
PART_PADS_SMD_TOP
100
AcDbPolyline
 90
        4
 70
         1
 10
14600.0
 20
2360.0
 10
14600.0
 20
3810.0
 10
14900.0
 20
3810.0
 10
14900.0
 20
2360.0
  0
LWPOLYLINE
  5
1F5
100
AcDbEntity
  8
PART_PADS_SMD_TOP
100
AcDbPolyline
 90
        4
 70
         1
 10
15100.0
 20
2360.0
 10
15100.0
 20
3810.0
 10
15400.0
 20
3810.0
 10
15400.0
 20
2360.0
  0
LWPOLYLINE
  5
1F6
100
AcDbEntity
  8
PART_PADS_SMD_TOP
100
AcDbPolyline
 90
        4
 70
         1
 10
15600.0
 20
2360.0
 10
15600.0
 20
3810.0
 10
15900.0
 20
3810.0
 10
15900.0
 20
2360.0
  0
LWPOLYLINE
  5
1F7
100
AcDbEntity
  8
PART_PADS_SMD_TOP
100
AcDbPolyline
 90
        4
 70
         1
 10
16100.0
 20
2360.0
 10
16100.0
 20
3810.0
 10
16400.0
 20
3810.0
 10
16400.0
 20
2360.0
  0
LWPOLYLINE
  5
1F8
100
AcDbEntity
  8
PART_PADS_SMD_TOP
100
AcDbPolyline
 90
        4
 70
         1
 10
16600.0
 20
2360.0
 10
16600.0
 20
3810.0
 10
16900.0
 20
3810.0
 10
16900.0
 20
2360.0
  0
LWPOLYLINE
  5
1F9
100
AcDbEntity
  8
PART_PADS_SMD_TOP
100
AcDbPolyline
 90
        4
 70
         1
 10
17100.0
 20
2360.0
 10
17100.0
 20
3810.0
 10
17400.0
 20
3810.0
 10
17400.0
 20
2360.0
  0
LWPOLYLINE
  5
1FA
100
AcDbEntity
  8
PART_PADS_SMD_TOP
100
AcDbPolyline
 90
        4
 70
         1
 10
17600.0
 20
2360.0
 10
17600.0
 20
3810.0
 10
17900.0
 20
3810.0
 10
17900.0
 20
2360.0
  0
LWPOLYLINE
  5
1FB
100
AcDbEntity
  8
PART_PADS_SMD_TOP
100
AcDbPolyline
 90
        4
 70
         1
 10
18100.0
 20
2360.0
 10
18100.0
 20
3810.0
 10
18400.0
 20
3810.0
 10
18400.0
 20
2360.0
  0
LWPOLYLINE
  5
1FC
100
AcDbEntity
  8
PART_PADS_SMD_TOP
100
AcDbPolyline
 90
        4
 70
         1
 10
18600.0
 20
2360.0
 10
18600.0
 20
3810.0
 10
18900.0
 20
3810.0
 10
18900.0
 20
2360.0
  0
LWPOLYLINE
  5
1FD
100
AcDbEntity
  8
PART_PADS_SMD_TOP
100
AcDbPolyline
 90
        4
 70
         1
 10
19100.0
 20
2360.0
 10
19100.0
 20
3810.0
 10
19400.0
 20
3810.0
 10
19400.0
 20
2360.0
  0
LWPOLYLINE
  5
1FE
100
AcDbEntity
  8
PART_PADS_SMD_TOP
100
AcDbPolyline
 90
        4
 70
         1
 10
19600.0
 20
2360.0
 10
19600.0
 20
3810.0
 10
19900.0
 20
3810.0
 10
19900.0
 20
2360.0
  0
LWPOLYLINE
  5
1FF
100
AcDbEntity
  8
PART_PADS_SMD_TOP
100
AcDbPolyline
 90
        4
 70
         1
 10
-12399.996
 20
6045.002
 10
-12399.996
 20
7495.002
 10
-12099.996
 20
7495.002
 10
-12099.996
 20
6045.002
  0
LWPOLYLINE
  5
200
100
AcDbEntity
  8
PART_PADS_SMD_TOP
100
AcDbPolyline
 90
        4
 70
         1
 10
-11899.996
 20
6045.002
 10
-11899.996
 20
7495.002
 10
-11599.996
 20
7495.002
 10
-11599.996
 20
6045.002
  0
LWPOLYLINE
  5
201
100
AcDbEntity
  8
PART_PADS_SMD_TOP
100
AcDbPolyline
 90
        4
 70
         1
 10
-11399.996
 20
6045.002
 10
-11399.996
 20
7495.002
 10
-11099.996
 20
7495.002
 10
-11099.996
 20
6045.002
  0
LWPOLYLINE
  5
202
100
AcDbEntity
  8
PART_PADS_SMD_TOP
100
AcDbPolyline
 90
        4
 70
         1
 10
-10899.996
 20
6045.002
 10
-10899.996
 20
7495.002
 10
-10599.996
 20
7495.002
 10
-10599.996
 20
6045.002
  0
LWPOLYLINE
  5
203
100
AcDbEntity
  8
PART_PADS_SMD_TOP
100
AcDbPolyline
 90
        4
 70
         1
 10
-10399.996
 20
6045.002
 10
-10399.996
 20
7495.002
 10
-10099.996
 20
7495.002
 10
-10099.996
 20
6045.002
  0
LWPOLYLINE
  5
204
100
AcDbEntity
  8
PART_PADS_SMD_TOP
100
AcDbPolyline
 90
        4
 70
         1
 10
-9899.996
 20
6045.002
 10
-9899.996
 20
7495.002
 10
-9599.996
 20
7495.002
 10
-9599.996
 20
6045.002
  0
LWPOLYLINE
  5
205
100
AcDbEntity
  8
PART_PADS_SMD_TOP
100
AcDbPolyline
 90
        4
 70
         1
 10
-9399.996
 20
6045.002
 10
-9399.996
 20
7495.002
 10
-9099.996
 20
7495.002
 10
-9099.996
 20
6045.002
  0
LWPOLYLINE
  5
206
100
AcDbEntity
  8
PART_PADS_SMD_TOP
100
AcDbPolyline
 90
        4
 70
         1
 10
-8899.996
 20
6045.002
 10
-8899.996
 20
7495.002
 10
-8599.996
 20
7495.002
 10
-8599.996
 20
6045.002
  0
LWPOLYLINE
  5
207
100
AcDbEntity
  8
PART_PADS_SMD_TOP
100
AcDbPolyline
 90
        4
 70
         1
 10
-8399.996
 20
6045.002
 10
-8399.996
 20
7495.002
 10
-8099.996
 20
7495.002
 10
-8099.996
 20
6045.002
  0
LWPOLYLINE
  5
208
100
AcDbEntity
  8
PART_PADS_SMD_TOP
100
AcDbPolyline
 90
        4
 70
         1
 10
-7899.996
 20
6045.002
 10
-7899.996
 20
7495.002
 10
-7599.996
 20
7495.002
 10
-7599.996
 20
6045.002
  0
LWPOLYLINE
  5
209
100
AcDbEntity
  8
PART_PADS_SMD_TOP
100
AcDbPolyline
 90
        4
 70
         1
 10
-7399.996
 20
6045.002
 10
-7399.996
 20
7495.002
 10
-7099.996
 20
7495.002
 10
-7099.996
 20
6045.002
  0
LWPOLYLINE
  5
20A
100
AcDbEntity
  8
PART_PADS_SMD_TOP
100
AcDbPolyline
 90
        4
 70
         1
 10
-6899.996
 20
6045.002
 10
-6899.996
 20
7495.002
 10
-6599.996
 20
7495.002
 10
-6599.996
 20
6045.002
  0
LWPOLYLINE
  5
20B
100
AcDbEntity
  8
PART_PADS_SMD_TOP
100
AcDbPolyline
 90
        4
 70
         1
 10
-6399.996
 20
6045.002
 10
-6399.996
 20
7495.002
 10
-6099.996
 20
7495.002
 10
-6099.996
 20
6045.002
  0
LWPOLYLINE
  5
20C
100
AcDbEntity
  8
PART_PADS_SMD_TOP
100
AcDbPolyline
 90
        4
 70
         1
 10
-5899.996
 20
6045.002
 10
-5899.996
 20
7495.002
 10
-5599.996
 20
7495.002
 10
-5599.996
 20
6045.002
  0
LWPOLYLINE
  5
20D
100
AcDbEntity
  8
PART_PADS_SMD_TOP
100
AcDbPolyline
 90
        4
 70
         1
 10
-5399.996
 20
6045.002
 10
-5399.996
 20
7495.002
 10
-5099.996
 20
7495.002
 10
-5099.996
 20
6045.002
  0
LWPOLYLINE
  5
20E
100
AcDbEntity
  8
PART_PADS_SMD_TOP
100
AcDbPolyline
 90
        4
 70
         1
 10
-4899.996
 20
6045.002
 10
-4899.996
 20
7495.002
 10
-4599.996
 20
7495.002
 10
-4599.996
 20
6045.002
  0
LWPOLYLINE
  5
20F
100
AcDbEntity
  8
PART_PADS_SMD_TOP
100
AcDbPolyline
 90
        4
 70
         1
 10
-4399.996
 20
6045.002
 10
-4399.996
 20
7495.002
 10
-4099.996
 20
7495.002
 10
-4099.996
 20
6045.002
  0
LWPOLYLINE
  5
210
100
AcDbEntity
  8
PART_PADS_SMD_TOP
100
AcDbPolyline
 90
        4
 70
         1
 10
-3899.996
 20
6045.002
 10
-3899.996
 20
7495.002
 10
-3599.996
 20
7495.002
 10
-3599.996
 20
6045.002
  0
LWPOLYLINE
  5
211
100
AcDbEntity
  8
PART_PADS_SMD_TOP
100
AcDbPolyline
 90
        4
 70
         1
 10
-3399.996
 20
6045.002
 10
-3399.996
 20
7495.002
 10
-3099.996
 20
7495.002
 10
-3099.996
 20
6045.002
  0
LWPOLYLINE
  5
212
100
AcDbEntity
  8
PART_PADS_SMD_TOP
100
AcDbPolyline
 90
        4
 70
         1
 10
-2899.996
 20
6045.002
 10
-2899.996
 20
7495.002
 10
-2599.996
 20
7495.002
 10
-2599.996
 20
6045.002
  0
LWPOLYLINE
  5
213
100
AcDbEntity
  8
PART_PADS_SMD_TOP
100
AcDbPolyline
 90
        4
 70
         1
 10
-2399.996
 20
6045.002
 10
-2399.996
 20
7495.002
 10
-2099.996
 20
7495.002
 10
-2099.996
 20
6045.002
  0
LWPOLYLINE
  5
214
100
AcDbEntity
  8
PART_PADS_SMD_TOP
100
AcDbPolyline
 90
        4
 70
         1
 10
-1899.996
 20
6045.002
 10
-1899.996
 20
7495.002
 10
-1599.996
 20
7495.002
 10
-1599.996
 20
6045.002
  0
LWPOLYLINE
  5
215
100
AcDbEntity
  8
PART_PADS_SMD_TOP
100
AcDbPolyline
 90
        4
 70
         1
 10
-1399.996
 20
6045.002
 10
-1399.996
 20
7495.002
 10
-1099.996
 20
7495.002
 10
-1099.996
 20
6045.002
  0
LWPOLYLINE
  5
216
100
AcDbEntity
  8
PART_PADS_SMD_TOP
100
AcDbPolyline
 90
        4
 70
         1
 10
-899.996
 20
6045.002
 10
-899.996
 20
7495.002
 10
-599.996
 20
7495.002
 10
-599.996
 20
6045.002
  0
LWPOLYLINE
  5
217
100
AcDbEntity
  8
PART_PADS_SMD_TOP
100
AcDbPolyline
 90
        4
 70
         1
 10
-399.996
 20
6045.002
 10
-399.996
 20
7495.002
 10
-99.996
 20
7495.002
 10
-99.996
 20
6045.002
  0
LWPOLYLINE
  5
218
100
AcDbEntity
  8
PART_PADS_SMD_TOP
100
AcDbPolyline
 90
        4
 70
         1
 10
100.004
 20
6045.002
 10
100.004
 20
7495.002
 10
400.004
 20
7495.002
 10
400.004
 20
6045.002
  0
LWPOLYLINE
  5
219
100
AcDbEntity
  8
PART_PADS_SMD_TOP
100
AcDbPolyline
 90
        4
 70
         1
 10
600.004
 20
6045.002
 10
600.004
 20
7495.002
 10
900.004
 20
7495.002
 10
900.004
 20
6045.002
  0
LWPOLYLINE
  5
21A
100
AcDbEntity
  8
PART_PADS_SMD_TOP
100
AcDbPolyline
 90
        4
 70
         1
 10
1100.004
 20
6045.002
 10
1100.004
 20
7495.002
 10
1400.004
 20
7495.002
 10
1400.004
 20
6045.002
  0
LWPOLYLINE
  5
21B
100
AcDbEntity
  8
PART_PADS_SMD_TOP
100
AcDbPolyline
 90
        4
 70
         1
 10
1600.004
 20
6045.002
 10
1600.004
 20
7495.002
 10
1900.004
 20
7495.002
 10
1900.004
 20
6045.002
  0
LWPOLYLINE
  5
21C
100
AcDbEntity
  8
PART_PADS_SMD_TOP
100
AcDbPolyline
 90
        4
 70
         1
 10
2100.004
 20
6045.002
 10
2100.004
 20
7495.002
 10
2400.004
 20
7495.002
 10
2400.004
 20
6045.002
  0
LWPOLYLINE
  5
21D
100
AcDbEntity
  8
PART_PADS_SMD_TOP
100
AcDbPolyline
 90
        4
 70
         1
 10
2600.004
 20
6045.002
 10
2600.004
 20
7495.002
 10
2900.004
 20
7495.002
 10
2900.004
 20
6045.002
  0
LWPOLYLINE
  5
21E
100
AcDbEntity
  8
PART_PADS_SMD_TOP
100
AcDbPolyline
 90
        4
 70
         1
 10
3100.004
 20
6045.002
 10
3100.004
 20
7495.002
 10
3400.004
 20
7495.002
 10
3400.004
 20
6045.002
  0
LWPOLYLINE
  5
21F
100
AcDbEntity
  8
PART_PADS_SMD_TOP
100
AcDbPolyline
 90
        4
 70
         1
 10
3600.004
 20
6045.002
 10
3600.004
 20
7495.002
 10
3900.004
 20
7495.002
 10
3900.004
 20
6045.002
  0
LWPOLYLINE
  5
220
100
AcDbEntity
  8
PART_PADS_SMD_TOP
100
AcDbPolyline
 90
        4
 70
         1
 10
4100.004
 20
6045.002
 10
4100.004
 20
7495.002
 10
4400.004
 20
7495.002
 10
4400.004
 20
6045.002
  0
LWPOLYLINE
  5
221
100
AcDbEntity
  8
PART_PADS_SMD_TOP
100
AcDbPolyline
 90
        4
 70
         1
 10
4600.004
 20
6045.002
 10
4600.004
 20
7495.002
 10
4900.004
 20
7495.002
 10
4900.004
 20
6045.002
  0
LWPOLYLINE
  5
222
100
AcDbEntity
  8
PART_PADS_SMD_TOP
100
AcDbPolyline
 90
        4
 70
         1
 10
5100.004
 20
6045.002
 10
5100.004
 20
7495.002
 10
5400.004
 20
7495.002
 10
5400.004
 20
6045.002
  0
LWPOLYLINE
  5
223
100
AcDbEntity
  8
PART_PADS_SMD_TOP
100
AcDbPolyline
 90
        4
 70
         1
 10
5600.004
 20
6045.002
 10
5600.004
 20
7495.002
 10
5900.004
 20
7495.002
 10
5900.004
 20
6045.002
  0
LWPOLYLINE
  5
224
100
AcDbEntity
  8
PART_PADS_SMD_TOP
100
AcDbPolyline
 90
        4
 70
         1
 10
6100.004
 20
6045.002
 10
6100.004
 20
7495.002
 10
6400.004
 20
7495.002
 10
6400.004
 20
6045.002
  0
LWPOLYLINE
  5
225
100
AcDbEntity
  8
PART_PADS_SMD_TOP
100
AcDbPolyline
 90
        4
 70
         1
 10
6600.004
 20
6045.002
 10
6600.004
 20
7495.002
 10
6900.004
 20
7495.002
 10
6900.004
 20
6045.002
  0
LWPOLYLINE
  5
226
100
AcDbEntity
  8
PART_PADS_SMD_TOP
100
AcDbPolyline
 90
        4
 70
         1
 10
7100.004
 20
6045.002
 10
7100.004
 20
7495.002
 10
7400.004
 20
7495.002
 10
7400.004
 20
6045.002
  0
LWPOLYLINE
  5
227
100
AcDbEntity
  8
PART_PADS_SMD_TOP
100
AcDbPolyline
 90
        4
 70
         1
 10
7600.004
 20
6045.002
 10
7600.004
 20
7495.002
 10
7900.004
 20
7495.002
 10
7900.004
 20
6045.002
  0
LWPOLYLINE
  5
228
100
AcDbEntity
  8
PART_PADS_SMD_TOP
100
AcDbPolyline
 90
        4
 70
         1
 10
8100.004
 20
6045.002
 10
8100.004
 20
7495.002
 10
8400.004
 20
7495.002
 10
8400.004
 20
6045.002
  0
LWPOLYLINE
  5
229
100
AcDbEntity
  8
PART_PADS_SMD_TOP
100
AcDbPolyline
 90
        4
 70
         1
 10
8600.004
 20
6045.002
 10
8600.004
 20
7495.002
 10
8900.004
 20
7495.002
 10
8900.004
 20
6045.002
  0
LWPOLYLINE
  5
22A
100
AcDbEntity
  8
PART_PADS_SMD_TOP
100
AcDbPolyline
 90
        4
 70
         1
 10
9100.004
 20
6045.002
 10
9100.004
 20
7495.002
 10
9400.004
 20
7495.002
 10
9400.004
 20
6045.002
  0
LWPOLYLINE
  5
22B
100
AcDbEntity
  8
PART_PADS_SMD_TOP
100
AcDbPolyline
 90
        4
 70
         1
 10
9600.004
 20
6045.002
 10
9600.004
 20
7495.002
 10
9900.004
 20
7495.002
 10
9900.004
 20
6045.002
  0
LWPOLYLINE
  5
22C
100
AcDbEntity
  8
PART_PADS_SMD_TOP
100
AcDbPolyline
 90
        4
 70
         1
 10
10100.004
 20
6045.002
 10
10100.004
 20
7495.002
 10
10400.004
 20
7495.002
 10
10400.004
 20
6045.002
  0
LWPOLYLINE
  5
22D
100
AcDbEntity
  8
PART_PADS_SMD_TOP
100
AcDbPolyline
 90
        4
 70
         1
 10
10600.004
 20
6045.002
 10
10600.004
 20
7495.002
 10
10900.004
 20
7495.002
 10
10900.004
 20
6045.002
  0
LWPOLYLINE
  5
22E
100
AcDbEntity
  8
PART_PADS_SMD_TOP
100
AcDbPolyline
 90
        4
 70
         1
 10
11100.004
 20
6045.002
 10
11100.004
 20
7495.002
 10
11400.004
 20
7495.002
 10
11400.004
 20
6045.002
  0
LWPOLYLINE
  5
22F
100
AcDbEntity
  8
PART_PADS_SMD_TOP
100
AcDbPolyline
 90
        4
 70
         1
 10
11600.004
 20
6045.002
 10
11600.004
 20
7495.002
 10
11900.004
 20
7495.002
 10
11900.004
 20
6045.002
  0
LWPOLYLINE
  5
230
100
AcDbEntity
  8
PART_PADS_SMD_TOP
100
AcDbPolyline
 90
        4
 70
         1
 10
12100.004
 20
6045.002
 10
12100.004
 20
7495.002
 10
12400.004
 20
7495.002
 10
12400.004
 20
6045.002
  0
LWPOLYLINE
  5
231
100
AcDbEntity
  8
PART_PADS_SMD_TOP
100
AcDbPolyline
 90
        4
 70
         1
 10
-12399.996
 20
12215.002
 10
-12399.996
 20
13665.002
 10
-12099.996
 20
13665.002
 10
-12099.996
 20
12215.002
  0
LWPOLYLINE
  5
232
100
AcDbEntity
  8
PART_PADS_SMD_TOP
100
AcDbPolyline
 90
        4
 70
         1
 10
-11899.996
 20
12215.002
 10
-11899.996
 20
13665.002
 10
-11599.996
 20
13665.002
 10
-11599.996
 20
12215.002
  0
LWPOLYLINE
  5
233
100
AcDbEntity
  8
PART_PADS_SMD_TOP
100
AcDbPolyline
 90
        4
 70
         1
 10
-11399.996
 20
12215.002
 10
-11399.996
 20
13665.002
 10
-11099.996
 20
13665.002
 10
-11099.996
 20
12215.002
  0
LWPOLYLINE
  5
234
100
AcDbEntity
  8
PART_PADS_SMD_TOP
100
AcDbPolyline
 90
        4
 70
         1
 10
-10899.996
 20
12215.002
 10
-10899.996
 20
13665.002
 10
-10599.996
 20
13665.002
 10
-10599.996
 20
12215.002
  0
LWPOLYLINE
  5
235
100
AcDbEntity
  8
PART_PADS_SMD_TOP
100
AcDbPolyline
 90
        4
 70
         1
 10
-10399.996
 20
12215.002
 10
-10399.996
 20
13665.002
 10
-10099.996
 20
13665.002
 10
-10099.996
 20
12215.002
  0
LWPOLYLINE
  5
236
100
AcDbEntity
  8
PART_PADS_SMD_TOP
100
AcDbPolyline
 90
        4
 70
         1
 10
-9899.996
 20
12215.002
 10
-9899.996
 20
13665.002
 10
-9599.996
 20
13665.002
 10
-9599.996
 20
12215.002
  0
LWPOLYLINE
  5
237
100
AcDbEntity
  8
PART_PADS_SMD_TOP
100
AcDbPolyline
 90
        4
 70
         1
 10
-9399.996
 20
12215.002
 10
-9399.996
 20
13665.002
 10
-9099.996
 20
13665.002
 10
-9099.996
 20
12215.002
  0
LWPOLYLINE
  5
238
100
AcDbEntity
  8
PART_PADS_SMD_TOP
100
AcDbPolyline
 90
        4
 70
         1
 10
-8899.996
 20
12215.002
 10
-8899.996
 20
13665.002
 10
-8599.996
 20
13665.002
 10
-8599.996
 20
12215.002
  0
LWPOLYLINE
  5
239
100
AcDbEntity
  8
PART_PADS_SMD_TOP
100
AcDbPolyline
 90
        4
 70
         1
 10
-8399.996
 20
12215.002
 10
-8399.996
 20
13665.002
 10
-8099.996
 20
13665.002
 10
-8099.996
 20
12215.002
  0
LWPOLYLINE
  5
23A
100
AcDbEntity
  8
PART_PADS_SMD_TOP
100
AcDbPolyline
 90
        4
 70
         1
 10
-7899.996
 20
12215.002
 10
-7899.996
 20
13665.002
 10
-7599.996
 20
13665.002
 10
-7599.996
 20
12215.002
  0
LWPOLYLINE
  5
23B
100
AcDbEntity
  8
PART_PADS_SMD_TOP
100
AcDbPolyline
 90
        4
 70
         1
 10
-7399.996
 20
12215.002
 10
-7399.996
 20
13665.002
 10
-7099.996
 20
13665.002
 10
-7099.996
 20
12215.002
  0
LWPOLYLINE
  5
23C
100
AcDbEntity
  8
PART_PADS_SMD_TOP
100
AcDbPolyline
 90
        4
 70
         1
 10
-6899.996
 20
12215.002
 10
-6899.996
 20
13665.002
 10
-6599.996
 20
13665.002
 10
-6599.996
 20
12215.002
  0
LWPOLYLINE
  5
23D
100
AcDbEntity
  8
PART_PADS_SMD_TOP
100
AcDbPolyline
 90
        4
 70
         1
 10
-6399.996
 20
12215.002
 10
-6399.996
 20
13665.002
 10
-6099.996
 20
13665.002
 10
-6099.996
 20
12215.002
  0
LWPOLYLINE
  5
23E
100
AcDbEntity
  8
PART_PADS_SMD_TOP
100
AcDbPolyline
 90
        4
 70
         1
 10
-5899.996
 20
12215.002
 10
-5899.996
 20
13665.002
 10
-5599.996
 20
13665.002
 10
-5599.996
 20
12215.002
  0
LWPOLYLINE
  5
23F
100
AcDbEntity
  8
PART_PADS_SMD_TOP
100
AcDbPolyline
 90
        4
 70
         1
 10
-5399.996
 20
12215.002
 10
-5399.996
 20
13665.002
 10
-5099.996
 20
13665.002
 10
-5099.996
 20
12215.002
  0
LWPOLYLINE
  5
240
100
AcDbEntity
  8
PART_PADS_SMD_TOP
100
AcDbPolyline
 90
        4
 70
         1
 10
-4899.996
 20
12215.002
 10
-4899.996
 20
13665.002
 10
-4599.996
 20
13665.002
 10
-4599.996
 20
12215.002
  0
LWPOLYLINE
  5
241
100
AcDbEntity
  8
PART_PADS_SMD_TOP
100
AcDbPolyline
 90
        4
 70
         1
 10
-4399.996
 20
12215.002
 10
-4399.996
 20
13665.002
 10
-4099.996
 20
13665.002
 10
-4099.996
 20
12215.002
  0
LWPOLYLINE
  5
242
100
AcDbEntity
  8
PART_PADS_SMD_TOP
100
AcDbPolyline
 90
        4
 70
         1
 10
-3899.996
 20
12215.002
 10
-3899.996
 20
13665.002
 10
-3599.996
 20
13665.002
 10
-3599.996
 20
12215.002
  0
LWPOLYLINE
  5
243
100
AcDbEntity
  8
PART_PADS_SMD_TOP
100
AcDbPolyline
 90
        4
 70
         1
 10
-3399.996
 20
12215.002
 10
-3399.996
 20
13665.002
 10
-3099.996
 20
13665.002
 10
-3099.996
 20
12215.002
  0
LWPOLYLINE
  5
244
100
AcDbEntity
  8
PART_PADS_SMD_TOP
100
AcDbPolyline
 90
        4
 70
         1
 10
-2899.996
 20
12215.002
 10
-2899.996
 20
13665.002
 10
-2599.996
 20
13665.002
 10
-2599.996
 20
12215.002
  0
LWPOLYLINE
  5
245
100
AcDbEntity
  8
PART_PADS_SMD_TOP
100
AcDbPolyline
 90
        4
 70
         1
 10
-2399.996
 20
12215.002
 10
-2399.996
 20
13665.002
 10
-2099.996
 20
13665.002
 10
-2099.996
 20
12215.002
  0
LWPOLYLINE
  5
246
100
AcDbEntity
  8
PART_PADS_SMD_TOP
100
AcDbPolyline
 90
        4
 70
         1
 10
-1899.996
 20
12215.002
 10
-1899.996
 20
13665.002
 10
-1599.996
 20
13665.002
 10
-1599.996
 20
12215.002
  0
LWPOLYLINE
  5
247
100
AcDbEntity
  8
PART_PADS_SMD_TOP
100
AcDbPolyline
 90
        4
 70
         1
 10
-1399.996
 20
12215.002
 10
-1399.996
 20
13665.002
 10
-1099.996
 20
13665.002
 10
-1099.996
 20
12215.002
  0
LWPOLYLINE
  5
248
100
AcDbEntity
  8
PART_PADS_SMD_TOP
100
AcDbPolyline
 90
        4
 70
         1
 10
-899.996
 20
12215.002
 10
-899.996
 20
13665.002
 10
-599.996
 20
13665.002
 10
-599.996
 20
12215.002
  0
LWPOLYLINE
  5
249
100
AcDbEntity
  8
PART_PADS_SMD_TOP
100
AcDbPolyline
 90
        4
 70
         1
 10
-399.996
 20
12215.002
 10
-399.996
 20
13665.002
 10
-99.996
 20
13665.002
 10
-99.996
 20
12215.002
  0
LWPOLYLINE
  5
24A
100
AcDbEntity
  8
PART_PADS_SMD_TOP
100
AcDbPolyline
 90
        4
 70
         1
 10
100.004
 20
12215.002
 10
100.004
 20
13665.002
 10
400.004
 20
13665.002
 10
400.004
 20
12215.002
  0
LWPOLYLINE
  5
24B
100
AcDbEntity
  8
PART_PADS_SMD_TOP
100
AcDbPolyline
 90
        4
 70
         1
 10
600.004
 20
12215.002
 10
600.004
 20
13665.002
 10
900.004
 20
13665.002
 10
900.004
 20
12215.002
  0
LWPOLYLINE
  5
24C
100
AcDbEntity
  8
PART_PADS_SMD_TOP
100
AcDbPolyline
 90
        4
 70
         1
 10
1100.004
 20
12215.002
 10
1100.004
 20
13665.002
 10
1400.004
 20
13665.002
 10
1400.004
 20
12215.002
  0
LWPOLYLINE
  5
24D
100
AcDbEntity
  8
PART_PADS_SMD_TOP
100
AcDbPolyline
 90
        4
 70
         1
 10
1600.004
 20
12215.002
 10
1600.004
 20
13665.002
 10
1900.004
 20
13665.002
 10
1900.004
 20
12215.002
  0
LWPOLYLINE
  5
24E
100
AcDbEntity
  8
PART_PADS_SMD_TOP
100
AcDbPolyline
 90
        4
 70
         1
 10
2100.004
 20
12215.002
 10
2100.004
 20
13665.002
 10
2400.004
 20
13665.002
 10
2400.004
 20
12215.002
  0
LWPOLYLINE
  5
24F
100
AcDbEntity
  8
PART_PADS_SMD_TOP
100
AcDbPolyline
 90
        4
 70
         1
 10
2600.004
 20
12215.002
 10
2600.004
 20
13665.002
 10
2900.004
 20
13665.002
 10
2900.004
 20
12215.002
  0
LWPOLYLINE
  5
250
100
AcDbEntity
  8
PART_PADS_SMD_TOP
100
AcDbPolyline
 90
        4
 70
         1
 10
3100.004
 20
12215.002
 10
3100.004
 20
13665.002
 10
3400.004
 20
13665.002
 10
3400.004
 20
12215.002
  0
LWPOLYLINE
  5
251
100
AcDbEntity
  8
PART_PADS_SMD_TOP
100
AcDbPolyline
 90
        4
 70
         1
 10
3600.004
 20
12215.002
 10
3600.004
 20
13665.002
 10
3900.004
 20
13665.002
 10
3900.004
 20
12215.002
  0
LWPOLYLINE
  5
252
100
AcDbEntity
  8
PART_PADS_SMD_TOP
100
AcDbPolyline
 90
        4
 70
         1
 10
4100.004
 20
12215.002
 10
4100.004
 20
13665.002
 10
4400.004
 20
13665.002
 10
4400.004
 20
12215.002
  0
LWPOLYLINE
  5
253
100
AcDbEntity
  8
PART_PADS_SMD_TOP
100
AcDbPolyline
 90
        4
 70
         1
 10
4600.004
 20
12215.002
 10
4600.004
 20
13665.002
 10
4900.004
 20
13665.002
 10
4900.004
 20
12215.002
  0
LWPOLYLINE
  5
254
100
AcDbEntity
  8
PART_PADS_SMD_TOP
100
AcDbPolyline
 90
        4
 70
         1
 10
5100.004
 20
12215.002
 10
5100.004
 20
13665.002
 10
5400.004
 20
13665.002
 10
5400.004
 20
12215.002
  0
LWPOLYLINE
  5
255
100
AcDbEntity
  8
PART_PADS_SMD_TOP
100
AcDbPolyline
 90
        4
 70
         1
 10
5600.004
 20
12215.002
 10
5600.004
 20
13665.002
 10
5900.004
 20
13665.002
 10
5900.004
 20
12215.002
  0
LWPOLYLINE
  5
256
100
AcDbEntity
  8
PART_PADS_SMD_TOP
100
AcDbPolyline
 90
        4
 70
         1
 10
6100.004
 20
12215.002
 10
6100.004
 20
13665.002
 10
6400.004
 20
13665.002
 10
6400.004
 20
12215.002
  0
LWPOLYLINE
  5
257
100
AcDbEntity
  8
PART_PADS_SMD_TOP
100
AcDbPolyline
 90
        4
 70
         1
 10
6600.004
 20
12215.002
 10
6600.004
 20
13665.002
 10
6900.004
 20
13665.002
 10
6900.004
 20
12215.002
  0
LWPOLYLINE
  5
258
100
AcDbEntity
  8
PART_PADS_SMD_TOP
100
AcDbPolyline
 90
        4
 70
         1
 10
7100.004
 20
12215.002
 10
7100.004
 20
13665.002
 10
7400.004
 20
13665.002
 10
7400.004
 20
12215.002
  0
LWPOLYLINE
  5
259
100
AcDbEntity
  8
PART_PADS_SMD_TOP
100
AcDbPolyline
 90
        4
 70
         1
 10
7600.004
 20
12215.002
 10
7600.004
 20
13665.002
 10
7900.004
 20
13665.002
 10
7900.004
 20
12215.002
  0
LWPOLYLINE
  5
25A
100
AcDbEntity
  8
PART_PADS_SMD_TOP
100
AcDbPolyline
 90
        4
 70
         1
 10
8100.004
 20
12215.002
 10
8100.004
 20
13665.002
 10
8400.004
 20
13665.002
 10
8400.004
 20
12215.002
  0
LWPOLYLINE
  5
25B
100
AcDbEntity
  8
PART_PADS_SMD_TOP
100
AcDbPolyline
 90
        4
 70
         1
 10
8600.004
 20
12215.002
 10
8600.004
 20
13665.002
 10
8900.004
 20
13665.002
 10
8900.004
 20
12215.002
  0
LWPOLYLINE
  5
25C
100
AcDbEntity
  8
PART_PADS_SMD_TOP
100
AcDbPolyline
 90
        4
 70
         1
 10
9100.004
 20
12215.002
 10
9100.004
 20
13665.002
 10
9400.004
 20
13665.002
 10
9400.004
 20
12215.002
  0
LWPOLYLINE
  5
25D
100
AcDbEntity
  8
PART_PADS_SMD_TOP
100
AcDbPolyline
 90
        4
 70
         1
 10
9600.004
 20
12215.002
 10
9600.004
 20
13665.002
 10
9900.004
 20
13665.002
 10
9900.004
 20
12215.002
  0
LWPOLYLINE
  5
25E
100
AcDbEntity
  8
PART_PADS_SMD_TOP
100
AcDbPolyline
 90
        4
 70
         1
 10
10100.004
 20
12215.002
 10
10100.004
 20
13665.002
 10
10400.004
 20
13665.002
 10
10400.004
 20
12215.002
  0
LWPOLYLINE
  5
25F
100
AcDbEntity
  8
PART_PADS_SMD_TOP
100
AcDbPolyline
 90
        4
 70
         1
 10
10600.004
 20
12215.002
 10
10600.004
 20
13665.002
 10
10900.004
 20
13665.002
 10
10900.004
 20
12215.002
  0
LWPOLYLINE
  5
260
100
AcDbEntity
  8
PART_PADS_SMD_TOP
100
AcDbPolyline
 90
        4
 70
         1
 10
11100.004
 20
12215.002
 10
11100.004
 20
13665.002
 10
11400.004
 20
13665.002
 10
11400.004
 20
12215.002
  0
LWPOLYLINE
  5
261
100
AcDbEntity
  8
PART_PADS_SMD_TOP
100
AcDbPolyline
 90
        4
 70
         1
 10
11600.004
 20
12215.002
 10
11600.004
 20
13665.002
 10
11900.004
 20
13665.002
 10
11900.004
 20
12215.002
  0
LWPOLYLINE
  5
262
100
AcDbEntity
  8
PART_PADS_SMD_TOP
100
AcDbPolyline
 90
        4
 70
         1
 10
12100.004
 20
12215.002
 10
12100.004
 20
13665.002
 10
12400.004
 20
13665.002
 10
12400.004
 20
12215.002
  0
LWPOLYLINE
  5
263
100
AcDbEntity
  8
PART_PADS_SMD_TOP
100
AcDbPolyline
 90
        4
 70
         1
 10
-14899.999
 20
-46940.001
 10
-14899.999
 20
-45490.001
 10
-14599.999
 20
-45490.001
 10
-14599.999
 20
-46940.001
  0
LWPOLYLINE
  5
264
100
AcDbEntity
  8
PART_PADS_SMD_TOP
100
AcDbPolyline
 90
        4
 70
         1
 10
-14399.999
 20
-46940.001
 10
-14399.999
 20
-45490.001
 10
-14099.999
 20
-45490.001
 10
-14099.999
 20
-46940.001
  0
LWPOLYLINE
  5
265
100
AcDbEntity
  8
PART_PADS_SMD_TOP
100
AcDbPolyline
 90
        4
 70
         1
 10
-13899.999
 20
-46940.001
 10
-13899.999
 20
-45490.001
 10
-13599.999
 20
-45490.001
 10
-13599.999
 20
-46940.001
  0
LWPOLYLINE
  5
266
100
AcDbEntity
  8
PART_PADS_SMD_TOP
100
AcDbPolyline
 90
        4
 70
         1
 10
-13399.999
 20
-46940.001
 10
-13399.999
 20
-45490.001
 10
-13099.999
 20
-45490.001
 10
-13099.999
 20
-46940.001
  0
LWPOLYLINE
  5
267
100
AcDbEntity
  8
PART_PADS_SMD_TOP
100
AcDbPolyline
 90
        4
 70
         1
 10
-12899.999
 20
-46940.001
 10
-12899.999
 20
-45490.001
 10
-12599.999
 20
-45490.001
 10
-12599.999
 20
-46940.001
  0
LWPOLYLINE
  5
268
100
AcDbEntity
  8
PART_PADS_SMD_TOP
100
AcDbPolyline
 90
        4
 70
         1
 10
-12399.999
 20
-46940.001
 10
-12399.999
 20
-45490.001
 10
-12099.999
 20
-45490.001
 10
-12099.999
 20
-46940.001
  0
LWPOLYLINE
  5
269
100
AcDbEntity
  8
PART_PADS_SMD_TOP
100
AcDbPolyline
 90
        4
 70
         1
 10
-11899.999
 20
-46940.001
 10
-11899.999
 20
-45490.001
 10
-11599.999
 20
-45490.001
 10
-11599.999
 20
-46940.001
  0
LWPOLYLINE
  5
26A
100
AcDbEntity
  8
PART_PADS_SMD_TOP
100
AcDbPolyline
 90
        4
 70
         1
 10
-11399.999
 20
-46940.001
 10
-11399.999
 20
-45490.001
 10
-11099.999
 20
-45490.001
 10
-11099.999
 20
-46940.001
  0
LWPOLYLINE
  5
26B
100
AcDbEntity
  8
PART_PADS_SMD_TOP
100
AcDbPolyline
 90
        4
 70
         1
 10
-10899.999
 20
-46940.001
 10
-10899.999
 20
-45490.001
 10
-10599.999
 20
-45490.001
 10
-10599.999
 20
-46940.001
  0
LWPOLYLINE
  5
26C
100
AcDbEntity
  8
PART_PADS_SMD_TOP
100
AcDbPolyline
 90
        4
 70
         1
 10
-10399.999
 20
-46940.001
 10
-10399.999
 20
-45490.001
 10
-10099.999
 20
-45490.001
 10
-10099.999
 20
-46940.001
  0
LWPOLYLINE
  5
26D
100
AcDbEntity
  8
PART_PADS_SMD_TOP
100
AcDbPolyline
 90
        4
 70
         1
 10
-9899.999
 20
-46940.001
 10
-9899.999
 20
-45490.001
 10
-9599.999
 20
-45490.001
 10
-9599.999
 20
-46940.001
  0
LWPOLYLINE
  5
26E
100
AcDbEntity
  8
PART_PADS_SMD_TOP
100
AcDbPolyline
 90
        4
 70
         1
 10
-9399.999
 20
-46940.001
 10
-9399.999
 20
-45490.001
 10
-9099.999
 20
-45490.001
 10
-9099.999
 20
-46940.001
  0
LWPOLYLINE
  5
26F
100
AcDbEntity
  8
PART_PADS_SMD_TOP
100
AcDbPolyline
 90
        4
 70
         1
 10
-8899.999
 20
-46940.001
 10
-8899.999
 20
-45490.001
 10
-8599.999
 20
-45490.001
 10
-8599.999
 20
-46940.001
  0
LWPOLYLINE
  5
270
100
AcDbEntity
  8
PART_PADS_SMD_TOP
100
AcDbPolyline
 90
        4
 70
         1
 10
-8399.999
 20
-46940.001
 10
-8399.999
 20
-45490.001
 10
-8099.999
 20
-45490.001
 10
-8099.999
 20
-46940.001
  0
LWPOLYLINE
  5
271
100
AcDbEntity
  8
PART_PADS_SMD_TOP
100
AcDbPolyline
 90
        4
 70
         1
 10
-7899.999
 20
-46940.001
 10
-7899.999
 20
-45490.001
 10
-7599.999
 20
-45490.001
 10
-7599.999
 20
-46940.001
  0
LWPOLYLINE
  5
272
100
AcDbEntity
  8
PART_PADS_SMD_TOP
100
AcDbPolyline
 90
        4
 70
         1
 10
-7399.999
 20
-46940.001
 10
-7399.999
 20
-45490.001
 10
-7099.999
 20
-45490.001
 10
-7099.999
 20
-46940.001
  0
LWPOLYLINE
  5
273
100
AcDbEntity
  8
PART_PADS_SMD_TOP
100
AcDbPolyline
 90
        4
 70
         1
 10
-6899.999
 20
-46940.001
 10
-6899.999
 20
-45490.001
 10
-6599.999
 20
-45490.001
 10
-6599.999
 20
-46940.001
  0
LWPOLYLINE
  5
274
100
AcDbEntity
  8
PART_PADS_SMD_TOP
100
AcDbPolyline
 90
        4
 70
         1
 10
-6399.999
 20
-46940.001
 10
-6399.999
 20
-45490.001
 10
-6099.999
 20
-45490.001
 10
-6099.999
 20
-46940.001
  0
LWPOLYLINE
  5
275
100
AcDbEntity
  8
PART_PADS_SMD_TOP
100
AcDbPolyline
 90
        4
 70
         1
 10
-5899.999
 20
-46940.001
 10
-5899.999
 20
-45490.001
 10
-5599.999
 20
-45490.001
 10
-5599.999
 20
-46940.001
  0
LWPOLYLINE
  5
276
100
AcDbEntity
  8
PART_PADS_SMD_TOP
100
AcDbPolyline
 90
        4
 70
         1
 10
-5399.999
 20
-46940.001
 10
-5399.999
 20
-45490.001
 10
-5099.999
 20
-45490.001
 10
-5099.999
 20
-46940.001
  0
LWPOLYLINE
  5
277
100
AcDbEntity
  8
PART_PADS_SMD_TOP
100
AcDbPolyline
 90
        4
 70
         1
 10
-4899.999
 20
-46940.001
 10
-4899.999
 20
-45490.001
 10
-4599.999
 20
-45490.001
 10
-4599.999
 20
-46940.001
  0
LWPOLYLINE
  5
278
100
AcDbEntity
  8
PART_PADS_SMD_TOP
100
AcDbPolyline
 90
        4
 70
         1
 10
-4399.999
 20
-46940.001
 10
-4399.999
 20
-45490.001
 10
-4099.999
 20
-45490.001
 10
-4099.999
 20
-46940.001
  0
LWPOLYLINE
  5
279
100
AcDbEntity
  8
PART_PADS_SMD_TOP
100
AcDbPolyline
 90
        4
 70
         1
 10
-3899.999
 20
-46940.001
 10
-3899.999
 20
-45490.001
 10
-3599.999
 20
-45490.001
 10
-3599.999
 20
-46940.001
  0
LWPOLYLINE
  5
27A
100
AcDbEntity
  8
PART_PADS_SMD_TOP
100
AcDbPolyline
 90
        4
 70
         1
 10
-3399.999
 20
-46940.001
 10
-3399.999
 20
-45490.001
 10
-3099.999
 20
-45490.001
 10
-3099.999
 20
-46940.001
  0
LWPOLYLINE
  5
27B
100
AcDbEntity
  8
PART_PADS_SMD_TOP
100
AcDbPolyline
 90
        4
 70
         1
 10
-2899.999
 20
-46940.001
 10
-2899.999
 20
-45490.001
 10
-2599.999
 20
-45490.001
 10
-2599.999
 20
-46940.001
  0
LWPOLYLINE
  5
27C
100
AcDbEntity
  8
PART_PADS_SMD_TOP
100
AcDbPolyline
 90
        4
 70
         1
 10
-2399.999
 20
-46940.001
 10
-2399.999
 20
-45490.001
 10
-2099.999
 20
-45490.001
 10
-2099.999
 20
-46940.001
  0
LWPOLYLINE
  5
27D
100
AcDbEntity
  8
PART_PADS_SMD_TOP
100
AcDbPolyline
 90
        4
 70
         1
 10
-1899.999
 20
-46940.001
 10
-1899.999
 20
-45490.001
 10
-1599.999
 20
-45490.001
 10
-1599.999
 20
-46940.001
  0
LWPOLYLINE
  5
27E
100
AcDbEntity
  8
PART_PADS_SMD_TOP
100
AcDbPolyline
 90
        4
 70
         1
 10
-1399.999
 20
-46940.001
 10
-1399.999
 20
-45490.001
 10
-1099.999
 20
-45490.001
 10
-1099.999
 20
-46940.001
  0
LWPOLYLINE
  5
27F
100
AcDbEntity
  8
PART_PADS_SMD_TOP
100
AcDbPolyline
 90
        4
 70
         1
 10
-899.999
 20
-46940.001
 10
-899.999
 20
-45490.001
 10
-599.999
 20
-45490.001
 10
-599.999
 20
-46940.001
  0
LWPOLYLINE
  5
280
100
AcDbEntity
  8
PART_PADS_SMD_TOP
100
AcDbPolyline
 90
        4
 70
         1
 10
-399.999
 20
-46940.001
 10
-399.999
 20
-45490.001
 10
-99.999
 20
-45490.001
 10
-99.999
 20
-46940.001
  0
LWPOLYLINE
  5
281
100
AcDbEntity
  8
PART_PADS_SMD_TOP
100
AcDbPolyline
 90
        4
 70
         1
 10
100.001
 20
-46940.001
 10
100.001
 20
-45490.001
 10
400.001
 20
-45490.001
 10
400.001
 20
-46940.001
  0
LWPOLYLINE
  5
282
100
AcDbEntity
  8
PART_PADS_SMD_TOP
100
AcDbPolyline
 90
        4
 70
         1
 10
600.001
 20
-46940.001
 10
600.001
 20
-45490.001
 10
900.001
 20
-45490.001
 10
900.001
 20
-46940.001
  0
LWPOLYLINE
  5
283
100
AcDbEntity
  8
PART_PADS_SMD_TOP
100
AcDbPolyline
 90
        4
 70
         1
 10
1100.001
 20
-46940.001
 10
1100.001
 20
-45490.001
 10
1400.001
 20
-45490.001
 10
1400.001
 20
-46940.001
  0
LWPOLYLINE
  5
284
100
AcDbEntity
  8
PART_PADS_SMD_TOP
100
AcDbPolyline
 90
        4
 70
         1
 10
1600.001
 20
-46940.001
 10
1600.001
 20
-45490.001
 10
1900.001
 20
-45490.001
 10
1900.001
 20
-46940.001
  0
LWPOLYLINE
  5
285
100
AcDbEntity
  8
PART_PADS_SMD_TOP
100
AcDbPolyline
 90
        4
 70
         1
 10
2100.001
 20
-46940.001
 10
2100.001
 20
-45490.001
 10
2400.001
 20
-45490.001
 10
2400.001
 20
-46940.001
  0
LWPOLYLINE
  5
286
100
AcDbEntity
  8
PART_PADS_SMD_TOP
100
AcDbPolyline
 90
        4
 70
         1
 10
2600.001
 20
-46940.001
 10
2600.001
 20
-45490.001
 10
2900.001
 20
-45490.001
 10
2900.001
 20
-46940.001
  0
LWPOLYLINE
  5
287
100
AcDbEntity
  8
PART_PADS_SMD_TOP
100
AcDbPolyline
 90
        4
 70
         1
 10
3100.001
 20
-46940.001
 10
3100.001
 20
-45490.001
 10
3400.001
 20
-45490.001
 10
3400.001
 20
-46940.001
  0
LWPOLYLINE
  5
288
100
AcDbEntity
  8
PART_PADS_SMD_TOP
100
AcDbPolyline
 90
        4
 70
         1
 10
3600.001
 20
-46940.001
 10
3600.001
 20
-45490.001
 10
3900.001
 20
-45490.001
 10
3900.001
 20
-46940.001
  0
LWPOLYLINE
  5
289
100
AcDbEntity
  8
PART_PADS_SMD_TOP
100
AcDbPolyline
 90
        4
 70
         1
 10
4100.001
 20
-46940.001
 10
4100.001
 20
-45490.001
 10
4400.001
 20
-45490.001
 10
4400.001
 20
-46940.001
  0
LWPOLYLINE
  5
28A
100
AcDbEntity
  8
PART_PADS_SMD_TOP
100
AcDbPolyline
 90
        4
 70
         1
 10
4600.001
 20
-46940.001
 10
4600.001
 20
-45490.001
 10
4900.001
 20
-45490.001
 10
4900.001
 20
-46940.001
  0
LWPOLYLINE
  5
28B
100
AcDbEntity
  8
PART_PADS_SMD_TOP
100
AcDbPolyline
 90
        4
 70
         1
 10
5100.001
 20
-46940.001
 10
5100.001
 20
-45490.001
 10
5400.001
 20
-45490.001
 10
5400.001
 20
-46940.001
  0
LWPOLYLINE
  5
28C
100
AcDbEntity
  8
PART_PADS_SMD_TOP
100
AcDbPolyline
 90
        4
 70
         1
 10
5600.001
 20
-46940.001
 10
5600.001
 20
-45490.001
 10
5900.001
 20
-45490.001
 10
5900.001
 20
-46940.001
  0
LWPOLYLINE
  5
28D
100
AcDbEntity
  8
PART_PADS_SMD_TOP
100
AcDbPolyline
 90
        4
 70
         1
 10
6100.001
 20
-46940.001
 10
6100.001
 20
-45490.001
 10
6400.001
 20
-45490.001
 10
6400.001
 20
-46940.001
  0
LWPOLYLINE
  5
28E
100
AcDbEntity
  8
PART_PADS_SMD_TOP
100
AcDbPolyline
 90
        4
 70
         1
 10
6600.001
 20
-46940.001
 10
6600.001
 20
-45490.001
 10
6900.001
 20
-45490.001
 10
6900.001
 20
-46940.001
  0
LWPOLYLINE
  5
28F
100
AcDbEntity
  8
PART_PADS_SMD_TOP
100
AcDbPolyline
 90
        4
 70
         1
 10
7100.001
 20
-46940.001
 10
7100.001
 20
-45490.001
 10
7400.001
 20
-45490.001
 10
7400.001
 20
-46940.001
  0
LWPOLYLINE
  5
290
100
AcDbEntity
  8
PART_PADS_SMD_TOP
100
AcDbPolyline
 90
        4
 70
         1
 10
7600.001
 20
-46940.001
 10
7600.001
 20
-45490.001
 10
7900.001
 20
-45490.001
 10
7900.001
 20
-46940.001
  0
LWPOLYLINE
  5
291
100
AcDbEntity
  8
PART_PADS_SMD_TOP
100
AcDbPolyline
 90
        4
 70
         1
 10
8100.001
 20
-46940.001
 10
8100.001
 20
-45490.001
 10
8400.001
 20
-45490.001
 10
8400.001
 20
-46940.001
  0
LWPOLYLINE
  5
292
100
AcDbEntity
  8
PART_PADS_SMD_TOP
100
AcDbPolyline
 90
        4
 70
         1
 10
8600.001
 20
-46940.001
 10
8600.001
 20
-45490.001
 10
8900.001
 20
-45490.001
 10
8900.001
 20
-46940.001
  0
LWPOLYLINE
  5
293
100
AcDbEntity
  8
PART_PADS_SMD_TOP
100
AcDbPolyline
 90
        4
 70
         1
 10
9100.001
 20
-46940.001
 10
9100.001
 20
-45490.001
 10
9400.001
 20
-45490.001
 10
9400.001
 20
-46940.001
  0
LWPOLYLINE
  5
294
100
AcDbEntity
  8
PART_PADS_SMD_TOP
100
AcDbPolyline
 90
        4
 70
         1
 10
9600.001
 20
-46940.001
 10
9600.001
 20
-45490.001
 10
9900.001
 20
-45490.001
 10
9900.001
 20
-46940.001
  0
LWPOLYLINE
  5
295
100
AcDbEntity
  8
PART_PADS_SMD_TOP
100
AcDbPolyline
 90
        4
 70
         1
 10
10100.001
 20
-46940.001
 10
10100.001
 20
-45490.001
 10
10400.001
 20
-45490.001
 10
10400.001
 20
-46940.001
  0
LWPOLYLINE
  5
296
100
AcDbEntity
  8
PART_PADS_SMD_TOP
100
AcDbPolyline
 90
        4
 70
         1
 10
10600.001
 20
-46940.001
 10
10600.001
 20
-45490.001
 10
10900.001
 20
-45490.001
 10
10900.001
 20
-46940.001
  0
LWPOLYLINE
  5
297
100
AcDbEntity
  8
PART_PADS_SMD_TOP
100
AcDbPolyline
 90
        4
 70
         1
 10
11100.001
 20
-46940.001
 10
11100.001
 20
-45490.001
 10
11400.001
 20
-45490.001
 10
11400.001
 20
-46940.001
  0
LWPOLYLINE
  5
298
100
AcDbEntity
  8
PART_PADS_SMD_TOP
100
AcDbPolyline
 90
        4
 70
         1
 10
11600.001
 20
-46940.001
 10
11600.001
 20
-45490.001
 10
11900.001
 20
-45490.001
 10
11900.001
 20
-46940.001
  0
LWPOLYLINE
  5
299
100
AcDbEntity
  8
PART_PADS_SMD_TOP
100
AcDbPolyline
 90
        4
 70
         1
 10
12100.001
 20
-46940.001
 10
12100.001
 20
-45490.001
 10
12400.001
 20
-45490.001
 10
12400.001
 20
-46940.001
  0
LWPOLYLINE
  5
29A
100
AcDbEntity
  8
PART_PADS_SMD_TOP
100
AcDbPolyline
 90
        4
 70
         1
 10
12600.001
 20
-46940.001
 10
12600.001
 20
-45490.001
 10
12900.001
 20
-45490.001
 10
12900.001
 20
-46940.001
  0
LWPOLYLINE
  5
29B
100
AcDbEntity
  8
PART_PADS_SMD_TOP
100
AcDbPolyline
 90
        4
 70
         1
 10
13100.001
 20
-46940.001
 10
13100.001
 20
-45490.001
 10
13400.001
 20
-45490.001
 10
13400.001
 20
-46940.001
  0
LWPOLYLINE
  5
29C
100
AcDbEntity
  8
PART_PADS_SMD_TOP
100
AcDbPolyline
 90
        4
 70
         1
 10
13600.001
 20
-46940.001
 10
13600.001
 20
-45490.001
 10
13900.001
 20
-45490.001
 10
13900.001
 20
-46940.001
  0
LWPOLYLINE
  5
29D
100
AcDbEntity
  8
PART_PADS_SMD_TOP
100
AcDbPolyline
 90
        4
 70
         1
 10
14100.001
 20
-46940.001
 10
14100.001
 20
-45490.001
 10
14400.001
 20
-45490.001
 10
14400.001
 20
-46940.001
  0
LWPOLYLINE
  5
29E
100
AcDbEntity
  8
PART_PADS_SMD_TOP
100
AcDbPolyline
 90
        4
 70
         1
 10
14600.001
 20
-46940.001
 10
14600.001
 20
-45490.001
 10
14900.001
 20
-45490.001
 10
14900.001
 20
-46940.001
  0
LWPOLYLINE
  5
29F
100
AcDbEntity
  8
PART_PADS_SMD_TOP
100
AcDbPolyline
 90
        4
 70
         1
 10
-14900.0
 20
-53109.997
 10
-14900.0
 20
-51659.997
 10
-14600.0
 20
-51659.997
 10
-14600.0
 20
-53109.997
  0
LWPOLYLINE
  5
2A0
100
AcDbEntity
  8
PART_PADS_SMD_TOP
100
AcDbPolyline
 90
        4
 70
         1
 10
-14400.0
 20
-53109.997
 10
-14400.0
 20
-51659.997
 10
-14100.0
 20
-51659.997
 10
-14100.0
 20
-53109.997
  0
LWPOLYLINE
  5
2A1
100
AcDbEntity
  8
PART_PADS_SMD_TOP
100
AcDbPolyline
 90
        4
 70
         1
 10
-13900.0
 20
-53109.997
 10
-13900.0
 20
-51659.997
 10
-13600.0
 20
-51659.997
 10
-13600.0
 20
-53109.997
  0
LWPOLYLINE
  5
2A2
100
AcDbEntity
  8
PART_PADS_SMD_TOP
100
AcDbPolyline
 90
        4
 70
         1
 10
-13400.0
 20
-53109.997
 10
-13400.0
 20
-51659.997
 10
-13100.0
 20
-51659.997
 10
-13100.0
 20
-53109.997
  0
LWPOLYLINE
  5
2A3
100
AcDbEntity
  8
PART_PADS_SMD_TOP
100
AcDbPolyline
 90
        4
 70
         1
 10
-12900.0
 20
-53109.997
 10
-12900.0
 20
-51659.997
 10
-12600.0
 20
-51659.997
 10
-12600.0
 20
-53109.997
  0
LWPOLYLINE
  5
2A4
100
AcDbEntity
  8
PART_PADS_SMD_TOP
100
AcDbPolyline
 90
        4
 70
         1
 10
-12400.0
 20
-53109.997
 10
-12400.0
 20
-51659.997
 10
-12100.0
 20
-51659.997
 10
-12100.0
 20
-53109.997
  0
LWPOLYLINE
  5
2A5
100
AcDbEntity
  8
PART_PADS_SMD_TOP
100
AcDbPolyline
 90
        4
 70
         1
 10
-11900.0
 20
-53109.997
 10
-11900.0
 20
-51659.997
 10
-11600.0
 20
-51659.997
 10
-11600.0
 20
-53109.997
  0
LWPOLYLINE
  5
2A6
100
AcDbEntity
  8
PART_PADS_SMD_TOP
100
AcDbPolyline
 90
        4
 70
         1
 10
-11400.0
 20
-53109.997
 10
-11400.0
 20
-51659.997
 10
-11100.0
 20
-51659.997
 10
-11100.0
 20
-53109.997
  0
LWPOLYLINE
  5
2A7
100
AcDbEntity
  8
PART_PADS_SMD_TOP
100
AcDbPolyline
 90
        4
 70
         1
 10
-10900.0
 20
-53109.997
 10
-10900.0
 20
-51659.997
 10
-10600.0
 20
-51659.997
 10
-10600.0
 20
-53109.997
  0
LWPOLYLINE
  5
2A8
100
AcDbEntity
  8
PART_PADS_SMD_TOP
100
AcDbPolyline
 90
        4
 70
         1
 10
-10400.0
 20
-53109.997
 10
-10400.0
 20
-51659.997
 10
-10100.0
 20
-51659.997
 10
-10100.0
 20
-53109.997
  0
LWPOLYLINE
  5
2A9
100
AcDbEntity
  8
PART_PADS_SMD_TOP
100
AcDbPolyline
 90
        4
 70
         1
 10
-9900.0
 20
-53109.997
 10
-9900.0
 20
-51659.997
 10
-9600.0
 20
-51659.997
 10
-9600.0
 20
-53109.997
  0
LWPOLYLINE
  5
2AA
100
AcDbEntity
  8
PART_PADS_SMD_TOP
100
AcDbPolyline
 90
        4
 70
         1
 10
-9400.0
 20
-53109.997
 10
-9400.0
 20
-51659.997
 10
-9100.0
 20
-51659.997
 10
-9100.0
 20
-53109.997
  0
LWPOLYLINE
  5
2AB
100
AcDbEntity
  8
PART_PADS_SMD_TOP
100
AcDbPolyline
 90
        4
 70
         1
 10
-8900.0
 20
-53109.997
 10
-8900.0
 20
-51659.997
 10
-8600.0
 20
-51659.997
 10
-8600.0
 20
-53109.997
  0
LWPOLYLINE
  5
2AC
100
AcDbEntity
  8
PART_PADS_SMD_TOP
100
AcDbPolyline
 90
        4
 70
         1
 10
-8400.0
 20
-53109.997
 10
-8400.0
 20
-51659.997
 10
-8100.0
 20
-51659.997
 10
-8100.0
 20
-53109.997
  0
LWPOLYLINE
  5
2AD
100
AcDbEntity
  8
PART_PADS_SMD_TOP
100
AcDbPolyline
 90
        4
 70
         1
 10
-7900.0
 20
-53109.997
 10
-7900.0
 20
-51659.997
 10
-7600.0
 20
-51659.997
 10
-7600.0
 20
-53109.997
  0
LWPOLYLINE
  5
2AE
100
AcDbEntity
  8
PART_PADS_SMD_TOP
100
AcDbPolyline
 90
        4
 70
         1
 10
-7400.0
 20
-53109.997
 10
-7400.0
 20
-51659.997
 10
-7100.0
 20
-51659.997
 10
-7100.0
 20
-53109.997
  0
LWPOLYLINE
  5
2AF
100
AcDbEntity
  8
PART_PADS_SMD_TOP
100
AcDbPolyline
 90
        4
 70
         1
 10
-6900.0
 20
-53109.997
 10
-6900.0
 20
-51659.997
 10
-6600.0
 20
-51659.997
 10
-6600.0
 20
-53109.997
  0
LWPOLYLINE
  5
2B0
100
AcDbEntity
  8
PART_PADS_SMD_TOP
100
AcDbPolyline
 90
        4
 70
         1
 10
-6400.0
 20
-53109.997
 10
-6400.0
 20
-51659.997
 10
-6100.0
 20
-51659.997
 10
-6100.0
 20
-53109.997
  0
LWPOLYLINE
  5
2B1
100
AcDbEntity
  8
PART_PADS_SMD_TOP
100
AcDbPolyline
 90
        4
 70
         1
 10
-5900.0
 20
-53109.997
 10
-5900.0
 20
-51659.997
 10
-5600.0
 20
-51659.997
 10
-5600.0
 20
-53109.997
  0
LWPOLYLINE
  5
2B2
100
AcDbEntity
  8
PART_PADS_SMD_TOP
100
AcDbPolyline
 90
        4
 70
         1
 10
-5400.0
 20
-53109.997
 10
-5400.0
 20
-51659.997
 10
-5100.0
 20
-51659.997
 10
-5100.0
 20
-53109.997
  0
LWPOLYLINE
  5
2B3
100
AcDbEntity
  8
PART_PADS_SMD_TOP
100
AcDbPolyline
 90
        4
 70
         1
 10
-4900.0
 20
-53109.997
 10
-4900.0
 20
-51659.997
 10
-4600.0
 20
-51659.997
 10
-4600.0
 20
-53109.997
  0
LWPOLYLINE
  5
2B4
100
AcDbEntity
  8
PART_PADS_SMD_TOP
100
AcDbPolyline
 90
        4
 70
         1
 10
-4400.0
 20
-53109.997
 10
-4400.0
 20
-51659.997
 10
-4100.0
 20
-51659.997
 10
-4100.0
 20
-53109.997
  0
LWPOLYLINE
  5
2B5
100
AcDbEntity
  8
PART_PADS_SMD_TOP
100
AcDbPolyline
 90
        4
 70
         1
 10
-3900.0
 20
-53109.997
 10
-3900.0
 20
-51659.997
 10
-3600.0
 20
-51659.997
 10
-3600.0
 20
-53109.997
  0
LWPOLYLINE
  5
2B6
100
AcDbEntity
  8
PART_PADS_SMD_TOP
100
AcDbPolyline
 90
        4
 70
         1
 10
-3400.0
 20
-53109.997
 10
-3400.0
 20
-51659.997
 10
-3100.0
 20
-51659.997
 10
-3100.0
 20
-53109.997
  0
LWPOLYLINE
  5
2B7
100
AcDbEntity
  8
PART_PADS_SMD_TOP
100
AcDbPolyline
 90
        4
 70
         1
 10
-2900.0
 20
-53109.997
 10
-2900.0
 20
-51659.997
 10
-2600.0
 20
-51659.997
 10
-2600.0
 20
-53109.997
  0
LWPOLYLINE
  5
2B8
100
AcDbEntity
  8
PART_PADS_SMD_TOP
100
AcDbPolyline
 90
        4
 70
         1
 10
-2400.0
 20
-53109.997
 10
-2400.0
 20
-51659.997
 10
-2100.0
 20
-51659.997
 10
-2100.0
 20
-53109.997
  0
LWPOLYLINE
  5
2B9
100
AcDbEntity
  8
PART_PADS_SMD_TOP
100
AcDbPolyline
 90
        4
 70
         1
 10
-1900.0
 20
-53109.997
 10
-1900.0
 20
-51659.997
 10
-1600.0
 20
-51659.997
 10
-1600.0
 20
-53109.997
  0
LWPOLYLINE
  5
2BA
100
AcDbEntity
  8
PART_PADS_SMD_TOP
100
AcDbPolyline
 90
        4
 70
         1
 10
-1400.0
 20
-53109.997
 10
-1400.0
 20
-51659.997
 10
-1100.0
 20
-51659.997
 10
-1100.0
 20
-53109.997
  0
LWPOLYLINE
  5
2BB
100
AcDbEntity
  8
PART_PADS_SMD_TOP
100
AcDbPolyline
 90
        4
 70
         1
 10
-900.0
 20
-53109.997
 10
-900.0
 20
-51659.997
 10
-600.0
 20
-51659.997
 10
-600.0
 20
-53109.997
  0
LWPOLYLINE
  5
2BC
100
AcDbEntity
  8
PART_PADS_SMD_TOP
100
AcDbPolyline
 90
        4
 70
         1
 10
-400.0
 20
-53109.997
 10
-400.0
 20
-51659.997
 10
-100.0
 20
-51659.997
 10
-100.0
 20
-53109.997
  0
LWPOLYLINE
  5
2BD
100
AcDbEntity
  8
PART_PADS_SMD_TOP
100
AcDbPolyline
 90
        4
 70
         1
 10
100.0
 20
-53109.997
 10
100.0
 20
-51659.997
 10
400.0
 20
-51659.997
 10
400.0
 20
-53109.997
  0
LWPOLYLINE
  5
2BE
100
AcDbEntity
  8
PART_PADS_SMD_TOP
100
AcDbPolyline
 90
        4
 70
         1
 10
600.0
 20
-53109.997
 10
600.0
 20
-51659.997
 10
900.0
 20
-51659.997
 10
900.0
 20
-53109.997
  0
LWPOLYLINE
  5
2BF
100
AcDbEntity
  8
PART_PADS_SMD_TOP
100
AcDbPolyline
 90
        4
 70
         1
 10
1100.0
 20
-53109.997
 10
1100.0
 20
-51659.997
 10
1400.0
 20
-51659.997
 10
1400.0
 20
-53109.997
  0
LWPOLYLINE
  5
2C0
100
AcDbEntity
  8
PART_PADS_SMD_TOP
100
AcDbPolyline
 90
        4
 70
         1
 10
1600.0
 20
-53109.997
 10
1600.0
 20
-51659.997
 10
1900.0
 20
-51659.997
 10
1900.0
 20
-53109.997
  0
LWPOLYLINE
  5
2C1
100
AcDbEntity
  8
PART_PADS_SMD_TOP
100
AcDbPolyline
 90
        4
 70
         1
 10
2100.0
 20
-53109.997
 10
2100.0
 20
-51659.997
 10
2400.0
 20
-51659.997
 10
2400.0
 20
-53109.997
  0
LWPOLYLINE
  5
2C2
100
AcDbEntity
  8
PART_PADS_SMD_TOP
100
AcDbPolyline
 90
        4
 70
         1
 10
2600.0
 20
-53109.997
 10
2600.0
 20
-51659.997
 10
2900.0
 20
-51659.997
 10
2900.0
 20
-53109.997
  0
LWPOLYLINE
  5
2C3
100
AcDbEntity
  8
PART_PADS_SMD_TOP
100
AcDbPolyline
 90
        4
 70
         1
 10
3100.0
 20
-53109.997
 10
3100.0
 20
-51659.997
 10
3400.0
 20
-51659.997
 10
3400.0
 20
-53109.997
  0
LWPOLYLINE
  5
2C4
100
AcDbEntity
  8
PART_PADS_SMD_TOP
100
AcDbPolyline
 90
        4
 70
         1
 10
3600.0
 20
-53109.997
 10
3600.0
 20
-51659.997
 10
3900.0
 20
-51659.997
 10
3900.0
 20
-53109.997
  0
LWPOLYLINE
  5
2C5
100
AcDbEntity
  8
PART_PADS_SMD_TOP
100
AcDbPolyline
 90
        4
 70
         1
 10
4100.0
 20
-53109.997
 10
4100.0
 20
-51659.997
 10
4400.0
 20
-51659.997
 10
4400.0
 20
-53109.997
  0
LWPOLYLINE
  5
2C6
100
AcDbEntity
  8
PART_PADS_SMD_TOP
100
AcDbPolyline
 90
        4
 70
         1
 10
4600.0
 20
-53109.997
 10
4600.0
 20
-51659.997
 10
4900.0
 20
-51659.997
 10
4900.0
 20
-53109.997
  0
LWPOLYLINE
  5
2C7
100
AcDbEntity
  8
PART_PADS_SMD_TOP
100
AcDbPolyline
 90
        4
 70
         1
 10
5100.0
 20
-53109.997
 10
5100.0
 20
-51659.997
 10
5400.0
 20
-51659.997
 10
5400.0
 20
-53109.997
  0
LWPOLYLINE
  5
2C8
100
AcDbEntity
  8
PART_PADS_SMD_TOP
100
AcDbPolyline
 90
        4
 70
         1
 10
5600.0
 20
-53109.997
 10
5600.0
 20
-51659.997
 10
5900.0
 20
-51659.997
 10
5900.0
 20
-53109.997
  0
LWPOLYLINE
  5
2C9
100
AcDbEntity
  8
PART_PADS_SMD_TOP
100
AcDbPolyline
 90
        4
 70
         1
 10
6100.0
 20
-53109.997
 10
6100.0
 20
-51659.997
 10
6400.0
 20
-51659.997
 10
6400.0
 20
-53109.997
  0
LWPOLYLINE
  5
2CA
100
AcDbEntity
  8
PART_PADS_SMD_TOP
100
AcDbPolyline
 90
        4
 70
         1
 10
6600.0
 20
-53109.997
 10
6600.0
 20
-51659.997
 10
6900.0
 20
-51659.997
 10
6900.0
 20
-53109.997
  0
LWPOLYLINE
  5
2CB
100
AcDbEntity
  8
PART_PADS_SMD_TOP
100
AcDbPolyline
 90
        4
 70
         1
 10
7100.0
 20
-53109.997
 10
7100.0
 20
-51659.997
 10
7400.0
 20
-51659.997
 10
7400.0
 20
-53109.997
  0
LWPOLYLINE
  5
2CC
100
AcDbEntity
  8
PART_PADS_SMD_TOP
100
AcDbPolyline
 90
        4
 70
         1
 10
7600.0
 20
-53109.997
 10
7600.0
 20
-51659.997
 10
7900.0
 20
-51659.997
 10
7900.0
 20
-53109.997
  0
LWPOLYLINE
  5
2CD
100
AcDbEntity
  8
PART_PADS_SMD_TOP
100
AcDbPolyline
 90
        4
 70
         1
 10
8100.0
 20
-53109.997
 10
8100.0
 20
-51659.997
 10
8400.0
 20
-51659.997
 10
8400.0
 20
-53109.997
  0
LWPOLYLINE
  5
2CE
100
AcDbEntity
  8
PART_PADS_SMD_TOP
100
AcDbPolyline
 90
        4
 70
         1
 10
8600.0
 20
-53109.997
 10
8600.0
 20
-51659.997
 10
8900.0
 20
-51659.997
 10
8900.0
 20
-53109.997
  0
LWPOLYLINE
  5
2CF
100
AcDbEntity
  8
PART_PADS_SMD_TOP
100
AcDbPolyline
 90
        4
 70
         1
 10
9100.0
 20
-53109.997
 10
9100.0
 20
-51659.997
 10
9400.0
 20
-51659.997
 10
9400.0
 20
-53109.997
  0
LWPOLYLINE
  5
2D0
100
AcDbEntity
  8
PART_PADS_SMD_TOP
100
AcDbPolyline
 90
        4
 70
         1
 10
9600.0
 20
-53109.997
 10
9600.0
 20
-51659.997
 10
9900.0
 20
-51659.997
 10
9900.0
 20
-53109.997
  0
LWPOLYLINE
  5
2D1
100
AcDbEntity
  8
PART_PADS_SMD_TOP
100
AcDbPolyline
 90
        4
 70
         1
 10
10100.0
 20
-53109.997
 10
10100.0
 20
-51659.997
 10
10400.0
 20
-51659.997
 10
10400.0
 20
-53109.997
  0
LWPOLYLINE
  5
2D2
100
AcDbEntity
  8
PART_PADS_SMD_TOP
100
AcDbPolyline
 90
        4
 70
         1
 10
10600.0
 20
-53109.997
 10
10600.0
 20
-51659.997
 10
10900.0
 20
-51659.997
 10
10900.0
 20
-53109.997
  0
LWPOLYLINE
  5
2D3
100
AcDbEntity
  8
PART_PADS_SMD_TOP
100
AcDbPolyline
 90
        4
 70
         1
 10
11100.0
 20
-53109.997
 10
11100.0
 20
-51659.997
 10
11400.0
 20
-51659.997
 10
11400.0
 20
-53109.997
  0
LWPOLYLINE
  5
2D4
100
AcDbEntity
  8
PART_PADS_SMD_TOP
100
AcDbPolyline
 90
        4
 70
         1
 10
11600.0
 20
-53109.997
 10
11600.0
 20
-51659.997
 10
11900.0
 20
-51659.997
 10
11900.0
 20
-53109.997
  0
LWPOLYLINE
  5
2D5
100
AcDbEntity
  8
PART_PADS_SMD_TOP
100
AcDbPolyline
 90
        4
 70
         1
 10
12100.0
 20
-53109.997
 10
12100.0
 20
-51659.997
 10
12400.0
 20
-51659.997
 10
12400.0
 20
-53109.997
  0
LWPOLYLINE
  5
2D6
100
AcDbEntity
  8
PART_PADS_SMD_TOP
100
AcDbPolyline
 90
        4
 70
         1
 10
12600.0
 20
-53109.997
 10
12600.0
 20
-51659.997
 10
12900.0
 20
-51659.997
 10
12900.0
 20
-53109.997
  0
LWPOLYLINE
  5
2D7
100
AcDbEntity
  8
PART_PADS_SMD_TOP
100
AcDbPolyline
 90
        4
 70
         1
 10
13100.0
 20
-53109.997
 10
13100.0
 20
-51659.997
 10
13400.0
 20
-51659.997
 10
13400.0
 20
-53109.997
  0
LWPOLYLINE
  5
2D8
100
AcDbEntity
  8
PART_PADS_SMD_TOP
100
AcDbPolyline
 90
        4
 70
         1
 10
13600.0
 20
-53109.997
 10
13600.0
 20
-51659.997
 10
13900.0
 20
-51659.997
 10
13900.0
 20
-53109.997
  0
LWPOLYLINE
  5
2D9
100
AcDbEntity
  8
PART_PADS_SMD_TOP
100
AcDbPolyline
 90
        4
 70
         1
 10
14100.0
 20
-53109.997
 10
14100.0
 20
-51659.997
 10
14400.0
 20
-51659.997
 10
14400.0
 20
-53109.997
  0
LWPOLYLINE
  5
2DA
100
AcDbEntity
  8
PART_PADS_SMD_TOP
100
AcDbPolyline
 90
        4
 70
         1
 10
14600.0
 20
-53109.997
 10
14600.0
 20
-51659.997
 10
14900.0
 20
-51659.997
 10
14900.0
 20
-53109.997
  0
TEXT
  5
2DC
100
AcDbEntity
  8
PIN_NUMBERS_TOP
100
AcDbText
 10
-20185.864
 20
-3307.504
 30
0.0
 40
508.0
  1
A1
  7
COURIER_NEW
 72
         1
 11
-19750.0
 21
-3085.0
 31
0.0
100
AcDbText
 73
         2
  0
TEXT
  5
2DD
100
AcDbEntity
  8
PIN_NUMBERS_TOP
100
AcDbText
 10
-19685.864
 20
-3307.504
 30
0.0
 40
508.0
  1
A2
  7
COURIER_NEW
 72
         1
 11
-19250.0
 21
-3085.0
 31
0.0
100
AcDbText
 73
         2
  0
TEXT
  5
2DE
100
AcDbEntity
  8
PIN_NUMBERS_TOP
100
AcDbText
 10
-19185.864
 20
-3307.504
 30
0.0
 40
508.0
  1
A3
  7
COURIER_NEW
 72
         1
 11
-18750.0
 21
-3085.0
 31
0.0
100
AcDbText
 73
         2
  0
TEXT
  5
2DF
100
AcDbEntity
  8
PIN_NUMBERS_TOP
100
AcDbText
 10
-18685.864
 20
-3307.504
 30
0.0
 40
508.0
  1
A4
  7
COURIER_NEW
 72
         1
 11
-18250.0
 21
-3085.0
 31
0.0
100
AcDbText
 73
         2
  0
TEXT
  5
2E0
100
AcDbEntity
  8
PIN_NUMBERS_TOP
100
AcDbText
 10
-18185.864
 20
-3307.504
 30
0.0
 40
508.0
  1
A5
  7
COURIER_NEW
 72
         1
 11
-17750.0
 21
-3085.0
 31
0.0
100
AcDbText
 73
         2
  0
TEXT
  5
2E1
100
AcDbEntity
  8
PIN_NUMBERS_TOP
100
AcDbText
 10
-17685.864
 20
-3307.504
 30
0.0
 40
508.0
  1
A6
  7
COURIER_NEW
 72
         1
 11
-17250.0
 21
-3085.0
 31
0.0
100
AcDbText
 73
         2
  0
TEXT
  5
2E2
100
AcDbEntity
  8
PIN_NUMBERS_TOP
100
AcDbText
 10
-17185.864
 20
-3307.504
 30
0.0
 40
508.0
  1
A7
  7
COURIER_NEW
 72
         1
 11
-16750.0
 21
-3085.0
 31
0.0
100
AcDbText
 73
         2
  0
TEXT
  5
2E3
100
AcDbEntity
  8
PIN_NUMBERS_TOP
100
AcDbText
 10
-16685.864
 20
-3307.504
 30
0.0
 40
508.0
  1
A8
  7
COURIER_NEW
 72
         1
 11
-16250.0
 21
-3085.0
 31
0.0
100
AcDbText
 73
         2
  0
TEXT
  5
2E4
100
AcDbEntity
  8
PIN_NUMBERS_TOP
100
AcDbText
 10
-16185.864
 20
-3307.504
 30
0.0
 40
508.0
  1
A9
  7
COURIER_NEW
 72
         1
 11
-15750.0
 21
-3085.0
 31
0.0
100
AcDbText
 73
         2
  0
TEXT
  5
2E5
100
AcDbEntity
  8
PIN_NUMBERS_TOP
100
AcDbText
 10
-15903.796
 20
-3307.504
 30
0.0
 40
508.0
  1
A10
  7
COURIER_NEW
 72
         1
 11
-15250.0
 21
-3085.0
 31
0.0
100
AcDbText
 73
         2
  0
TEXT
  5
2E6
100
AcDbEntity
  8
PIN_NUMBERS_TOP
100
AcDbText
 10
-15403.796
 20
-3307.504
 30
0.0
 40
508.0
  1
A11
  7
COURIER_NEW
 72
         1
 11
-14750.0
 21
-3085.0
 31
0.0
100
AcDbText
 73
         2
  0
TEXT
  5
2E7
100
AcDbEntity
  8
PIN_NUMBERS_TOP
100
AcDbText
 10
-14903.796
 20
-3307.504
 30
0.0
 40
508.0
  1
A12
  7
COURIER_NEW
 72
         1
 11
-14250.0
 21
-3085.0
 31
0.0
100
AcDbText
 73
         2
  0
TEXT
  5
2E8
100
AcDbEntity
  8
PIN_NUMBERS_TOP
100
AcDbText
 10
-14403.796
 20
-3307.504
 30
0.0
 40
508.0
  1
A13
  7
COURIER_NEW
 72
         1
 11
-13750.0
 21
-3085.0
 31
0.0
100
AcDbText
 73
         2
  0
TEXT
  5
2E9
100
AcDbEntity
  8
PIN_NUMBERS_TOP
100
AcDbText
 10
-13903.796
 20
-3307.504
 30
0.0
 40
508.0
  1
A14
  7
COURIER_NEW
 72
         1
 11
-13250.0
 21
-3085.0
 31
0.0
100
AcDbText
 73
         2
  0
TEXT
  5
2EA
100
AcDbEntity
  8
PIN_NUMBERS_TOP
100
AcDbText
 10
-13403.796
 20
-3307.504
 30
0.0
 40
508.0
  1
A15
  7
COURIER_NEW
 72
         1
 11
-12750.0
 21
-3085.0
 31
0.0
100
AcDbText
 73
         2
  0
TEXT
  5
2EB
100
AcDbEntity
  8
PIN_NUMBERS_TOP
100
AcDbText
 10
-12903.796
 20
-3307.504
 30
0.0
 40
508.0
  1
A16
  7
COURIER_NEW
 72
         1
 11
-12250.0
 21
-3085.0
 31
0.0
100
AcDbText
 73
         2
  0
TEXT
  5
2EC
100
AcDbEntity
  8
PIN_NUMBERS_TOP
100
AcDbText
 10
-12403.796
 20
-3307.504
 30
0.0
 40
508.0
  1
A17
  7
COURIER_NEW
 72
         1
 11
-11750.0
 21
-3085.0
 31
0.0
100
AcDbText
 73
         2
  0
TEXT
  5
2ED
100
AcDbEntity
  8
PIN_NUMBERS_TOP
100
AcDbText
 10
-11903.796
 20
-3307.504
 30
0.0
 40
508.0
  1
A18
  7
COURIER_NEW
 72
         1
 11
-11250.0
 21
-3085.0
 31
0.0
100
AcDbText
 73
         2
  0
TEXT
  5
2EE
100
AcDbEntity
  8
PIN_NUMBERS_TOP
100
AcDbText
 10
-11403.796
 20
-3307.504
 30
0.0
 40
508.0
  1
A19
  7
COURIER_NEW
 72
         1
 11
-10750.0
 21
-3085.0
 31
0.0
100
AcDbText
 73
         2
  0
TEXT
  5
2EF
100
AcDbEntity
  8
PIN_NUMBERS_TOP
100
AcDbText
 10
-10903.796
 20
-3307.504
 30
0.0
 40
508.0
  1
A20
  7
COURIER_NEW
 72
         1
 11
-10250.0
 21
-3085.0
 31
0.0
100
AcDbText
 73
         2
  0
TEXT
  5
2F0
100
AcDbEntity
  8
PIN_NUMBERS_TOP
100
AcDbText
 10
-10403.796
 20
-3307.504
 30
0.0
 40
508.0
  1
A21
  7
COURIER_NEW
 72
         1
 11
-9750.0
 21
-3085.0
 31
0.0
100
AcDbText
 73
         2
  0
TEXT
  5
2F1
100
AcDbEntity
  8
PIN_NUMBERS_TOP
100
AcDbText
 10
-9903.796
 20
-3307.504
 30
0.0
 40
508.0
  1
A22
  7
COURIER_NEW
 72
         1
 11
-9250.0
 21
-3085.0
 31
0.0
100
AcDbText
 73
         2
  0
TEXT
  5
2F2
100
AcDbEntity
  8
PIN_NUMBERS_TOP
100
AcDbText
 10
-9403.796
 20
-3307.504
 30
0.0
 40
508.0
  1
A23
  7
COURIER_NEW
 72
         1
 11
-8750.0
 21
-3085.0
 31
0.0
100
AcDbText
 73
         2
  0
TEXT
  5
2F3
100
AcDbEntity
  8
PIN_NUMBERS_TOP
100
AcDbText
 10
-8903.796
 20
-3307.504
 30
0.0
 40
508.0
  1
A24
  7
COURIER_NEW
 72
         1
 11
-8250.0
 21
-3085.0
 31
0.0
100
AcDbText
 73
         2
  0
TEXT
  5
2F4
100
AcDbEntity
  8
PIN_NUMBERS_TOP
100
AcDbText
 10
-8403.796
 20
-3307.504
 30
0.0
 40
508.0
  1
A25
  7
COURIER_NEW
 72
         1
 11
-7750.0
 21
-3085.0
 31
0.0
100
AcDbText
 73
         2
  0
TEXT
  5
2F5
100
AcDbEntity
  8
PIN_NUMBERS_TOP
100
AcDbText
 10
-7903.796
 20
-3307.504
 30
0.0
 40
508.0
  1
A26
  7
COURIER_NEW
 72
         1
 11
-7250.0
 21
-3085.0
 31
0.0
100
AcDbText
 73
         2
  0
TEXT
  5
2F6
100
AcDbEntity
  8
PIN_NUMBERS_TOP
100
AcDbText
 10
-7403.796
 20
-3307.504
 30
0.0
 40
508.0
  1
A27
  7
COURIER_NEW
 72
         1
 11
-6750.0
 21
-3085.0
 31
0.0
100
AcDbText
 73
         2
  0
TEXT
  5
2F7
100
AcDbEntity
  8
PIN_NUMBERS_TOP
100
AcDbText
 10
-6903.796
 20
-3307.504
 30
0.0
 40
508.0
  1
A28
  7
COURIER_NEW
 72
         1
 11
-6250.0
 21
-3085.0
 31
0.0
100
AcDbText
 73
         2
  0
TEXT
  5
2F8
100
AcDbEntity
  8
PIN_NUMBERS_TOP
100
AcDbText
 10
-6403.796
 20
-3307.504
 30
0.0
 40
508.0
  1
A29
  7
COURIER_NEW
 72
         1
 11
-5750.0
 21
-3085.0
 31
0.0
100
AcDbText
 73
         2
  0
TEXT
  5
2F9
100
AcDbEntity
  8
PIN_NUMBERS_TOP
100
AcDbText
 10
-5903.796
 20
-3307.504
 30
0.0
 40
508.0
  1
A30
  7
COURIER_NEW
 72
         1
 11
-5250.0
 21
-3085.0
 31
0.0
100
AcDbText
 73
         2
  0
TEXT
  5
2FA
100
AcDbEntity
  8
PIN_NUMBERS_TOP
100
AcDbText
 10
-5403.796
 20
-3307.504
 30
0.0
 40
508.0
  1
A31
  7
COURIER_NEW
 72
         1
 11
-4750.0
 21
-3085.0
 31
0.0
100
AcDbText
 73
         2
  0
TEXT
  5
2FB
100
AcDbEntity
  8
PIN_NUMBERS_TOP
100
AcDbText
 10
-4903.796
 20
-3307.504
 30
0.0
 40
508.0
  1
A32
  7
COURIER_NEW
 72
         1
 11
-4250.0
 21
-3085.0
 31
0.0
100
AcDbText
 73
         2
  0
TEXT
  5
2FC
100
AcDbEntity
  8
PIN_NUMBERS_TOP
100
AcDbText
 10
-4403.796
 20
-3307.504
 30
0.0
 40
508.0
  1
A33
  7
COURIER_NEW
 72
         1
 11
-3750.0
 21
-3085.0
 31
0.0
100
AcDbText
 73
         2
  0
TEXT
  5
2FD
100
AcDbEntity
  8
PIN_NUMBERS_TOP
100
AcDbText
 10
-3903.796
 20
-3307.504
 30
0.0
 40
508.0
  1
A34
  7
COURIER_NEW
 72
         1
 11
-3250.0
 21
-3085.0
 31
0.0
100
AcDbText
 73
         2
  0
TEXT
  5
2FE
100
AcDbEntity
  8
PIN_NUMBERS_TOP
100
AcDbText
 10
-3403.796
 20
-3307.504
 30
0.0
 40
508.0
  1
A35
  7
COURIER_NEW
 72
         1
 11
-2750.0
 21
-3085.0
 31
0.0
100
AcDbText
 73
         2
  0
TEXT
  5
2FF
100
AcDbEntity
  8
PIN_NUMBERS_TOP
100
AcDbText
 10
-2903.796
 20
-3307.504
 30
0.0
 40
508.0
  1
A36
  7
COURIER_NEW
 72
         1
 11
-2250.0
 21
-3085.0
 31
0.0
100
AcDbText
 73
         2
  0
TEXT
  5
300
100
AcDbEntity
  8
PIN_NUMBERS_TOP
100
AcDbText
 10
-2403.796
 20
-3307.504
 30
0.0
 40
508.0
  1
A37
  7
COURIER_NEW
 72
         1
 11
-1750.0
 21
-3085.0
 31
0.0
100
AcDbText
 73
         2
  0
TEXT
  5
301
100
AcDbEntity
  8
PIN_NUMBERS_TOP
100
AcDbText
 10
-1903.796
 20
-3307.504
 30
0.0
 40
508.0
  1
A38
  7
COURIER_NEW
 72
         1
 11
-1250.0
 21
-3085.0
 31
0.0
100
AcDbText
 73
         2
  0
TEXT
  5
302
100
AcDbEntity
  8
PIN_NUMBERS_TOP
100
AcDbText
 10
-1403.796
 20
-3307.504
 30
0.0
 40
508.0
  1
A39
  7
COURIER_NEW
 72
         1
 11
-750.0
 21
-3085.0
 31
0.0
100
AcDbText
 73
         2
  0
TEXT
  5
303
100
AcDbEntity
  8
PIN_NUMBERS_TOP
100
AcDbText
 10
-903.796
 20
-3307.504
 30
0.0
 40
508.0
  1
A40
  7
COURIER_NEW
 72
         1
 11
-250.0
 21
-3085.0
 31
0.0
100
AcDbText
 73
         2
  0
TEXT
  5
304
100
AcDbEntity
  8
PIN_NUMBERS_TOP
100
AcDbText
 10
-403.796
 20
-3307.504
 30
0.0
 40
508.0
  1
A41
  7
COURIER_NEW
 72
         1
 11
250.0
 21
-3085.0
 31
0.0
100
AcDbText
 73
         2
  0
TEXT
  5
305
100
AcDbEntity
  8
PIN_NUMBERS_TOP
100
AcDbText
 10
96.204
 20
-3307.504
 30
0.0
 40
508.0
  1
A42
  7
COURIER_NEW
 72
         1
 11
750.0
 21
-3085.0
 31
0.0
100
AcDbText
 73
         2
  0
TEXT
  5
306
100
AcDbEntity
  8
PIN_NUMBERS_TOP
100
AcDbText
 10
596.204
 20
-3307.504
 30
0.0
 40
508.0
  1
A43
  7
COURIER_NEW
 72
         1
 11
1250.0
 21
-3085.0
 31
0.0
100
AcDbText
 73
         2
  0
TEXT
  5
307
100
AcDbEntity
  8
PIN_NUMBERS_TOP
100
AcDbText
 10
1096.204
 20
-3307.504
 30
0.0
 40
508.0
  1
A44
  7
COURIER_NEW
 72
         1
 11
1750.0
 21
-3085.0
 31
0.0
100
AcDbText
 73
         2
  0
TEXT
  5
308
100
AcDbEntity
  8
PIN_NUMBERS_TOP
100
AcDbText
 10
1596.204
 20
-3307.504
 30
0.0
 40
508.0
  1
A45
  7
COURIER_NEW
 72
         1
 11
2250.0
 21
-3085.0
 31
0.0
100
AcDbText
 73
         2
  0
TEXT
  5
309
100
AcDbEntity
  8
PIN_NUMBERS_TOP
100
AcDbText
 10
2096.204
 20
-3307.504
 30
0.0
 40
508.0
  1
A46
  7
COURIER_NEW
 72
         1
 11
2750.0
 21
-3085.0
 31
0.0
100
AcDbText
 73
         2
  0
TEXT
  5
30A
100
AcDbEntity
  8
PIN_NUMBERS_TOP
100
AcDbText
 10
2596.204
 20
-3307.504
 30
0.0
 40
508.0
  1
A47
  7
COURIER_NEW
 72
         1
 11
3250.0
 21
-3085.0
 31
0.0
100
AcDbText
 73
         2
  0
TEXT
  5
30B
100
AcDbEntity
  8
PIN_NUMBERS_TOP
100
AcDbText
 10
3096.204
 20
-3307.504
 30
0.0
 40
508.0
  1
A48
  7
COURIER_NEW
 72
         1
 11
3750.0
 21
-3085.0
 31
0.0
100
AcDbText
 73
         2
  0
TEXT
  5
30C
100
AcDbEntity
  8
PIN_NUMBERS_TOP
100
AcDbText
 10
3596.204
 20
-3307.504
 30
0.0
 40
508.0
  1
A49
  7
COURIER_NEW
 72
         1
 11
4250.0
 21
-3085.0
 31
0.0
100
AcDbText
 73
         2
  0
TEXT
  5
30D
100
AcDbEntity
  8
PIN_NUMBERS_TOP
100
AcDbText
 10
4096.204
 20
-3307.504
 30
0.0
 40
508.0
  1
A50
  7
COURIER_NEW
 72
         1
 11
4750.0
 21
-3085.0
 31
0.0
100
AcDbText
 73
         2
  0
TEXT
  5
30E
100
AcDbEntity
  8
PIN_NUMBERS_TOP
100
AcDbText
 10
4596.204
 20
-3307.504
 30
0.0
 40
508.0
  1
A51
  7
COURIER_NEW
 72
         1
 11
5250.0
 21
-3085.0
 31
0.0
100
AcDbText
 73
         2
  0
TEXT
  5
30F
100
AcDbEntity
  8
PIN_NUMBERS_TOP
100
AcDbText
 10
5096.204
 20
-3307.504
 30
0.0
 40
508.0
  1
A52
  7
COURIER_NEW
 72
         1
 11
5750.0
 21
-3085.0
 31
0.0
100
AcDbText
 73
         2
  0
TEXT
  5
310
100
AcDbEntity
  8
PIN_NUMBERS_TOP
100
AcDbText
 10
5596.204
 20
-3307.504
 30
0.0
 40
508.0
  1
A53
  7
COURIER_NEW
 72
         1
 11
6250.0
 21
-3085.0
 31
0.0
100
AcDbText
 73
         2
  0
TEXT
  5
311
100
AcDbEntity
  8
PIN_NUMBERS_TOP
100
AcDbText
 10
6096.204
 20
-3307.504
 30
0.0
 40
508.0
  1
A54
  7
COURIER_NEW
 72
         1
 11
6750.0
 21
-3085.0
 31
0.0
100
AcDbText
 73
         2
  0
TEXT
  5
312
100
AcDbEntity
  8
PIN_NUMBERS_TOP
100
AcDbText
 10
6596.204
 20
-3307.504
 30
0.0
 40
508.0
  1
A55
  7
COURIER_NEW
 72
         1
 11
7250.0
 21
-3085.0
 31
0.0
100
AcDbText
 73
         2
  0
TEXT
  5
313
100
AcDbEntity
  8
PIN_NUMBERS_TOP
100
AcDbText
 10
7096.204
 20
-3307.504
 30
0.0
 40
508.0
  1
A56
  7
COURIER_NEW
 72
         1
 11
7750.0
 21
-3085.0
 31
0.0
100
AcDbText
 73
         2
  0
TEXT
  5
314
100
AcDbEntity
  8
PIN_NUMBERS_TOP
100
AcDbText
 10
7596.204
 20
-3307.504
 30
0.0
 40
508.0
  1
A57
  7
COURIER_NEW
 72
         1
 11
8250.0
 21
-3085.0
 31
0.0
100
AcDbText
 73
         2
  0
TEXT
  5
315
100
AcDbEntity
  8
PIN_NUMBERS_TOP
100
AcDbText
 10
8096.204
 20
-3307.504
 30
0.0
 40
508.0
  1
A58
  7
COURIER_NEW
 72
         1
 11
8750.0
 21
-3085.0
 31
0.0
100
AcDbText
 73
         2
  0
TEXT
  5
316
100
AcDbEntity
  8
PIN_NUMBERS_TOP
100
AcDbText
 10
8596.204
 20
-3307.504
 30
0.0
 40
508.0
  1
A59
  7
COURIER_NEW
 72
         1
 11
9250.0
 21
-3085.0
 31
0.0
100
AcDbText
 73
         2
  0
TEXT
  5
317
100
AcDbEntity
  8
PIN_NUMBERS_TOP
100
AcDbText
 10
9096.204
 20
-3307.504
 30
0.0
 40
508.0
  1
A60
  7
COURIER_NEW
 72
         1
 11
9750.0
 21
-3085.0
 31
0.0
100
AcDbText
 73
         2
  0
TEXT
  5
318
100
AcDbEntity
  8
PIN_NUMBERS_TOP
100
AcDbText
 10
9596.204
 20
-3307.504
 30
0.0
 40
508.0
  1
A61
  7
COURIER_NEW
 72
         1
 11
10250.0
 21
-3085.0
 31
0.0
100
AcDbText
 73
         2
  0
TEXT
  5
319
100
AcDbEntity
  8
PIN_NUMBERS_TOP
100
AcDbText
 10
10096.204
 20
-3307.504
 30
0.0
 40
508.0
  1
A62
  7
COURIER_NEW
 72
         1
 11
10750.0
 21
-3085.0
 31
0.0
100
AcDbText
 73
         2
  0
TEXT
  5
31A
100
AcDbEntity
  8
PIN_NUMBERS_TOP
100
AcDbText
 10
10596.204
 20
-3307.504
 30
0.0
 40
508.0
  1
A63
  7
COURIER_NEW
 72
         1
 11
11250.0
 21
-3085.0
 31
0.0
100
AcDbText
 73
         2
  0
TEXT
  5
31B
100
AcDbEntity
  8
PIN_NUMBERS_TOP
100
AcDbText
 10
11096.204
 20
-3307.504
 30
0.0
 40
508.0
  1
A64
  7
COURIER_NEW
 72
         1
 11
11750.0
 21
-3085.0
 31
0.0
100
AcDbText
 73
         2
  0
TEXT
  5
31C
100
AcDbEntity
  8
PIN_NUMBERS_TOP
100
AcDbText
 10
11596.204
 20
-3307.504
 30
0.0
 40
508.0
  1
A65
  7
COURIER_NEW
 72
         1
 11
12250.0
 21
-3085.0
 31
0.0
100
AcDbText
 73
         2
  0
TEXT
  5
31D
100
AcDbEntity
  8
PIN_NUMBERS_TOP
100
AcDbText
 10
12096.204
 20
-3307.504
 30
0.0
 40
508.0
  1
A66
  7
COURIER_NEW
 72
         1
 11
12750.0
 21
-3085.0
 31
0.0
100
AcDbText
 73
         2
  0
TEXT
  5
31E
100
AcDbEntity
  8
PIN_NUMBERS_TOP
100
AcDbText
 10
12596.204
 20
-3307.504
 30
0.0
 40
508.0
  1
A67
  7
COURIER_NEW
 72
         1
 11
13250.0
 21
-3085.0
 31
0.0
100
AcDbText
 73
         2
  0
TEXT
  5
31F
100
AcDbEntity
  8
PIN_NUMBERS_TOP
100
AcDbText
 10
13096.204
 20
-3307.504
 30
0.0
 40
508.0
  1
A68
  7
COURIER_NEW
 72
         1
 11
13750.0
 21
-3085.0
 31
0.0
100
AcDbText
 73
         2
  0
TEXT
  5
320
100
AcDbEntity
  8
PIN_NUMBERS_TOP
100
AcDbText
 10
13596.204
 20
-3307.504
 30
0.0
 40
508.0
  1
A69
  7
COURIER_NEW
 72
         1
 11
14250.0
 21
-3085.0
 31
0.0
100
AcDbText
 73
         2
  0
TEXT
  5
321
100
AcDbEntity
  8
PIN_NUMBERS_TOP
100
AcDbText
 10
14096.204
 20
-3307.504
 30
0.0
 40
508.0
  1
A70
  7
COURIER_NEW
 72
         1
 11
14750.0
 21
-3085.0
 31
0.0
100
AcDbText
 73
         2
  0
TEXT
  5
322
100
AcDbEntity
  8
PIN_NUMBERS_TOP
100
AcDbText
 10
14596.204
 20
-3307.504
 30
0.0
 40
508.0
  1
A71
  7
COURIER_NEW
 72
         1
 11
15250.0
 21
-3085.0
 31
0.0
100
AcDbText
 73
         2
  0
TEXT
  5
323
100
AcDbEntity
  8
PIN_NUMBERS_TOP
100
AcDbText
 10
15096.204
 20
-3307.504
 30
0.0
 40
508.0
  1
A72
  7
COURIER_NEW
 72
         1
 11
15750.0
 21
-3085.0
 31
0.0
100
AcDbText
 73
         2
  0
TEXT
  5
324
100
AcDbEntity
  8
PIN_NUMBERS_TOP
100
AcDbText
 10
15596.204
 20
-3307.504
 30
0.0
 40
508.0
  1
A73
  7
COURIER_NEW
 72
         1
 11
16250.0
 21
-3085.0
 31
0.0
100
AcDbText
 73
         2
  0
TEXT
  5
325
100
AcDbEntity
  8
PIN_NUMBERS_TOP
100
AcDbText
 10
16096.204
 20
-3307.504
 30
0.0
 40
508.0
  1
A74
  7
COURIER_NEW
 72
         1
 11
16750.0
 21
-3085.0
 31
0.0
100
AcDbText
 73
         2
  0
TEXT
  5
326
100
AcDbEntity
  8
PIN_NUMBERS_TOP
100
AcDbText
 10
16596.204
 20
-3307.504
 30
0.0
 40
508.0
  1
A75
  7
COURIER_NEW
 72
         1
 11
17250.0
 21
-3085.0
 31
0.0
100
AcDbText
 73
         2
  0
TEXT
  5
327
100
AcDbEntity
  8
PIN_NUMBERS_TOP
100
AcDbText
 10
17096.204
 20
-3307.504
 30
0.0
 40
508.0
  1
A76
  7
COURIER_NEW
 72
         1
 11
17750.0
 21
-3085.0
 31
0.0
100
AcDbText
 73
         2
  0
TEXT
  5
328
100
AcDbEntity
  8
PIN_NUMBERS_TOP
100
AcDbText
 10
17596.204
 20
-3307.504
 30
0.0
 40
508.0
  1
A77
  7
COURIER_NEW
 72
         1
 11
18250.0
 21
-3085.0
 31
0.0
100
AcDbText
 73
         2
  0
TEXT
  5
329
100
AcDbEntity
  8
PIN_NUMBERS_TOP
100
AcDbText
 10
18096.204
 20
-3307.504
 30
0.0
 40
508.0
  1
A78
  7
COURIER_NEW
 72
         1
 11
18750.0
 21
-3085.0
 31
0.0
100
AcDbText
 73
         2
  0
TEXT
  5
32A
100
AcDbEntity
  8
PIN_NUMBERS_TOP
100
AcDbText
 10
18596.204
 20
-3307.504
 30
0.0
 40
508.0
  1
A79
  7
COURIER_NEW
 72
         1
 11
19250.0
 21
-3085.0
 31
0.0
100
AcDbText
 73
         2
  0
TEXT
  5
32B
100
AcDbEntity
  8
PIN_NUMBERS_TOP
100
AcDbText
 10
19096.204
 20
-3307.504
 30
0.0
 40
508.0
  1
A80
  7
COURIER_NEW
 72
         1
 11
19750.0
 21
-3085.0
 31
0.0
100
AcDbText
 73
         2
  0
TEXT
  5
32C
100
AcDbEntity
  8
PIN_NUMBERS_TOP
100
AcDbText
 10
-20185.864
 20
2862.496
 30
0.0
 40
508.0
  1
B1
  7
COURIER_NEW
 72
         1
 11
-19750.0
 21
3085.0
 31
0.0
100
AcDbText
 73
         2
  0
TEXT
  5
32D
100
AcDbEntity
  8
PIN_NUMBERS_TOP
100
AcDbText
 10
-19685.864
 20
2862.496
 30
0.0
 40
508.0
  1
B2
  7
COURIER_NEW
 72
         1
 11
-19250.0
 21
3085.0
 31
0.0
100
AcDbText
 73
         2
  0
TEXT
  5
32E
100
AcDbEntity
  8
PIN_NUMBERS_TOP
100
AcDbText
 10
-19185.864
 20
2862.496
 30
0.0
 40
508.0
  1
B3
  7
COURIER_NEW
 72
         1
 11
-18750.0
 21
3085.0
 31
0.0
100
AcDbText
 73
         2
  0
TEXT
  5
32F
100
AcDbEntity
  8
PIN_NUMBERS_TOP
100
AcDbText
 10
-18685.864
 20
2862.496
 30
0.0
 40
508.0
  1
B4
  7
COURIER_NEW
 72
         1
 11
-18250.0
 21
3085.0
 31
0.0
100
AcDbText
 73
         2
  0
TEXT
  5
330
100
AcDbEntity
  8
PIN_NUMBERS_TOP
100
AcDbText
 10
-18185.864
 20
2862.496
 30
0.0
 40
508.0
  1
B5
  7
COURIER_NEW
 72
         1
 11
-17750.0
 21
3085.0
 31
0.0
100
AcDbText
 73
         2
  0
TEXT
  5
331
100
AcDbEntity
  8
PIN_NUMBERS_TOP
100
AcDbText
 10
-17685.864
 20
2862.496
 30
0.0
 40
508.0
  1
B6
  7
COURIER_NEW
 72
         1
 11
-17250.0
 21
3085.0
 31
0.0
100
AcDbText
 73
         2
  0
TEXT
  5
332
100
AcDbEntity
  8
PIN_NUMBERS_TOP
100
AcDbText
 10
-17185.864
 20
2862.496
 30
0.0
 40
508.0
  1
B7
  7
COURIER_NEW
 72
         1
 11
-16750.0
 21
3085.0
 31
0.0
100
AcDbText
 73
         2
  0
TEXT
  5
333
100
AcDbEntity
  8
PIN_NUMBERS_TOP
100
AcDbText
 10
-16685.864
 20
2862.496
 30
0.0
 40
508.0
  1
B8
  7
COURIER_NEW
 72
         1
 11
-16250.0
 21
3085.0
 31
0.0
100
AcDbText
 73
         2
  0
TEXT
  5
334
100
AcDbEntity
  8
PIN_NUMBERS_TOP
100
AcDbText
 10
-16185.864
 20
2862.496
 30
0.0
 40
508.0
  1
B9
  7
COURIER_NEW
 72
         1
 11
-15750.0
 21
3085.0
 31
0.0
100
AcDbText
 73
         2
  0
TEXT
  5
335
100
AcDbEntity
  8
PIN_NUMBERS_TOP
100
AcDbText
 10
-15903.796
 20
2862.496
 30
0.0
 40
508.0
  1
B10
  7
COURIER_NEW
 72
         1
 11
-15250.0
 21
3085.0
 31
0.0
100
AcDbText
 73
         2
  0
TEXT
  5
336
100
AcDbEntity
  8
PIN_NUMBERS_TOP
100
AcDbText
 10
-15403.796
 20
2862.496
 30
0.0
 40
508.0
  1
B11
  7
COURIER_NEW
 72
         1
 11
-14750.0
 21
3085.0
 31
0.0
100
AcDbText
 73
         2
  0
TEXT
  5
337
100
AcDbEntity
  8
PIN_NUMBERS_TOP
100
AcDbText
 10
-14903.796
 20
2862.496
 30
0.0
 40
508.0
  1
B12
  7
COURIER_NEW
 72
         1
 11
-14250.0
 21
3085.0
 31
0.0
100
AcDbText
 73
         2
  0
TEXT
  5
338
100
AcDbEntity
  8
PIN_NUMBERS_TOP
100
AcDbText
 10
-14403.796
 20
2862.496
 30
0.0
 40
508.0
  1
B13
  7
COURIER_NEW
 72
         1
 11
-13750.0
 21
3085.0
 31
0.0
100
AcDbText
 73
         2
  0
TEXT
  5
339
100
AcDbEntity
  8
PIN_NUMBERS_TOP
100
AcDbText
 10
-13903.796
 20
2862.496
 30
0.0
 40
508.0
  1
B14
  7
COURIER_NEW
 72
         1
 11
-13250.0
 21
3085.0
 31
0.0
100
AcDbText
 73
         2
  0
TEXT
  5
33A
100
AcDbEntity
  8
PIN_NUMBERS_TOP
100
AcDbText
 10
-13403.796
 20
2862.496
 30
0.0
 40
508.0
  1
B15
  7
COURIER_NEW
 72
         1
 11
-12750.0
 21
3085.0
 31
0.0
100
AcDbText
 73
         2
  0
TEXT
  5
33B
100
AcDbEntity
  8
PIN_NUMBERS_TOP
100
AcDbText
 10
-12903.796
 20
2862.496
 30
0.0
 40
508.0
  1
B16
  7
COURIER_NEW
 72
         1
 11
-12250.0
 21
3085.0
 31
0.0
100
AcDbText
 73
         2
  0
TEXT
  5
33C
100
AcDbEntity
  8
PIN_NUMBERS_TOP
100
AcDbText
 10
-12403.796
 20
2862.496
 30
0.0
 40
508.0
  1
B17
  7
COURIER_NEW
 72
         1
 11
-11750.0
 21
3085.0
 31
0.0
100
AcDbText
 73
         2
  0
TEXT
  5
33D
100
AcDbEntity
  8
PIN_NUMBERS_TOP
100
AcDbText
 10
-11903.796
 20
2862.496
 30
0.0
 40
508.0
  1
B18
  7
COURIER_NEW
 72
         1
 11
-11250.0
 21
3085.0
 31
0.0
100
AcDbText
 73
         2
  0
TEXT
  5
33E
100
AcDbEntity
  8
PIN_NUMBERS_TOP
100
AcDbText
 10
-11403.796
 20
2862.496
 30
0.0
 40
508.0
  1
B19
  7
COURIER_NEW
 72
         1
 11
-10750.0
 21
3085.0
 31
0.0
100
AcDbText
 73
         2
  0
TEXT
  5
33F
100
AcDbEntity
  8
PIN_NUMBERS_TOP
100
AcDbText
 10
-10903.796
 20
2862.496
 30
0.0
 40
508.0
  1
B20
  7
COURIER_NEW
 72
         1
 11
-10250.0
 21
3085.0
 31
0.0
100
AcDbText
 73
         2
  0
TEXT
  5
340
100
AcDbEntity
  8
PIN_NUMBERS_TOP
100
AcDbText
 10
-10403.796
 20
2862.496
 30
0.0
 40
508.0
  1
B21
  7
COURIER_NEW
 72
         1
 11
-9750.0
 21
3085.0
 31
0.0
100
AcDbText
 73
         2
  0
TEXT
  5
341
100
AcDbEntity
  8
PIN_NUMBERS_TOP
100
AcDbText
 10
-9903.796
 20
2862.496
 30
0.0
 40
508.0
  1
B22
  7
COURIER_NEW
 72
         1
 11
-9250.0
 21
3085.0
 31
0.0
100
AcDbText
 73
         2
  0
TEXT
  5
342
100
AcDbEntity
  8
PIN_NUMBERS_TOP
100
AcDbText
 10
-9403.796
 20
2862.496
 30
0.0
 40
508.0
  1
B23
  7
COURIER_NEW
 72
         1
 11
-8750.0
 21
3085.0
 31
0.0
100
AcDbText
 73
         2
  0
TEXT
  5
343
100
AcDbEntity
  8
PIN_NUMBERS_TOP
100
AcDbText
 10
-8903.796
 20
2862.496
 30
0.0
 40
508.0
  1
B24
  7
COURIER_NEW
 72
         1
 11
-8250.0
 21
3085.0
 31
0.0
100
AcDbText
 73
         2
  0
TEXT
  5
344
100
AcDbEntity
  8
PIN_NUMBERS_TOP
100
AcDbText
 10
-8403.796
 20
2862.496
 30
0.0
 40
508.0
  1
B25
  7
COURIER_NEW
 72
         1
 11
-7750.0
 21
3085.0
 31
0.0
100
AcDbText
 73
         2
  0
TEXT
  5
345
100
AcDbEntity
  8
PIN_NUMBERS_TOP
100
AcDbText
 10
-7903.796
 20
2862.496
 30
0.0
 40
508.0
  1
B26
  7
COURIER_NEW
 72
         1
 11
-7250.0
 21
3085.0
 31
0.0
100
AcDbText
 73
         2
  0
TEXT
  5
346
100
AcDbEntity
  8
PIN_NUMBERS_TOP
100
AcDbText
 10
-7403.796
 20
2862.496
 30
0.0
 40
508.0
  1
B27
  7
COURIER_NEW
 72
         1
 11
-6750.0
 21
3085.0
 31
0.0
100
AcDbText
 73
         2
  0
TEXT
  5
347
100
AcDbEntity
  8
PIN_NUMBERS_TOP
100
AcDbText
 10
-6903.796
 20
2862.496
 30
0.0
 40
508.0
  1
B28
  7
COURIER_NEW
 72
         1
 11
-6250.0
 21
3085.0
 31
0.0
100
AcDbText
 73
         2
  0
TEXT
  5
348
100
AcDbEntity
  8
PIN_NUMBERS_TOP
100
AcDbText
 10
-6403.796
 20
2862.496
 30
0.0
 40
508.0
  1
B29
  7
COURIER_NEW
 72
         1
 11
-5750.0
 21
3085.0
 31
0.0
100
AcDbText
 73
         2
  0
TEXT
  5
349
100
AcDbEntity
  8
PIN_NUMBERS_TOP
100
AcDbText
 10
-5903.796
 20
2862.496
 30
0.0
 40
508.0
  1
B30
  7
COURIER_NEW
 72
         1
 11
-5250.0
 21
3085.0
 31
0.0
100
AcDbText
 73
         2
  0
TEXT
  5
34A
100
AcDbEntity
  8
PIN_NUMBERS_TOP
100
AcDbText
 10
-5403.796
 20
2862.496
 30
0.0
 40
508.0
  1
B31
  7
COURIER_NEW
 72
         1
 11
-4750.0
 21
3085.0
 31
0.0
100
AcDbText
 73
         2
  0
TEXT
  5
34B
100
AcDbEntity
  8
PIN_NUMBERS_TOP
100
AcDbText
 10
-4903.796
 20
2862.496
 30
0.0
 40
508.0
  1
B32
  7
COURIER_NEW
 72
         1
 11
-4250.0
 21
3085.0
 31
0.0
100
AcDbText
 73
         2
  0
TEXT
  5
34C
100
AcDbEntity
  8
PIN_NUMBERS_TOP
100
AcDbText
 10
-4403.796
 20
2862.496
 30
0.0
 40
508.0
  1
B33
  7
COURIER_NEW
 72
         1
 11
-3750.0
 21
3085.0
 31
0.0
100
AcDbText
 73
         2
  0
TEXT
  5
34D
100
AcDbEntity
  8
PIN_NUMBERS_TOP
100
AcDbText
 10
-3903.796
 20
2862.496
 30
0.0
 40
508.0
  1
B34
  7
COURIER_NEW
 72
         1
 11
-3250.0
 21
3085.0
 31
0.0
100
AcDbText
 73
         2
  0
TEXT
  5
34E
100
AcDbEntity
  8
PIN_NUMBERS_TOP
100
AcDbText
 10
-3403.796
 20
2862.496
 30
0.0
 40
508.0
  1
B35
  7
COURIER_NEW
 72
         1
 11
-2750.0
 21
3085.0
 31
0.0
100
AcDbText
 73
         2
  0
TEXT
  5
34F
100
AcDbEntity
  8
PIN_NUMBERS_TOP
100
AcDbText
 10
-2903.796
 20
2862.496
 30
0.0
 40
508.0
  1
B36
  7
COURIER_NEW
 72
         1
 11
-2250.0
 21
3085.0
 31
0.0
100
AcDbText
 73
         2
  0
TEXT
  5
350
100
AcDbEntity
  8
PIN_NUMBERS_TOP
100
AcDbText
 10
-2403.796
 20
2862.496
 30
0.0
 40
508.0
  1
B37
  7
COURIER_NEW
 72
         1
 11
-1750.0
 21
3085.0
 31
0.0
100
AcDbText
 73
         2
  0
TEXT
  5
351
100
AcDbEntity
  8
PIN_NUMBERS_TOP
100
AcDbText
 10
-1903.796
 20
2862.496
 30
0.0
 40
508.0
  1
B38
  7
COURIER_NEW
 72
         1
 11
-1250.0
 21
3085.0
 31
0.0
100
AcDbText
 73
         2
  0
TEXT
  5
352
100
AcDbEntity
  8
PIN_NUMBERS_TOP
100
AcDbText
 10
-1403.796
 20
2862.496
 30
0.0
 40
508.0
  1
B39
  7
COURIER_NEW
 72
         1
 11
-750.0
 21
3085.0
 31
0.0
100
AcDbText
 73
         2
  0
TEXT
  5
353
100
AcDbEntity
  8
PIN_NUMBERS_TOP
100
AcDbText
 10
-903.796
 20
2862.496
 30
0.0
 40
508.0
  1
B40
  7
COURIER_NEW
 72
         1
 11
-250.0
 21
3085.0
 31
0.0
100
AcDbText
 73
         2
  0
TEXT
  5
354
100
AcDbEntity
  8
PIN_NUMBERS_TOP
100
AcDbText
 10
-403.796
 20
2862.496
 30
0.0
 40
508.0
  1
B41
  7
COURIER_NEW
 72
         1
 11
250.0
 21
3085.0
 31
0.0
100
AcDbText
 73
         2
  0
TEXT
  5
355
100
AcDbEntity
  8
PIN_NUMBERS_TOP
100
AcDbText
 10
96.204
 20
2862.496
 30
0.0
 40
508.0
  1
B42
  7
COURIER_NEW
 72
         1
 11
750.0
 21
3085.0
 31
0.0
100
AcDbText
 73
         2
  0
TEXT
  5
356
100
AcDbEntity
  8
PIN_NUMBERS_TOP
100
AcDbText
 10
596.204
 20
2862.496
 30
0.0
 40
508.0
  1
B43
  7
COURIER_NEW
 72
         1
 11
1250.0
 21
3085.0
 31
0.0
100
AcDbText
 73
         2
  0
TEXT
  5
357
100
AcDbEntity
  8
PIN_NUMBERS_TOP
100
AcDbText
 10
1096.204
 20
2862.496
 30
0.0
 40
508.0
  1
B44
  7
COURIER_NEW
 72
         1
 11
1750.0
 21
3085.0
 31
0.0
100
AcDbText
 73
         2
  0
TEXT
  5
358
100
AcDbEntity
  8
PIN_NUMBERS_TOP
100
AcDbText
 10
1596.204
 20
2862.496
 30
0.0
 40
508.0
  1
B45
  7
COURIER_NEW
 72
         1
 11
2250.0
 21
3085.0
 31
0.0
100
AcDbText
 73
         2
  0
TEXT
  5
359
100
AcDbEntity
  8
PIN_NUMBERS_TOP
100
AcDbText
 10
2096.204
 20
2862.496
 30
0.0
 40
508.0
  1
B46
  7
COURIER_NEW
 72
         1
 11
2750.0
 21
3085.0
 31
0.0
100
AcDbText
 73
         2
  0
TEXT
  5
35A
100
AcDbEntity
  8
PIN_NUMBERS_TOP
100
AcDbText
 10
2596.204
 20
2862.496
 30
0.0
 40
508.0
  1
B47
  7
COURIER_NEW
 72
         1
 11
3250.0
 21
3085.0
 31
0.0
100
AcDbText
 73
         2
  0
TEXT
  5
35B
100
AcDbEntity
  8
PIN_NUMBERS_TOP
100
AcDbText
 10
3096.204
 20
2862.496
 30
0.0
 40
508.0
  1
B48
  7
COURIER_NEW
 72
         1
 11
3750.0
 21
3085.0
 31
0.0
100
AcDbText
 73
         2
  0
TEXT
  5
35C
100
AcDbEntity
  8
PIN_NUMBERS_TOP
100
AcDbText
 10
3596.204
 20
2862.496
 30
0.0
 40
508.0
  1
B49
  7
COURIER_NEW
 72
         1
 11
4250.0
 21
3085.0
 31
0.0
100
AcDbText
 73
         2
  0
TEXT
  5
35D
100
AcDbEntity
  8
PIN_NUMBERS_TOP
100
AcDbText
 10
4096.204
 20
2862.496
 30
0.0
 40
508.0
  1
B50
  7
COURIER_NEW
 72
         1
 11
4750.0
 21
3085.0
 31
0.0
100
AcDbText
 73
         2
  0
TEXT
  5
35E
100
AcDbEntity
  8
PIN_NUMBERS_TOP
100
AcDbText
 10
4596.204
 20
2862.496
 30
0.0
 40
508.0
  1
B51
  7
COURIER_NEW
 72
         1
 11
5250.0
 21
3085.0
 31
0.0
100
AcDbText
 73
         2
  0
TEXT
  5
35F
100
AcDbEntity
  8
PIN_NUMBERS_TOP
100
AcDbText
 10
5096.204
 20
2862.496
 30
0.0
 40
508.0
  1
B52
  7
COURIER_NEW
 72
         1
 11
5750.0
 21
3085.0
 31
0.0
100
AcDbText
 73
         2
  0
TEXT
  5
360
100
AcDbEntity
  8
PIN_NUMBERS_TOP
100
AcDbText
 10
5596.204
 20
2862.496
 30
0.0
 40
508.0
  1
B53
  7
COURIER_NEW
 72
         1
 11
6250.0
 21
3085.0
 31
0.0
100
AcDbText
 73
         2
  0
TEXT
  5
361
100
AcDbEntity
  8
PIN_NUMBERS_TOP
100
AcDbText
 10
6096.204
 20
2862.496
 30
0.0
 40
508.0
  1
B54
  7
COURIER_NEW
 72
         1
 11
6750.0
 21
3085.0
 31
0.0
100
AcDbText
 73
         2
  0
TEXT
  5
362
100
AcDbEntity
  8
PIN_NUMBERS_TOP
100
AcDbText
 10
6596.204
 20
2862.496
 30
0.0
 40
508.0
  1
B55
  7
COURIER_NEW
 72
         1
 11
7250.0
 21
3085.0
 31
0.0
100
AcDbText
 73
         2
  0
TEXT
  5
363
100
AcDbEntity
  8
PIN_NUMBERS_TOP
100
AcDbText
 10
7096.204
 20
2862.496
 30
0.0
 40
508.0
  1
B56
  7
COURIER_NEW
 72
         1
 11
7750.0
 21
3085.0
 31
0.0
100
AcDbText
 73
         2
  0
TEXT
  5
364
100
AcDbEntity
  8
PIN_NUMBERS_TOP
100
AcDbText
 10
7596.204
 20
2862.496
 30
0.0
 40
508.0
  1
B57
  7
COURIER_NEW
 72
         1
 11
8250.0
 21
3085.0
 31
0.0
100
AcDbText
 73
         2
  0
TEXT
  5
365
100
AcDbEntity
  8
PIN_NUMBERS_TOP
100
AcDbText
 10
8096.204
 20
2862.496
 30
0.0
 40
508.0
  1
B58
  7
COURIER_NEW
 72
         1
 11
8750.0
 21
3085.0
 31
0.0
100
AcDbText
 73
         2
  0
TEXT
  5
366
100
AcDbEntity
  8
PIN_NUMBERS_TOP
100
AcDbText
 10
8596.204
 20
2862.496
 30
0.0
 40
508.0
  1
B59
  7
COURIER_NEW
 72
         1
 11
9250.0
 21
3085.0
 31
0.0
100
AcDbText
 73
         2
  0
TEXT
  5
367
100
AcDbEntity
  8
PIN_NUMBERS_TOP
100
AcDbText
 10
9096.204
 20
2862.496
 30
0.0
 40
508.0
  1
B60
  7
COURIER_NEW
 72
         1
 11
9750.0
 21
3085.0
 31
0.0
100
AcDbText
 73
         2
  0
TEXT
  5
368
100
AcDbEntity
  8
PIN_NUMBERS_TOP
100
AcDbText
 10
9596.204
 20
2862.496
 30
0.0
 40
508.0
  1
B61
  7
COURIER_NEW
 72
         1
 11
10250.0
 21
3085.0
 31
0.0
100
AcDbText
 73
         2
  0
TEXT
  5
369
100
AcDbEntity
  8
PIN_NUMBERS_TOP
100
AcDbText
 10
10096.204
 20
2862.496
 30
0.0
 40
508.0
  1
B62
  7
COURIER_NEW
 72
         1
 11
10750.0
 21
3085.0
 31
0.0
100
AcDbText
 73
         2
  0
TEXT
  5
36A
100
AcDbEntity
  8
PIN_NUMBERS_TOP
100
AcDbText
 10
10596.204
 20
2862.496
 30
0.0
 40
508.0
  1
B63
  7
COURIER_NEW
 72
         1
 11
11250.0
 21
3085.0
 31
0.0
100
AcDbText
 73
         2
  0
TEXT
  5
36B
100
AcDbEntity
  8
PIN_NUMBERS_TOP
100
AcDbText
 10
11096.204
 20
2862.496
 30
0.0
 40
508.0
  1
B64
  7
COURIER_NEW
 72
         1
 11
11750.0
 21
3085.0
 31
0.0
100
AcDbText
 73
         2
  0
TEXT
  5
36C
100
AcDbEntity
  8
PIN_NUMBERS_TOP
100
AcDbText
 10
11596.204
 20
2862.496
 30
0.0
 40
508.0
  1
B65
  7
COURIER_NEW
 72
         1
 11
12250.0
 21
3085.0
 31
0.0
100
AcDbText
 73
         2
  0
TEXT
  5
36D
100
AcDbEntity
  8
PIN_NUMBERS_TOP
100
AcDbText
 10
12096.204
 20
2862.496
 30
0.0
 40
508.0
  1
B66
  7
COURIER_NEW
 72
         1
 11
12750.0
 21
3085.0
 31
0.0
100
AcDbText
 73
         2
  0
TEXT
  5
36E
100
AcDbEntity
  8
PIN_NUMBERS_TOP
100
AcDbText
 10
12596.204
 20
2862.496
 30
0.0
 40
508.0
  1
B67
  7
COURIER_NEW
 72
         1
 11
13250.0
 21
3085.0
 31
0.0
100
AcDbText
 73
         2
  0
TEXT
  5
36F
100
AcDbEntity
  8
PIN_NUMBERS_TOP
100
AcDbText
 10
13096.204
 20
2862.496
 30
0.0
 40
508.0
  1
B68
  7
COURIER_NEW
 72
         1
 11
13750.0
 21
3085.0
 31
0.0
100
AcDbText
 73
         2
  0
TEXT
  5
370
100
AcDbEntity
  8
PIN_NUMBERS_TOP
100
AcDbText
 10
13596.204
 20
2862.496
 30
0.0
 40
508.0
  1
B69
  7
COURIER_NEW
 72
         1
 11
14250.0
 21
3085.0
 31
0.0
100
AcDbText
 73
         2
  0
TEXT
  5
371
100
AcDbEntity
  8
PIN_NUMBERS_TOP
100
AcDbText
 10
14096.204
 20
2862.496
 30
0.0
 40
508.0
  1
B70
  7
COURIER_NEW
 72
         1
 11
14750.0
 21
3085.0
 31
0.0
100
AcDbText
 73
         2
  0
TEXT
  5
372
100
AcDbEntity
  8
PIN_NUMBERS_TOP
100
AcDbText
 10
14596.204
 20
2862.496
 30
0.0
 40
508.0
  1
B71
  7
COURIER_NEW
 72
         1
 11
15250.0
 21
3085.0
 31
0.0
100
AcDbText
 73
         2
  0
TEXT
  5
373
100
AcDbEntity
  8
PIN_NUMBERS_TOP
100
AcDbText
 10
15096.204
 20
2862.496
 30
0.0
 40
508.0
  1
B72
  7
COURIER_NEW
 72
         1
 11
15750.0
 21
3085.0
 31
0.0
100
AcDbText
 73
         2
  0
TEXT
  5
374
100
AcDbEntity
  8
PIN_NUMBERS_TOP
100
AcDbText
 10
15596.204
 20
2862.496
 30
0.0
 40
508.0
  1
B73
  7
COURIER_NEW
 72
         1
 11
16250.0
 21
3085.0
 31
0.0
100
AcDbText
 73
         2
  0
TEXT
  5
375
100
AcDbEntity
  8
PIN_NUMBERS_TOP
100
AcDbText
 10
16096.204
 20
2862.496
 30
0.0
 40
508.0
  1
B74
  7
COURIER_NEW
 72
         1
 11
16750.0
 21
3085.0
 31
0.0
100
AcDbText
 73
         2
  0
TEXT
  5
376
100
AcDbEntity
  8
PIN_NUMBERS_TOP
100
AcDbText
 10
16596.204
 20
2862.496
 30
0.0
 40
508.0
  1
B75
  7
COURIER_NEW
 72
         1
 11
17250.0
 21
3085.0
 31
0.0
100
AcDbText
 73
         2
  0
TEXT
  5
377
100
AcDbEntity
  8
PIN_NUMBERS_TOP
100
AcDbText
 10
17096.204
 20
2862.496
 30
0.0
 40
508.0
  1
B76
  7
COURIER_NEW
 72
         1
 11
17750.0
 21
3085.0
 31
0.0
100
AcDbText
 73
         2
  0
TEXT
  5
378
100
AcDbEntity
  8
PIN_NUMBERS_TOP
100
AcDbText
 10
17596.204
 20
2862.496
 30
0.0
 40
508.0
  1
B77
  7
COURIER_NEW
 72
         1
 11
18250.0
 21
3085.0
 31
0.0
100
AcDbText
 73
         2
  0
TEXT
  5
379
100
AcDbEntity
  8
PIN_NUMBERS_TOP
100
AcDbText
 10
18096.204
 20
2862.496
 30
0.0
 40
508.0
  1
B78
  7
COURIER_NEW
 72
         1
 11
18750.0
 21
3085.0
 31
0.0
100
AcDbText
 73
         2
  0
TEXT
  5
37A
100
AcDbEntity
  8
PIN_NUMBERS_TOP
100
AcDbText
 10
18596.204
 20
2862.496
 30
0.0
 40
508.0
  1
B79
  7
COURIER_NEW
 72
         1
 11
19250.0
 21
3085.0
 31
0.0
100
AcDbText
 73
         2
  0
TEXT
  5
37B
100
AcDbEntity
  8
PIN_NUMBERS_TOP
100
AcDbText
 10
19096.204
 20
2862.496
 30
0.0
 40
508.0
  1
B80
  7
COURIER_NEW
 72
         1
 11
19750.0
 21
3085.0
 31
0.0
100
AcDbText
 73
         2
  0
TEXT
  5
37C
100
AcDbEntity
  8
PIN_NUMBERS_TOP
100
AcDbText
 10
-12685.86
 20
6547.498
 30
0.0
 40
508.0
  1
C1
  7
COURIER_NEW
 72
         1
 11
-12249.996
 21
6770.002
 31
0.0
100
AcDbText
 73
         2
  0
TEXT
  5
37D
100
AcDbEntity
  8
PIN_NUMBERS_TOP
100
AcDbText
 10
-12185.86
 20
6547.498
 30
0.0
 40
508.0
  1
C2
  7
COURIER_NEW
 72
         1
 11
-11749.996
 21
6770.002
 31
0.0
100
AcDbText
 73
         2
  0
TEXT
  5
37E
100
AcDbEntity
  8
PIN_NUMBERS_TOP
100
AcDbText
 10
-11685.86
 20
6547.498
 30
0.0
 40
508.0
  1
C3
  7
COURIER_NEW
 72
         1
 11
-11249.996
 21
6770.002
 31
0.0
100
AcDbText
 73
         2
  0
TEXT
  5
37F
100
AcDbEntity
  8
PIN_NUMBERS_TOP
100
AcDbText
 10
-11185.86
 20
6547.498
 30
0.0
 40
508.0
  1
C4
  7
COURIER_NEW
 72
         1
 11
-10749.996
 21
6770.002
 31
0.0
100
AcDbText
 73
         2
  0
TEXT
  5
380
100
AcDbEntity
  8
PIN_NUMBERS_TOP
100
AcDbText
 10
-10685.86
 20
6547.498
 30
0.0
 40
508.0
  1
C5
  7
COURIER_NEW
 72
         1
 11
-10249.996
 21
6770.002
 31
0.0
100
AcDbText
 73
         2
  0
TEXT
  5
381
100
AcDbEntity
  8
PIN_NUMBERS_TOP
100
AcDbText
 10
-10185.86
 20
6547.498
 30
0.0
 40
508.0
  1
C6
  7
COURIER_NEW
 72
         1
 11
-9749.996
 21
6770.002
 31
0.0
100
AcDbText
 73
         2
  0
TEXT
  5
382
100
AcDbEntity
  8
PIN_NUMBERS_TOP
100
AcDbText
 10
-9685.86
 20
6547.498
 30
0.0
 40
508.0
  1
C7
  7
COURIER_NEW
 72
         1
 11
-9249.996
 21
6770.002
 31
0.0
100
AcDbText
 73
         2
  0
TEXT
  5
383
100
AcDbEntity
  8
PIN_NUMBERS_TOP
100
AcDbText
 10
-9185.86
 20
6547.498
 30
0.0
 40
508.0
  1
C8
  7
COURIER_NEW
 72
         1
 11
-8749.996
 21
6770.002
 31
0.0
100
AcDbText
 73
         2
  0
TEXT
  5
384
100
AcDbEntity
  8
PIN_NUMBERS_TOP
100
AcDbText
 10
-8685.86
 20
6547.498
 30
0.0
 40
508.0
  1
C9
  7
COURIER_NEW
 72
         1
 11
-8249.996
 21
6770.002
 31
0.0
100
AcDbText
 73
         2
  0
TEXT
  5
385
100
AcDbEntity
  8
PIN_NUMBERS_TOP
100
AcDbText
 10
-8403.792
 20
6547.498
 30
0.0
 40
508.0
  1
C10
  7
COURIER_NEW
 72
         1
 11
-7749.996
 21
6770.002
 31
0.0
100
AcDbText
 73
         2
  0
TEXT
  5
386
100
AcDbEntity
  8
PIN_NUMBERS_TOP
100
AcDbText
 10
-7903.792
 20
6547.498
 30
0.0
 40
508.0
  1
C11
  7
COURIER_NEW
 72
         1
 11
-7249.996
 21
6770.002
 31
0.0
100
AcDbText
 73
         2
  0
TEXT
  5
387
100
AcDbEntity
  8
PIN_NUMBERS_TOP
100
AcDbText
 10
-7403.792
 20
6547.498
 30
0.0
 40
508.0
  1
C12
  7
COURIER_NEW
 72
         1
 11
-6749.996
 21
6770.002
 31
0.0
100
AcDbText
 73
         2
  0
TEXT
  5
388
100
AcDbEntity
  8
PIN_NUMBERS_TOP
100
AcDbText
 10
-6903.792
 20
6547.498
 30
0.0
 40
508.0
  1
C13
  7
COURIER_NEW
 72
         1
 11
-6249.996
 21
6770.002
 31
0.0
100
AcDbText
 73
         2
  0
TEXT
  5
389
100
AcDbEntity
  8
PIN_NUMBERS_TOP
100
AcDbText
 10
-6403.792
 20
6547.498
 30
0.0
 40
508.0
  1
C14
  7
COURIER_NEW
 72
         1
 11
-5749.996
 21
6770.002
 31
0.0
100
AcDbText
 73
         2
  0
TEXT
  5
38A
100
AcDbEntity
  8
PIN_NUMBERS_TOP
100
AcDbText
 10
-5903.792
 20
6547.498
 30
0.0
 40
508.0
  1
C15
  7
COURIER_NEW
 72
         1
 11
-5249.996
 21
6770.002
 31
0.0
100
AcDbText
 73
         2
  0
TEXT
  5
38B
100
AcDbEntity
  8
PIN_NUMBERS_TOP
100
AcDbText
 10
-5403.792
 20
6547.498
 30
0.0
 40
508.0
  1
C16
  7
COURIER_NEW
 72
         1
 11
-4749.996
 21
6770.002
 31
0.0
100
AcDbText
 73
         2
  0
TEXT
  5
38C
100
AcDbEntity
  8
PIN_NUMBERS_TOP
100
AcDbText
 10
-4903.792
 20
6547.498
 30
0.0
 40
508.0
  1
C17
  7
COURIER_NEW
 72
         1
 11
-4249.996
 21
6770.002
 31
0.0
100
AcDbText
 73
         2
  0
TEXT
  5
38D
100
AcDbEntity
  8
PIN_NUMBERS_TOP
100
AcDbText
 10
-4403.792
 20
6547.498
 30
0.0
 40
508.0
  1
C18
  7
COURIER_NEW
 72
         1
 11
-3749.996
 21
6770.002
 31
0.0
100
AcDbText
 73
         2
  0
TEXT
  5
38E
100
AcDbEntity
  8
PIN_NUMBERS_TOP
100
AcDbText
 10
-3903.792
 20
6547.498
 30
0.0
 40
508.0
  1
C19
  7
COURIER_NEW
 72
         1
 11
-3249.996
 21
6770.002
 31
0.0
100
AcDbText
 73
         2
  0
TEXT
  5
38F
100
AcDbEntity
  8
PIN_NUMBERS_TOP
100
AcDbText
 10
-3403.792
 20
6547.498
 30
0.0
 40
508.0
  1
C20
  7
COURIER_NEW
 72
         1
 11
-2749.996
 21
6770.002
 31
0.0
100
AcDbText
 73
         2
  0
TEXT
  5
390
100
AcDbEntity
  8
PIN_NUMBERS_TOP
100
AcDbText
 10
-2903.792
 20
6547.498
 30
0.0
 40
508.0
  1
C21
  7
COURIER_NEW
 72
         1
 11
-2249.996
 21
6770.002
 31
0.0
100
AcDbText
 73
         2
  0
TEXT
  5
391
100
AcDbEntity
  8
PIN_NUMBERS_TOP
100
AcDbText
 10
-2403.792
 20
6547.498
 30
0.0
 40
508.0
  1
C22
  7
COURIER_NEW
 72
         1
 11
-1749.996
 21
6770.002
 31
0.0
100
AcDbText
 73
         2
  0
TEXT
  5
392
100
AcDbEntity
  8
PIN_NUMBERS_TOP
100
AcDbText
 10
-1903.792
 20
6547.498
 30
0.0
 40
508.0
  1
C23
  7
COURIER_NEW
 72
         1
 11
-1249.996
 21
6770.002
 31
0.0
100
AcDbText
 73
         2
  0
TEXT
  5
393
100
AcDbEntity
  8
PIN_NUMBERS_TOP
100
AcDbText
 10
-1403.792
 20
6547.498
 30
0.0
 40
508.0
  1
C24
  7
COURIER_NEW
 72
         1
 11
-749.996
 21
6770.002
 31
0.0
100
AcDbText
 73
         2
  0
TEXT
  5
394
100
AcDbEntity
  8
PIN_NUMBERS_TOP
100
AcDbText
 10
-903.792
 20
6547.498
 30
0.0
 40
508.0
  1
C25
  7
COURIER_NEW
 72
         1
 11
-249.996
 21
6770.002
 31
0.0
100
AcDbText
 73
         2
  0
TEXT
  5
395
100
AcDbEntity
  8
PIN_NUMBERS_TOP
100
AcDbText
 10
-403.792
 20
6547.498
 30
0.0
 40
508.0
  1
C26
  7
COURIER_NEW
 72
         1
 11
250.004
 21
6770.002
 31
0.0
100
AcDbText
 73
         2
  0
TEXT
  5
396
100
AcDbEntity
  8
PIN_NUMBERS_TOP
100
AcDbText
 10
96.208
 20
6547.498
 30
0.0
 40
508.0
  1
C27
  7
COURIER_NEW
 72
         1
 11
750.004
 21
6770.002
 31
0.0
100
AcDbText
 73
         2
  0
TEXT
  5
397
100
AcDbEntity
  8
PIN_NUMBERS_TOP
100
AcDbText
 10
596.208
 20
6547.498
 30
0.0
 40
508.0
  1
C28
  7
COURIER_NEW
 72
         1
 11
1250.004
 21
6770.002
 31
0.0
100
AcDbText
 73
         2
  0
TEXT
  5
398
100
AcDbEntity
  8
PIN_NUMBERS_TOP
100
AcDbText
 10
1096.208
 20
6547.498
 30
0.0
 40
508.0
  1
C29
  7
COURIER_NEW
 72
         1
 11
1750.004
 21
6770.002
 31
0.0
100
AcDbText
 73
         2
  0
TEXT
  5
399
100
AcDbEntity
  8
PIN_NUMBERS_TOP
100
AcDbText
 10
1596.208
 20
6547.498
 30
0.0
 40
508.0
  1
C30
  7
COURIER_NEW
 72
         1
 11
2250.004
 21
6770.002
 31
0.0
100
AcDbText
 73
         2
  0
TEXT
  5
39A
100
AcDbEntity
  8
PIN_NUMBERS_TOP
100
AcDbText
 10
2096.208
 20
6547.498
 30
0.0
 40
508.0
  1
C31
  7
COURIER_NEW
 72
         1
 11
2750.004
 21
6770.002
 31
0.0
100
AcDbText
 73
         2
  0
TEXT
  5
39B
100
AcDbEntity
  8
PIN_NUMBERS_TOP
100
AcDbText
 10
2596.208
 20
6547.498
 30
0.0
 40
508.0
  1
C32
  7
COURIER_NEW
 72
         1
 11
3250.004
 21
6770.002
 31
0.0
100
AcDbText
 73
         2
  0
TEXT
  5
39C
100
AcDbEntity
  8
PIN_NUMBERS_TOP
100
AcDbText
 10
3096.208
 20
6547.498
 30
0.0
 40
508.0
  1
C33
  7
COURIER_NEW
 72
         1
 11
3750.004
 21
6770.002
 31
0.0
100
AcDbText
 73
         2
  0
TEXT
  5
39D
100
AcDbEntity
  8
PIN_NUMBERS_TOP
100
AcDbText
 10
3596.208
 20
6547.498
 30
0.0
 40
508.0
  1
C34
  7
COURIER_NEW
 72
         1
 11
4250.004
 21
6770.002
 31
0.0
100
AcDbText
 73
         2
  0
TEXT
  5
39E
100
AcDbEntity
  8
PIN_NUMBERS_TOP
100
AcDbText
 10
4096.208
 20
6547.498
 30
0.0
 40
508.0
  1
C35
  7
COURIER_NEW
 72
         1
 11
4750.004
 21
6770.002
 31
0.0
100
AcDbText
 73
         2
  0
TEXT
  5
39F
100
AcDbEntity
  8
PIN_NUMBERS_TOP
100
AcDbText
 10
4596.208
 20
6547.498
 30
0.0
 40
508.0
  1
C36
  7
COURIER_NEW
 72
         1
 11
5250.004
 21
6770.002
 31
0.0
100
AcDbText
 73
         2
  0
TEXT
  5
3A0
100
AcDbEntity
  8
PIN_NUMBERS_TOP
100
AcDbText
 10
5096.208
 20
6547.498
 30
0.0
 40
508.0
  1
C37
  7
COURIER_NEW
 72
         1
 11
5750.004
 21
6770.002
 31
0.0
100
AcDbText
 73
         2
  0
TEXT
  5
3A1
100
AcDbEntity
  8
PIN_NUMBERS_TOP
100
AcDbText
 10
5596.208
 20
6547.498
 30
0.0
 40
508.0
  1
C38
  7
COURIER_NEW
 72
         1
 11
6250.004
 21
6770.002
 31
0.0
100
AcDbText
 73
         2
  0
TEXT
  5
3A2
100
AcDbEntity
  8
PIN_NUMBERS_TOP
100
AcDbText
 10
6096.208
 20
6547.498
 30
0.0
 40
508.0
  1
C39
  7
COURIER_NEW
 72
         1
 11
6750.004
 21
6770.002
 31
0.0
100
AcDbText
 73
         2
  0
TEXT
  5
3A3
100
AcDbEntity
  8
PIN_NUMBERS_TOP
100
AcDbText
 10
6596.208
 20
6547.498
 30
0.0
 40
508.0
  1
C40
  7
COURIER_NEW
 72
         1
 11
7250.004
 21
6770.002
 31
0.0
100
AcDbText
 73
         2
  0
TEXT
  5
3A4
100
AcDbEntity
  8
PIN_NUMBERS_TOP
100
AcDbText
 10
7096.208
 20
6547.498
 30
0.0
 40
508.0
  1
C41
  7
COURIER_NEW
 72
         1
 11
7750.004
 21
6770.002
 31
0.0
100
AcDbText
 73
         2
  0
TEXT
  5
3A5
100
AcDbEntity
  8
PIN_NUMBERS_TOP
100
AcDbText
 10
7596.208
 20
6547.498
 30
0.0
 40
508.0
  1
C42
  7
COURIER_NEW
 72
         1
 11
8250.004
 21
6770.002
 31
0.0
100
AcDbText
 73
         2
  0
TEXT
  5
3A6
100
AcDbEntity
  8
PIN_NUMBERS_TOP
100
AcDbText
 10
8096.208
 20
6547.498
 30
0.0
 40
508.0
  1
C43
  7
COURIER_NEW
 72
         1
 11
8750.004
 21
6770.002
 31
0.0
100
AcDbText
 73
         2
  0
TEXT
  5
3A7
100
AcDbEntity
  8
PIN_NUMBERS_TOP
100
AcDbText
 10
8596.208
 20
6547.498
 30
0.0
 40
508.0
  1
C44
  7
COURIER_NEW
 72
         1
 11
9250.004
 21
6770.002
 31
0.0
100
AcDbText
 73
         2
  0
TEXT
  5
3A8
100
AcDbEntity
  8
PIN_NUMBERS_TOP
100
AcDbText
 10
9096.208
 20
6547.498
 30
0.0
 40
508.0
  1
C45
  7
COURIER_NEW
 72
         1
 11
9750.004
 21
6770.002
 31
0.0
100
AcDbText
 73
         2
  0
TEXT
  5
3A9
100
AcDbEntity
  8
PIN_NUMBERS_TOP
100
AcDbText
 10
9596.208
 20
6547.498
 30
0.0
 40
508.0
  1
C46
  7
COURIER_NEW
 72
         1
 11
10250.004
 21
6770.002
 31
0.0
100
AcDbText
 73
         2
  0
TEXT
  5
3AA
100
AcDbEntity
  8
PIN_NUMBERS_TOP
100
AcDbText
 10
10096.208
 20
6547.498
 30
0.0
 40
508.0
  1
C47
  7
COURIER_NEW
 72
         1
 11
10750.004
 21
6770.002
 31
0.0
100
AcDbText
 73
         2
  0
TEXT
  5
3AB
100
AcDbEntity
  8
PIN_NUMBERS_TOP
100
AcDbText
 10
10596.208
 20
6547.498
 30
0.0
 40
508.0
  1
C48
  7
COURIER_NEW
 72
         1
 11
11250.004
 21
6770.002
 31
0.0
100
AcDbText
 73
         2
  0
TEXT
  5
3AC
100
AcDbEntity
  8
PIN_NUMBERS_TOP
100
AcDbText
 10
11096.208
 20
6547.498
 30
0.0
 40
508.0
  1
C49
  7
COURIER_NEW
 72
         1
 11
11750.004
 21
6770.002
 31
0.0
100
AcDbText
 73
         2
  0
TEXT
  5
3AD
100
AcDbEntity
  8
PIN_NUMBERS_TOP
100
AcDbText
 10
11596.208
 20
6547.498
 30
0.0
 40
508.0
  1
C50
  7
COURIER_NEW
 72
         1
 11
12250.004
 21
6770.002
 31
0.0
100
AcDbText
 73
         2
  0
TEXT
  5
3AE
100
AcDbEntity
  8
PIN_NUMBERS_TOP
100
AcDbText
 10
-12685.86
 20
12717.498
 30
0.0
 40
508.0
  1
D1
  7
COURIER_NEW
 72
         1
 11
-12249.996
 21
12940.002
 31
0.0
100
AcDbText
 73
         2
  0
TEXT
  5
3AF
100
AcDbEntity
  8
PIN_NUMBERS_TOP
100
AcDbText
 10
-12185.86
 20
12717.498
 30
0.0
 40
508.0
  1
D2
  7
COURIER_NEW
 72
         1
 11
-11749.996
 21
12940.002
 31
0.0
100
AcDbText
 73
         2
  0
TEXT
  5
3B0
100
AcDbEntity
  8
PIN_NUMBERS_TOP
100
AcDbText
 10
-11685.86
 20
12717.498
 30
0.0
 40
508.0
  1
D3
  7
COURIER_NEW
 72
         1
 11
-11249.996
 21
12940.002
 31
0.0
100
AcDbText
 73
         2
  0
TEXT
  5
3B1
100
AcDbEntity
  8
PIN_NUMBERS_TOP
100
AcDbText
 10
-11185.86
 20
12717.498
 30
0.0
 40
508.0
  1
D4
  7
COURIER_NEW
 72
         1
 11
-10749.996
 21
12940.002
 31
0.0
100
AcDbText
 73
         2
  0
TEXT
  5
3B2
100
AcDbEntity
  8
PIN_NUMBERS_TOP
100
AcDbText
 10
-10685.86
 20
12717.498
 30
0.0
 40
508.0
  1
D5
  7
COURIER_NEW
 72
         1
 11
-10249.996
 21
12940.002
 31
0.0
100
AcDbText
 73
         2
  0
TEXT
  5
3B3
100
AcDbEntity
  8
PIN_NUMBERS_TOP
100
AcDbText
 10
-10185.86
 20
12717.498
 30
0.0
 40
508.0
  1
D6
  7
COURIER_NEW
 72
         1
 11
-9749.996
 21
12940.002
 31
0.0
100
AcDbText
 73
         2
  0
TEXT
  5
3B4
100
AcDbEntity
  8
PIN_NUMBERS_TOP
100
AcDbText
 10
-9685.86
 20
12717.498
 30
0.0
 40
508.0
  1
D7
  7
COURIER_NEW
 72
         1
 11
-9249.996
 21
12940.002
 31
0.0
100
AcDbText
 73
         2
  0
TEXT
  5
3B5
100
AcDbEntity
  8
PIN_NUMBERS_TOP
100
AcDbText
 10
-9185.86
 20
12717.498
 30
0.0
 40
508.0
  1
D8
  7
COURIER_NEW
 72
         1
 11
-8749.996
 21
12940.002
 31
0.0
100
AcDbText
 73
         2
  0
TEXT
  5
3B6
100
AcDbEntity
  8
PIN_NUMBERS_TOP
100
AcDbText
 10
-8685.86
 20
12717.498
 30
0.0
 40
508.0
  1
D9
  7
COURIER_NEW
 72
         1
 11
-8249.996
 21
12940.002
 31
0.0
100
AcDbText
 73
         2
  0
TEXT
  5
3B7
100
AcDbEntity
  8
PIN_NUMBERS_TOP
100
AcDbText
 10
-8403.792
 20
12717.498
 30
0.0
 40
508.0
  1
D10
  7
COURIER_NEW
 72
         1
 11
-7749.996
 21
12940.002
 31
0.0
100
AcDbText
 73
         2
  0
TEXT
  5
3B8
100
AcDbEntity
  8
PIN_NUMBERS_TOP
100
AcDbText
 10
-7903.792
 20
12717.498
 30
0.0
 40
508.0
  1
D11
  7
COURIER_NEW
 72
         1
 11
-7249.996
 21
12940.002
 31
0.0
100
AcDbText
 73
         2
  0
TEXT
  5
3B9
100
AcDbEntity
  8
PIN_NUMBERS_TOP
100
AcDbText
 10
-7403.792
 20
12717.498
 30
0.0
 40
508.0
  1
D12
  7
COURIER_NEW
 72
         1
 11
-6749.996
 21
12940.002
 31
0.0
100
AcDbText
 73
         2
  0
TEXT
  5
3BA
100
AcDbEntity
  8
PIN_NUMBERS_TOP
100
AcDbText
 10
-6903.792
 20
12717.498
 30
0.0
 40
508.0
  1
D13
  7
COURIER_NEW
 72
         1
 11
-6249.996
 21
12940.002
 31
0.0
100
AcDbText
 73
         2
  0
TEXT
  5
3BB
100
AcDbEntity
  8
PIN_NUMBERS_TOP
100
AcDbText
 10
-6403.792
 20
12717.498
 30
0.0
 40
508.0
  1
D14
  7
COURIER_NEW
 72
         1
 11
-5749.996
 21
12940.002
 31
0.0
100
AcDbText
 73
         2
  0
TEXT
  5
3BC
100
AcDbEntity
  8
PIN_NUMBERS_TOP
100
AcDbText
 10
-5903.792
 20
12717.498
 30
0.0
 40
508.0
  1
D15
  7
COURIER_NEW
 72
         1
 11
-5249.996
 21
12940.002
 31
0.0
100
AcDbText
 73
         2
  0
TEXT
  5
3BD
100
AcDbEntity
  8
PIN_NUMBERS_TOP
100
AcDbText
 10
-5403.792
 20
12717.498
 30
0.0
 40
508.0
  1
D16
  7
COURIER_NEW
 72
         1
 11
-4749.996
 21
12940.002
 31
0.0
100
AcDbText
 73
         2
  0
TEXT
  5
3BE
100
AcDbEntity
  8
PIN_NUMBERS_TOP
100
AcDbText
 10
-4903.792
 20
12717.498
 30
0.0
 40
508.0
  1
D17
  7
COURIER_NEW
 72
         1
 11
-4249.996
 21
12940.002
 31
0.0
100
AcDbText
 73
         2
  0
TEXT
  5
3BF
100
AcDbEntity
  8
PIN_NUMBERS_TOP
100
AcDbText
 10
-4403.792
 20
12717.498
 30
0.0
 40
508.0
  1
D18
  7
COURIER_NEW
 72
         1
 11
-3749.996
 21
12940.002
 31
0.0
100
AcDbText
 73
         2
  0
TEXT
  5
3C0
100
AcDbEntity
  8
PIN_NUMBERS_TOP
100
AcDbText
 10
-3903.792
 20
12717.498
 30
0.0
 40
508.0
  1
D19
  7
COURIER_NEW
 72
         1
 11
-3249.996
 21
12940.002
 31
0.0
100
AcDbText
 73
         2
  0
TEXT
  5
3C1
100
AcDbEntity
  8
PIN_NUMBERS_TOP
100
AcDbText
 10
-3403.792
 20
12717.498
 30
0.0
 40
508.0
  1
D20
  7
COURIER_NEW
 72
         1
 11
-2749.996
 21
12940.002
 31
0.0
100
AcDbText
 73
         2
  0
TEXT
  5
3C2
100
AcDbEntity
  8
PIN_NUMBERS_TOP
100
AcDbText
 10
-2903.792
 20
12717.498
 30
0.0
 40
508.0
  1
D21
  7
COURIER_NEW
 72
         1
 11
-2249.996
 21
12940.002
 31
0.0
100
AcDbText
 73
         2
  0
TEXT
  5
3C3
100
AcDbEntity
  8
PIN_NUMBERS_TOP
100
AcDbText
 10
-2403.792
 20
12717.498
 30
0.0
 40
508.0
  1
D22
  7
COURIER_NEW
 72
         1
 11
-1749.996
 21
12940.002
 31
0.0
100
AcDbText
 73
         2
  0
TEXT
  5
3C4
100
AcDbEntity
  8
PIN_NUMBERS_TOP
100
AcDbText
 10
-1903.792
 20
12717.498
 30
0.0
 40
508.0
  1
D23
  7
COURIER_NEW
 72
         1
 11
-1249.996
 21
12940.002
 31
0.0
100
AcDbText
 73
         2
  0
TEXT
  5
3C5
100
AcDbEntity
  8
PIN_NUMBERS_TOP
100
AcDbText
 10
-1403.792
 20
12717.498
 30
0.0
 40
508.0
  1
D24
  7
COURIER_NEW
 72
         1
 11
-749.996
 21
12940.002
 31
0.0
100
AcDbText
 73
         2
  0
TEXT
  5
3C6
100
AcDbEntity
  8
PIN_NUMBERS_TOP
100
AcDbText
 10
-903.792
 20
12717.498
 30
0.0
 40
508.0
  1
D25
  7
COURIER_NEW
 72
         1
 11
-249.996
 21
12940.002
 31
0.0
100
AcDbText
 73
         2
  0
TEXT
  5
3C7
100
AcDbEntity
  8
PIN_NUMBERS_TOP
100
AcDbText
 10
-403.792
 20
12717.498
 30
0.0
 40
508.0
  1
D26
  7
COURIER_NEW
 72
         1
 11
250.004
 21
12940.002
 31
0.0
100
AcDbText
 73
         2
  0
TEXT
  5
3C8
100
AcDbEntity
  8
PIN_NUMBERS_TOP
100
AcDbText
 10
96.208
 20
12717.498
 30
0.0
 40
508.0
  1
D27
  7
COURIER_NEW
 72
         1
 11
750.004
 21
12940.002
 31
0.0
100
AcDbText
 73
         2
  0
TEXT
  5
3C9
100
AcDbEntity
  8
PIN_NUMBERS_TOP
100
AcDbText
 10
596.208
 20
12717.498
 30
0.0
 40
508.0
  1
D28
  7
COURIER_NEW
 72
         1
 11
1250.004
 21
12940.002
 31
0.0
100
AcDbText
 73
         2
  0
TEXT
  5
3CA
100
AcDbEntity
  8
PIN_NUMBERS_TOP
100
AcDbText
 10
1096.208
 20
12717.498
 30
0.0
 40
508.0
  1
D29
  7
COURIER_NEW
 72
         1
 11
1750.004
 21
12940.002
 31
0.0
100
AcDbText
 73
         2
  0
TEXT
  5
3CB
100
AcDbEntity
  8
PIN_NUMBERS_TOP
100
AcDbText
 10
1596.208
 20
12717.498
 30
0.0
 40
508.0
  1
D30
  7
COURIER_NEW
 72
         1
 11
2250.004
 21
12940.002
 31
0.0
100
AcDbText
 73
         2
  0
TEXT
  5
3CC
100
AcDbEntity
  8
PIN_NUMBERS_TOP
100
AcDbText
 10
2096.208
 20
12717.498
 30
0.0
 40
508.0
  1
D31
  7
COURIER_NEW
 72
         1
 11
2750.004
 21
12940.002
 31
0.0
100
AcDbText
 73
         2
  0
TEXT
  5
3CD
100
AcDbEntity
  8
PIN_NUMBERS_TOP
100
AcDbText
 10
2596.208
 20
12717.498
 30
0.0
 40
508.0
  1
D32
  7
COURIER_NEW
 72
         1
 11
3250.004
 21
12940.002
 31
0.0
100
AcDbText
 73
         2
  0
TEXT
  5
3CE
100
AcDbEntity
  8
PIN_NUMBERS_TOP
100
AcDbText
 10
3096.208
 20
12717.498
 30
0.0
 40
508.0
  1
D33
  7
COURIER_NEW
 72
         1
 11
3750.004
 21
12940.002
 31
0.0
100
AcDbText
 73
         2
  0
TEXT
  5
3CF
100
AcDbEntity
  8
PIN_NUMBERS_TOP
100
AcDbText
 10
3596.208
 20
12717.498
 30
0.0
 40
508.0
  1
D34
  7
COURIER_NEW
 72
         1
 11
4250.004
 21
12940.002
 31
0.0
100
AcDbText
 73
         2
  0
TEXT
  5
3D0
100
AcDbEntity
  8
PIN_NUMBERS_TOP
100
AcDbText
 10
4096.208
 20
12717.498
 30
0.0
 40
508.0
  1
D35
  7
COURIER_NEW
 72
         1
 11
4750.004
 21
12940.002
 31
0.0
100
AcDbText
 73
         2
  0
TEXT
  5
3D1
100
AcDbEntity
  8
PIN_NUMBERS_TOP
100
AcDbText
 10
4596.208
 20
12717.498
 30
0.0
 40
508.0
  1
D36
  7
COURIER_NEW
 72
         1
 11
5250.004
 21
12940.002
 31
0.0
100
AcDbText
 73
         2
  0
TEXT
  5
3D2
100
AcDbEntity
  8
PIN_NUMBERS_TOP
100
AcDbText
 10
5096.208
 20
12717.498
 30
0.0
 40
508.0
  1
D37
  7
COURIER_NEW
 72
         1
 11
5750.004
 21
12940.002
 31
0.0
100
AcDbText
 73
         2
  0
TEXT
  5
3D3
100
AcDbEntity
  8
PIN_NUMBERS_TOP
100
AcDbText
 10
5596.208
 20
12717.498
 30
0.0
 40
508.0
  1
D38
  7
COURIER_NEW
 72
         1
 11
6250.004
 21
12940.002
 31
0.0
100
AcDbText
 73
         2
  0
TEXT
  5
3D4
100
AcDbEntity
  8
PIN_NUMBERS_TOP
100
AcDbText
 10
6096.208
 20
12717.498
 30
0.0
 40
508.0
  1
D39
  7
COURIER_NEW
 72
         1
 11
6750.004
 21
12940.002
 31
0.0
100
AcDbText
 73
         2
  0
TEXT
  5
3D5
100
AcDbEntity
  8
PIN_NUMBERS_TOP
100
AcDbText
 10
6596.208
 20
12717.498
 30
0.0
 40
508.0
  1
D40
  7
COURIER_NEW
 72
         1
 11
7250.004
 21
12940.002
 31
0.0
100
AcDbText
 73
         2
  0
TEXT
  5
3D6
100
AcDbEntity
  8
PIN_NUMBERS_TOP
100
AcDbText
 10
7096.208
 20
12717.498
 30
0.0
 40
508.0
  1
D41
  7
COURIER_NEW
 72
         1
 11
7750.004
 21
12940.002
 31
0.0
100
AcDbText
 73
         2
  0
TEXT
  5
3D7
100
AcDbEntity
  8
PIN_NUMBERS_TOP
100
AcDbText
 10
7596.208
 20
12717.498
 30
0.0
 40
508.0
  1
D42
  7
COURIER_NEW
 72
         1
 11
8250.004
 21
12940.002
 31
0.0
100
AcDbText
 73
         2
  0
TEXT
  5
3D8
100
AcDbEntity
  8
PIN_NUMBERS_TOP
100
AcDbText
 10
8096.208
 20
12717.498
 30
0.0
 40
508.0
  1
D43
  7
COURIER_NEW
 72
         1
 11
8750.004
 21
12940.002
 31
0.0
100
AcDbText
 73
         2
  0
TEXT
  5
3D9
100
AcDbEntity
  8
PIN_NUMBERS_TOP
100
AcDbText
 10
8596.208
 20
12717.498
 30
0.0
 40
508.0
  1
D44
  7
COURIER_NEW
 72
         1
 11
9250.004
 21
12940.002
 31
0.0
100
AcDbText
 73
         2
  0
TEXT
  5
3DA
100
AcDbEntity
  8
PIN_NUMBERS_TOP
100
AcDbText
 10
9096.208
 20
12717.498
 30
0.0
 40
508.0
  1
D45
  7
COURIER_NEW
 72
         1
 11
9750.004
 21
12940.002
 31
0.0
100
AcDbText
 73
         2
  0
TEXT
  5
3DB
100
AcDbEntity
  8
PIN_NUMBERS_TOP
100
AcDbText
 10
9596.208
 20
12717.498
 30
0.0
 40
508.0
  1
D46
  7
COURIER_NEW
 72
         1
 11
10250.004
 21
12940.002
 31
0.0
100
AcDbText
 73
         2
  0
TEXT
  5
3DC
100
AcDbEntity
  8
PIN_NUMBERS_TOP
100
AcDbText
 10
10096.208
 20
12717.498
 30
0.0
 40
508.0
  1
D47
  7
COURIER_NEW
 72
         1
 11
10750.004
 21
12940.002
 31
0.0
100
AcDbText
 73
         2
  0
TEXT
  5
3DD
100
AcDbEntity
  8
PIN_NUMBERS_TOP
100
AcDbText
 10
10596.208
 20
12717.498
 30
0.0
 40
508.0
  1
D48
  7
COURIER_NEW
 72
         1
 11
11250.004
 21
12940.002
 31
0.0
100
AcDbText
 73
         2
  0
TEXT
  5
3DE
100
AcDbEntity
  8
PIN_NUMBERS_TOP
100
AcDbText
 10
11096.208
 20
12717.498
 30
0.0
 40
508.0
  1
D49
  7
COURIER_NEW
 72
         1
 11
11750.004
 21
12940.002
 31
0.0
100
AcDbText
 73
         2
  0
TEXT
  5
3DF
100
AcDbEntity
  8
PIN_NUMBERS_TOP
100
AcDbText
 10
11596.208
 20
12717.498
 30
0.0
 40
508.0
  1
D50
  7
COURIER_NEW
 72
         1
 11
12250.004
 21
12940.002
 31
0.0
100
AcDbText
 73
         2
  0
TEXT
  5
3E0
100
AcDbEntity
  8
PIN_NUMBERS_TOP
100
AcDbText
 10
-15185.863
 20
-46437.505
 30
0.0
 40
508.0
  1
F1
  7
COURIER_NEW
 72
         1
 11
-14749.999
 21
-46215.001
 31
0.0
100
AcDbText
 73
         2
  0
TEXT
  5
3E1
100
AcDbEntity
  8
PIN_NUMBERS_TOP
100
AcDbText
 10
-14685.863
 20
-46437.505
 30
0.0
 40
508.0
  1
F2
  7
COURIER_NEW
 72
         1
 11
-14249.999
 21
-46215.001
 31
0.0
100
AcDbText
 73
         2
  0
TEXT
  5
3E2
100
AcDbEntity
  8
PIN_NUMBERS_TOP
100
AcDbText
 10
-14185.863
 20
-46437.505
 30
0.0
 40
508.0
  1
F3
  7
COURIER_NEW
 72
         1
 11
-13749.999
 21
-46215.001
 31
0.0
100
AcDbText
 73
         2
  0
TEXT
  5
3E3
100
AcDbEntity
  8
PIN_NUMBERS_TOP
100
AcDbText
 10
-13685.863
 20
-46437.505
 30
0.0
 40
508.0
  1
F4
  7
COURIER_NEW
 72
         1
 11
-13249.999
 21
-46215.001
 31
0.0
100
AcDbText
 73
         2
  0
TEXT
  5
3E4
100
AcDbEntity
  8
PIN_NUMBERS_TOP
100
AcDbText
 10
-13185.863
 20
-46437.505
 30
0.0
 40
508.0
  1
F5
  7
COURIER_NEW
 72
         1
 11
-12749.999
 21
-46215.001
 31
0.0
100
AcDbText
 73
         2
  0
TEXT
  5
3E5
100
AcDbEntity
  8
PIN_NUMBERS_TOP
100
AcDbText
 10
-12685.863
 20
-46437.505
 30
0.0
 40
508.0
  1
F6
  7
COURIER_NEW
 72
         1
 11
-12249.999
 21
-46215.001
 31
0.0
100
AcDbText
 73
         2
  0
TEXT
  5
3E6
100
AcDbEntity
  8
PIN_NUMBERS_TOP
100
AcDbText
 10
-12185.863
 20
-46437.505
 30
0.0
 40
508.0
  1
F7
  7
COURIER_NEW
 72
         1
 11
-11749.999
 21
-46215.001
 31
0.0
100
AcDbText
 73
         2
  0
TEXT
  5
3E7
100
AcDbEntity
  8
PIN_NUMBERS_TOP
100
AcDbText
 10
-11685.863
 20
-46437.505
 30
0.0
 40
508.0
  1
F8
  7
COURIER_NEW
 72
         1
 11
-11249.999
 21
-46215.001
 31
0.0
100
AcDbText
 73
         2
  0
TEXT
  5
3E8
100
AcDbEntity
  8
PIN_NUMBERS_TOP
100
AcDbText
 10
-11185.863
 20
-46437.505
 30
0.0
 40
508.0
  1
F9
  7
COURIER_NEW
 72
         1
 11
-10749.999
 21
-46215.001
 31
0.0
100
AcDbText
 73
         2
  0
TEXT
  5
3E9
100
AcDbEntity
  8
PIN_NUMBERS_TOP
100
AcDbText
 10
-10903.795
 20
-46437.505
 30
0.0
 40
508.0
  1
F10
  7
COURIER_NEW
 72
         1
 11
-10249.999
 21
-46215.001
 31
0.0
100
AcDbText
 73
         2
  0
TEXT
  5
3EA
100
AcDbEntity
  8
PIN_NUMBERS_TOP
100
AcDbText
 10
-10403.795
 20
-46437.505
 30
0.0
 40
508.0
  1
F11
  7
COURIER_NEW
 72
         1
 11
-9749.999
 21
-46215.001
 31
0.0
100
AcDbText
 73
         2
  0
TEXT
  5
3EB
100
AcDbEntity
  8
PIN_NUMBERS_TOP
100
AcDbText
 10
-9903.795
 20
-46437.505
 30
0.0
 40
508.0
  1
F12
  7
COURIER_NEW
 72
         1
 11
-9249.999
 21
-46215.001
 31
0.0
100
AcDbText
 73
         2
  0
TEXT
  5
3EC
100
AcDbEntity
  8
PIN_NUMBERS_TOP
100
AcDbText
 10
-9403.795
 20
-46437.505
 30
0.0
 40
508.0
  1
F13
  7
COURIER_NEW
 72
         1
 11
-8749.999
 21
-46215.001
 31
0.0
100
AcDbText
 73
         2
  0
TEXT
  5
3ED
100
AcDbEntity
  8
PIN_NUMBERS_TOP
100
AcDbText
 10
-8903.795
 20
-46437.505
 30
0.0
 40
508.0
  1
F14
  7
COURIER_NEW
 72
         1
 11
-8249.999
 21
-46215.001
 31
0.0
100
AcDbText
 73
         2
  0
TEXT
  5
3EE
100
AcDbEntity
  8
PIN_NUMBERS_TOP
100
AcDbText
 10
-8403.795
 20
-46437.505
 30
0.0
 40
508.0
  1
F15
  7
COURIER_NEW
 72
         1
 11
-7749.999
 21
-46215.001
 31
0.0
100
AcDbText
 73
         2
  0
TEXT
  5
3EF
100
AcDbEntity
  8
PIN_NUMBERS_TOP
100
AcDbText
 10
-7903.795
 20
-46437.505
 30
0.0
 40
508.0
  1
F16
  7
COURIER_NEW
 72
         1
 11
-7249.999
 21
-46215.001
 31
0.0
100
AcDbText
 73
         2
  0
TEXT
  5
3F0
100
AcDbEntity
  8
PIN_NUMBERS_TOP
100
AcDbText
 10
-7403.795
 20
-46437.505
 30
0.0
 40
508.0
  1
F17
  7
COURIER_NEW
 72
         1
 11
-6749.999
 21
-46215.001
 31
0.0
100
AcDbText
 73
         2
  0
TEXT
  5
3F1
100
AcDbEntity
  8
PIN_NUMBERS_TOP
100
AcDbText
 10
-6903.795
 20
-46437.505
 30
0.0
 40
508.0
  1
F18
  7
COURIER_NEW
 72
         1
 11
-6249.999
 21
-46215.001
 31
0.0
100
AcDbText
 73
         2
  0
TEXT
  5
3F2
100
AcDbEntity
  8
PIN_NUMBERS_TOP
100
AcDbText
 10
-6403.795
 20
-46437.505
 30
0.0
 40
508.0
  1
F19
  7
COURIER_NEW
 72
         1
 11
-5749.999
 21
-46215.001
 31
0.0
100
AcDbText
 73
         2
  0
TEXT
  5
3F3
100
AcDbEntity
  8
PIN_NUMBERS_TOP
100
AcDbText
 10
-5903.795
 20
-46437.505
 30
0.0
 40
508.0
  1
F20
  7
COURIER_NEW
 72
         1
 11
-5249.999
 21
-46215.001
 31
0.0
100
AcDbText
 73
         2
  0
TEXT
  5
3F4
100
AcDbEntity
  8
PIN_NUMBERS_TOP
100
AcDbText
 10
-5403.795
 20
-46437.505
 30
0.0
 40
508.0
  1
F21
  7
COURIER_NEW
 72
         1
 11
-4749.999
 21
-46215.001
 31
0.0
100
AcDbText
 73
         2
  0
TEXT
  5
3F5
100
AcDbEntity
  8
PIN_NUMBERS_TOP
100
AcDbText
 10
-4903.795
 20
-46437.505
 30
0.0
 40
508.0
  1
F22
  7
COURIER_NEW
 72
         1
 11
-4249.999
 21
-46215.001
 31
0.0
100
AcDbText
 73
         2
  0
TEXT
  5
3F6
100
AcDbEntity
  8
PIN_NUMBERS_TOP
100
AcDbText
 10
-4403.795
 20
-46437.505
 30
0.0
 40
508.0
  1
F23
  7
COURIER_NEW
 72
         1
 11
-3749.999
 21
-46215.001
 31
0.0
100
AcDbText
 73
         2
  0
TEXT
  5
3F7
100
AcDbEntity
  8
PIN_NUMBERS_TOP
100
AcDbText
 10
-3903.795
 20
-46437.505
 30
0.0
 40
508.0
  1
F24
  7
COURIER_NEW
 72
         1
 11
-3249.999
 21
-46215.001
 31
0.0
100
AcDbText
 73
         2
  0
TEXT
  5
3F8
100
AcDbEntity
  8
PIN_NUMBERS_TOP
100
AcDbText
 10
-3403.795
 20
-46437.505
 30
0.0
 40
508.0
  1
F25
  7
COURIER_NEW
 72
         1
 11
-2749.999
 21
-46215.001
 31
0.0
100
AcDbText
 73
         2
  0
TEXT
  5
3F9
100
AcDbEntity
  8
PIN_NUMBERS_TOP
100
AcDbText
 10
-2903.795
 20
-46437.505
 30
0.0
 40
508.0
  1
F26
  7
COURIER_NEW
 72
         1
 11
-2249.999
 21
-46215.001
 31
0.0
100
AcDbText
 73
         2
  0
TEXT
  5
3FA
100
AcDbEntity
  8
PIN_NUMBERS_TOP
100
AcDbText
 10
-2403.795
 20
-46437.505
 30
0.0
 40
508.0
  1
F27
  7
COURIER_NEW
 72
         1
 11
-1749.999
 21
-46215.001
 31
0.0
100
AcDbText
 73
         2
  0
TEXT
  5
3FB
100
AcDbEntity
  8
PIN_NUMBERS_TOP
100
AcDbText
 10
-1903.795
 20
-46437.505
 30
0.0
 40
508.0
  1
F28
  7
COURIER_NEW
 72
         1
 11
-1249.999
 21
-46215.001
 31
0.0
100
AcDbText
 73
         2
  0
TEXT
  5
3FC
100
AcDbEntity
  8
PIN_NUMBERS_TOP
100
AcDbText
 10
-1403.795
 20
-46437.505
 30
0.0
 40
508.0
  1
F29
  7
COURIER_NEW
 72
         1
 11
-749.999
 21
-46215.001
 31
0.0
100
AcDbText
 73
         2
  0
TEXT
  5
3FD
100
AcDbEntity
  8
PIN_NUMBERS_TOP
100
AcDbText
 10
-903.795
 20
-46437.505
 30
0.0
 40
508.0
  1
F30
  7
COURIER_NEW
 72
         1
 11
-249.999
 21
-46215.001
 31
0.0
100
AcDbText
 73
         2
  0
TEXT
  5
3FE
100
AcDbEntity
  8
PIN_NUMBERS_TOP
100
AcDbText
 10
-403.795
 20
-46437.505
 30
0.0
 40
508.0
  1
F31
  7
COURIER_NEW
 72
         1
 11
250.001
 21
-46215.001
 31
0.0
100
AcDbText
 73
         2
  0
TEXT
  5
3FF
100
AcDbEntity
  8
PIN_NUMBERS_TOP
100
AcDbText
 10
96.205
 20
-46437.505
 30
0.0
 40
508.0
  1
F32
  7
COURIER_NEW
 72
         1
 11
750.001
 21
-46215.001
 31
0.0
100
AcDbText
 73
         2
  0
TEXT
  5
400
100
AcDbEntity
  8
PIN_NUMBERS_TOP
100
AcDbText
 10
596.205
 20
-46437.505
 30
0.0
 40
508.0
  1
F33
  7
COURIER_NEW
 72
         1
 11
1250.001
 21
-46215.001
 31
0.0
100
AcDbText
 73
         2
  0
TEXT
  5
401
100
AcDbEntity
  8
PIN_NUMBERS_TOP
100
AcDbText
 10
1096.205
 20
-46437.505
 30
0.0
 40
508.0
  1
F34
  7
COURIER_NEW
 72
         1
 11
1750.001
 21
-46215.001
 31
0.0
100
AcDbText
 73
         2
  0
TEXT
  5
402
100
AcDbEntity
  8
PIN_NUMBERS_TOP
100
AcDbText
 10
1596.205
 20
-46437.505
 30
0.0
 40
508.0
  1
F35
  7
COURIER_NEW
 72
         1
 11
2250.001
 21
-46215.001
 31
0.0
100
AcDbText
 73
         2
  0
TEXT
  5
403
100
AcDbEntity
  8
PIN_NUMBERS_TOP
100
AcDbText
 10
2096.205
 20
-46437.505
 30
0.0
 40
508.0
  1
F36
  7
COURIER_NEW
 72
         1
 11
2750.001
 21
-46215.001
 31
0.0
100
AcDbText
 73
         2
  0
TEXT
  5
404
100
AcDbEntity
  8
PIN_NUMBERS_TOP
100
AcDbText
 10
2596.205
 20
-46437.505
 30
0.0
 40
508.0
  1
F37
  7
COURIER_NEW
 72
         1
 11
3250.001
 21
-46215.001
 31
0.0
100
AcDbText
 73
         2
  0
TEXT
  5
405
100
AcDbEntity
  8
PIN_NUMBERS_TOP
100
AcDbText
 10
3096.205
 20
-46437.505
 30
0.0
 40
508.0
  1
F38
  7
COURIER_NEW
 72
         1
 11
3750.001
 21
-46215.001
 31
0.0
100
AcDbText
 73
         2
  0
TEXT
  5
406
100
AcDbEntity
  8
PIN_NUMBERS_TOP
100
AcDbText
 10
3596.205
 20
-46437.505
 30
0.0
 40
508.0
  1
F39
  7
COURIER_NEW
 72
         1
 11
4250.001
 21
-46215.001
 31
0.0
100
AcDbText
 73
         2
  0
TEXT
  5
407
100
AcDbEntity
  8
PIN_NUMBERS_TOP
100
AcDbText
 10
4096.205
 20
-46437.505
 30
0.0
 40
508.0
  1
F40
  7
COURIER_NEW
 72
         1
 11
4750.001
 21
-46215.001
 31
0.0
100
AcDbText
 73
         2
  0
TEXT
  5
408
100
AcDbEntity
  8
PIN_NUMBERS_TOP
100
AcDbText
 10
4596.205
 20
-46437.505
 30
0.0
 40
508.0
  1
F41
  7
COURIER_NEW
 72
         1
 11
5250.001
 21
-46215.001
 31
0.0
100
AcDbText
 73
         2
  0
TEXT
  5
409
100
AcDbEntity
  8
PIN_NUMBERS_TOP
100
AcDbText
 10
5096.205
 20
-46437.505
 30
0.0
 40
508.0
  1
F42
  7
COURIER_NEW
 72
         1
 11
5750.001
 21
-46215.001
 31
0.0
100
AcDbText
 73
         2
  0
TEXT
  5
40A
100
AcDbEntity
  8
PIN_NUMBERS_TOP
100
AcDbText
 10
5596.205
 20
-46437.505
 30
0.0
 40
508.0
  1
F43
  7
COURIER_NEW
 72
         1
 11
6250.001
 21
-46215.001
 31
0.0
100
AcDbText
 73
         2
  0
TEXT
  5
40B
100
AcDbEntity
  8
PIN_NUMBERS_TOP
100
AcDbText
 10
6096.205
 20
-46437.505
 30
0.0
 40
508.0
  1
F44
  7
COURIER_NEW
 72
         1
 11
6750.001
 21
-46215.001
 31
0.0
100
AcDbText
 73
         2
  0
TEXT
  5
40C
100
AcDbEntity
  8
PIN_NUMBERS_TOP
100
AcDbText
 10
6596.205
 20
-46437.505
 30
0.0
 40
508.0
  1
F45
  7
COURIER_NEW
 72
         1
 11
7250.001
 21
-46215.001
 31
0.0
100
AcDbText
 73
         2
  0
TEXT
  5
40D
100
AcDbEntity
  8
PIN_NUMBERS_TOP
100
AcDbText
 10
7096.205
 20
-46437.505
 30
0.0
 40
508.0
  1
F46
  7
COURIER_NEW
 72
         1
 11
7750.001
 21
-46215.001
 31
0.0
100
AcDbText
 73
         2
  0
TEXT
  5
40E
100
AcDbEntity
  8
PIN_NUMBERS_TOP
100
AcDbText
 10
7596.205
 20
-46437.505
 30
0.0
 40
508.0
  1
F47
  7
COURIER_NEW
 72
         1
 11
8250.001
 21
-46215.001
 31
0.0
100
AcDbText
 73
         2
  0
TEXT
  5
40F
100
AcDbEntity
  8
PIN_NUMBERS_TOP
100
AcDbText
 10
8096.205
 20
-46437.505
 30
0.0
 40
508.0
  1
F48
  7
COURIER_NEW
 72
         1
 11
8750.001
 21
-46215.001
 31
0.0
100
AcDbText
 73
         2
  0
TEXT
  5
410
100
AcDbEntity
  8
PIN_NUMBERS_TOP
100
AcDbText
 10
8596.205
 20
-46437.505
 30
0.0
 40
508.0
  1
F49
  7
COURIER_NEW
 72
         1
 11
9250.001
 21
-46215.001
 31
0.0
100
AcDbText
 73
         2
  0
TEXT
  5
411
100
AcDbEntity
  8
PIN_NUMBERS_TOP
100
AcDbText
 10
9096.205
 20
-46437.505
 30
0.0
 40
508.0
  1
F50
  7
COURIER_NEW
 72
         1
 11
9750.001
 21
-46215.001
 31
0.0
100
AcDbText
 73
         2
  0
TEXT
  5
412
100
AcDbEntity
  8
PIN_NUMBERS_TOP
100
AcDbText
 10
9596.205
 20
-46437.505
 30
0.0
 40
508.0
  1
F51
  7
COURIER_NEW
 72
         1
 11
10250.001
 21
-46215.001
 31
0.0
100
AcDbText
 73
         2
  0
TEXT
  5
413
100
AcDbEntity
  8
PIN_NUMBERS_TOP
100
AcDbText
 10
10096.205
 20
-46437.505
 30
0.0
 40
508.0
  1
F52
  7
COURIER_NEW
 72
         1
 11
10750.001
 21
-46215.001
 31
0.0
100
AcDbText
 73
         2
  0
TEXT
  5
414
100
AcDbEntity
  8
PIN_NUMBERS_TOP
100
AcDbText
 10
10596.205
 20
-46437.505
 30
0.0
 40
508.0
  1
F53
  7
COURIER_NEW
 72
         1
 11
11250.001
 21
-46215.001
 31
0.0
100
AcDbText
 73
         2
  0
TEXT
  5
415
100
AcDbEntity
  8
PIN_NUMBERS_TOP
100
AcDbText
 10
11096.205
 20
-46437.505
 30
0.0
 40
508.0
  1
F54
  7
COURIER_NEW
 72
         1
 11
11750.001
 21
-46215.001
 31
0.0
100
AcDbText
 73
         2
  0
TEXT
  5
416
100
AcDbEntity
  8
PIN_NUMBERS_TOP
100
AcDbText
 10
11596.205
 20
-46437.505
 30
0.0
 40
508.0
  1
F55
  7
COURIER_NEW
 72
         1
 11
12250.001
 21
-46215.001
 31
0.0
100
AcDbText
 73
         2
  0
TEXT
  5
417
100
AcDbEntity
  8
PIN_NUMBERS_TOP
100
AcDbText
 10
12096.205
 20
-46437.505
 30
0.0
 40
508.0
  1
F56
  7
COURIER_NEW
 72
         1
 11
12750.001
 21
-46215.001
 31
0.0
100
AcDbText
 73
         2
  0
TEXT
  5
418
100
AcDbEntity
  8
PIN_NUMBERS_TOP
100
AcDbText
 10
12596.205
 20
-46437.505
 30
0.0
 40
508.0
  1
F57
  7
COURIER_NEW
 72
         1
 11
13250.001
 21
-46215.001
 31
0.0
100
AcDbText
 73
         2
  0
TEXT
  5
419
100
AcDbEntity
  8
PIN_NUMBERS_TOP
100
AcDbText
 10
13096.205
 20
-46437.505
 30
0.0
 40
508.0
  1
F58
  7
COURIER_NEW
 72
         1
 11
13750.001
 21
-46215.001
 31
0.0
100
AcDbText
 73
         2
  0
TEXT
  5
41A
100
AcDbEntity
  8
PIN_NUMBERS_TOP
100
AcDbText
 10
13596.205
 20
-46437.505
 30
0.0
 40
508.0
  1
F59
  7
COURIER_NEW
 72
         1
 11
14250.001
 21
-46215.001
 31
0.0
100
AcDbText
 73
         2
  0
TEXT
  5
41B
100
AcDbEntity
  8
PIN_NUMBERS_TOP
100
AcDbText
 10
14096.205
 20
-46437.505
 30
0.0
 40
508.0
  1
F60
  7
COURIER_NEW
 72
         1
 11
14750.001
 21
-46215.001
 31
0.0
100
AcDbText
 73
         2
  0
TEXT
  5
41C
100
AcDbEntity
  8
PIN_NUMBERS_TOP
100
AcDbText
 10
-15185.864
 20
-52607.501
 30
0.0
 40
508.0
  1
E1
  7
COURIER_NEW
 72
         1
 11
-14750.0
 21
-52384.997
 31
0.0
100
AcDbText
 73
         2
  0
TEXT
  5
41D
100
AcDbEntity
  8
PIN_NUMBERS_TOP
100
AcDbText
 10
-14685.864
 20
-52607.501
 30
0.0
 40
508.0
  1
E2
  7
COURIER_NEW
 72
         1
 11
-14250.0
 21
-52384.997
 31
0.0
100
AcDbText
 73
         2
  0
TEXT
  5
41E
100
AcDbEntity
  8
PIN_NUMBERS_TOP
100
AcDbText
 10
-14185.864
 20
-52607.501
 30
0.0
 40
508.0
  1
E3
  7
COURIER_NEW
 72
         1
 11
-13750.0
 21
-52384.997
 31
0.0
100
AcDbText
 73
         2
  0
TEXT
  5
41F
100
AcDbEntity
  8
PIN_NUMBERS_TOP
100
AcDbText
 10
-13685.864
 20
-52607.501
 30
0.0
 40
508.0
  1
E4
  7
COURIER_NEW
 72
         1
 11
-13250.0
 21
-52384.997
 31
0.0
100
AcDbText
 73
         2
  0
TEXT
  5
420
100
AcDbEntity
  8
PIN_NUMBERS_TOP
100
AcDbText
 10
-13185.864
 20
-52607.501
 30
0.0
 40
508.0
  1
E5
  7
COURIER_NEW
 72
         1
 11
-12750.0
 21
-52384.997
 31
0.0
100
AcDbText
 73
         2
  0
TEXT
  5
421
100
AcDbEntity
  8
PIN_NUMBERS_TOP
100
AcDbText
 10
-12685.864
 20
-52607.501
 30
0.0
 40
508.0
  1
E6
  7
COURIER_NEW
 72
         1
 11
-12250.0
 21
-52384.997
 31
0.0
100
AcDbText
 73
         2
  0
TEXT
  5
422
100
AcDbEntity
  8
PIN_NUMBERS_TOP
100
AcDbText
 10
-12185.864
 20
-52607.501
 30
0.0
 40
508.0
  1
E7
  7
COURIER_NEW
 72
         1
 11
-11750.0
 21
-52384.997
 31
0.0
100
AcDbText
 73
         2
  0
TEXT
  5
423
100
AcDbEntity
  8
PIN_NUMBERS_TOP
100
AcDbText
 10
-11685.864
 20
-52607.501
 30
0.0
 40
508.0
  1
E8
  7
COURIER_NEW
 72
         1
 11
-11250.0
 21
-52384.997
 31
0.0
100
AcDbText
 73
         2
  0
TEXT
  5
424
100
AcDbEntity
  8
PIN_NUMBERS_TOP
100
AcDbText
 10
-11185.864
 20
-52607.501
 30
0.0
 40
508.0
  1
E9
  7
COURIER_NEW
 72
         1
 11
-10750.0
 21
-52384.997
 31
0.0
100
AcDbText
 73
         2
  0
TEXT
  5
425
100
AcDbEntity
  8
PIN_NUMBERS_TOP
100
AcDbText
 10
-10903.796
 20
-52607.501
 30
0.0
 40
508.0
  1
E10
  7
COURIER_NEW
 72
         1
 11
-10250.0
 21
-52384.997
 31
0.0
100
AcDbText
 73
         2
  0
TEXT
  5
426
100
AcDbEntity
  8
PIN_NUMBERS_TOP
100
AcDbText
 10
-10403.796
 20
-52607.501
 30
0.0
 40
508.0
  1
E11
  7
COURIER_NEW
 72
         1
 11
-9750.0
 21
-52384.997
 31
0.0
100
AcDbText
 73
         2
  0
TEXT
  5
427
100
AcDbEntity
  8
PIN_NUMBERS_TOP
100
AcDbText
 10
-9903.796
 20
-52607.501
 30
0.0
 40
508.0
  1
E12
  7
COURIER_NEW
 72
         1
 11
-9250.0
 21
-52384.997
 31
0.0
100
AcDbText
 73
         2
  0
TEXT
  5
428
100
AcDbEntity
  8
PIN_NUMBERS_TOP
100
AcDbText
 10
-9403.796
 20
-52607.501
 30
0.0
 40
508.0
  1
E13
  7
COURIER_NEW
 72
         1
 11
-8750.0
 21
-52384.997
 31
0.0
100
AcDbText
 73
         2
  0
TEXT
  5
429
100
AcDbEntity
  8
PIN_NUMBERS_TOP
100
AcDbText
 10
-8903.796
 20
-52607.501
 30
0.0
 40
508.0
  1
E14
  7
COURIER_NEW
 72
         1
 11
-8250.0
 21
-52384.997
 31
0.0
100
AcDbText
 73
         2
  0
TEXT
  5
42A
100
AcDbEntity
  8
PIN_NUMBERS_TOP
100
AcDbText
 10
-8403.796
 20
-52607.501
 30
0.0
 40
508.0
  1
E15
  7
COURIER_NEW
 72
         1
 11
-7750.0
 21
-52384.997
 31
0.0
100
AcDbText
 73
         2
  0
TEXT
  5
42B
100
AcDbEntity
  8
PIN_NUMBERS_TOP
100
AcDbText
 10
-7903.796
 20
-52607.501
 30
0.0
 40
508.0
  1
E16
  7
COURIER_NEW
 72
         1
 11
-7250.0
 21
-52384.997
 31
0.0
100
AcDbText
 73
         2
  0
TEXT
  5
42C
100
AcDbEntity
  8
PIN_NUMBERS_TOP
100
AcDbText
 10
-7403.796
 20
-52607.501
 30
0.0
 40
508.0
  1
E17
  7
COURIER_NEW
 72
         1
 11
-6750.0
 21
-52384.997
 31
0.0
100
AcDbText
 73
         2
  0
TEXT
  5
42D
100
AcDbEntity
  8
PIN_NUMBERS_TOP
100
AcDbText
 10
-6903.796
 20
-52607.501
 30
0.0
 40
508.0
  1
E18
  7
COURIER_NEW
 72
         1
 11
-6250.0
 21
-52384.997
 31
0.0
100
AcDbText
 73
         2
  0
TEXT
  5
42E
100
AcDbEntity
  8
PIN_NUMBERS_TOP
100
AcDbText
 10
-6403.796
 20
-52607.501
 30
0.0
 40
508.0
  1
E19
  7
COURIER_NEW
 72
         1
 11
-5750.0
 21
-52384.997
 31
0.0
100
AcDbText
 73
         2
  0
TEXT
  5
42F
100
AcDbEntity
  8
PIN_NUMBERS_TOP
100
AcDbText
 10
-5903.796
 20
-52607.501
 30
0.0
 40
508.0
  1
E20
  7
COURIER_NEW
 72
         1
 11
-5250.0
 21
-52384.997
 31
0.0
100
AcDbText
 73
         2
  0
TEXT
  5
430
100
AcDbEntity
  8
PIN_NUMBERS_TOP
100
AcDbText
 10
-5403.796
 20
-52607.501
 30
0.0
 40
508.0
  1
E21
  7
COURIER_NEW
 72
         1
 11
-4750.0
 21
-52384.997
 31
0.0
100
AcDbText
 73
         2
  0
TEXT
  5
431
100
AcDbEntity
  8
PIN_NUMBERS_TOP
100
AcDbText
 10
-4903.796
 20
-52607.501
 30
0.0
 40
508.0
  1
E22
  7
COURIER_NEW
 72
         1
 11
-4250.0
 21
-52384.997
 31
0.0
100
AcDbText
 73
         2
  0
TEXT
  5
432
100
AcDbEntity
  8
PIN_NUMBERS_TOP
100
AcDbText
 10
-4403.796
 20
-52607.501
 30
0.0
 40
508.0
  1
E23
  7
COURIER_NEW
 72
         1
 11
-3750.0
 21
-52384.997
 31
0.0
100
AcDbText
 73
         2
  0
TEXT
  5
433
100
AcDbEntity
  8
PIN_NUMBERS_TOP
100
AcDbText
 10
-3903.796
 20
-52607.501
 30
0.0
 40
508.0
  1
E24
  7
COURIER_NEW
 72
         1
 11
-3250.0
 21
-52384.997
 31
0.0
100
AcDbText
 73
         2
  0
TEXT
  5
434
100
AcDbEntity
  8
PIN_NUMBERS_TOP
100
AcDbText
 10
-3403.796
 20
-52607.501
 30
0.0
 40
508.0
  1
E25
  7
COURIER_NEW
 72
         1
 11
-2750.0
 21
-52384.997
 31
0.0
100
AcDbText
 73
         2
  0
TEXT
  5
435
100
AcDbEntity
  8
PIN_NUMBERS_TOP
100
AcDbText
 10
-2903.796
 20
-52607.501
 30
0.0
 40
508.0
  1
E26
  7
COURIER_NEW
 72
         1
 11
-2250.0
 21
-52384.997
 31
0.0
100
AcDbText
 73
         2
  0
TEXT
  5
436
100
AcDbEntity
  8
PIN_NUMBERS_TOP
100
AcDbText
 10
-2403.796
 20
-52607.501
 30
0.0
 40
508.0
  1
E27
  7
COURIER_NEW
 72
         1
 11
-1750.0
 21
-52384.997
 31
0.0
100
AcDbText
 73
         2
  0
TEXT
  5
437
100
AcDbEntity
  8
PIN_NUMBERS_TOP
100
AcDbText
 10
-1903.796
 20
-52607.501
 30
0.0
 40
508.0
  1
E28
  7
COURIER_NEW
 72
         1
 11
-1250.0
 21
-52384.997
 31
0.0
100
AcDbText
 73
         2
  0
TEXT
  5
438
100
AcDbEntity
  8
PIN_NUMBERS_TOP
100
AcDbText
 10
-1403.796
 20
-52607.501
 30
0.0
 40
508.0
  1
E29
  7
COURIER_NEW
 72
         1
 11
-750.0
 21
-52384.997
 31
0.0
100
AcDbText
 73
         2
  0
TEXT
  5
439
100
AcDbEntity
  8
PIN_NUMBERS_TOP
100
AcDbText
 10
-903.796
 20
-52607.501
 30
0.0
 40
508.0
  1
E30
  7
COURIER_NEW
 72
         1
 11
-250.0
 21
-52384.997
 31
0.0
100
AcDbText
 73
         2
  0
TEXT
  5
43A
100
AcDbEntity
  8
PIN_NUMBERS_TOP
100
AcDbText
 10
-403.796
 20
-52607.501
 30
0.0
 40
508.0
  1
E31
  7
COURIER_NEW
 72
         1
 11
250.0
 21
-52384.997
 31
0.0
100
AcDbText
 73
         2
  0
TEXT
  5
43B
100
AcDbEntity
  8
PIN_NUMBERS_TOP
100
AcDbText
 10
96.204
 20
-52607.501
 30
0.0
 40
508.0
  1
E32
  7
COURIER_NEW
 72
         1
 11
750.0
 21
-52384.997
 31
0.0
100
AcDbText
 73
         2
  0
TEXT
  5
43C
100
AcDbEntity
  8
PIN_NUMBERS_TOP
100
AcDbText
 10
596.204
 20
-52607.501
 30
0.0
 40
508.0
  1
E33
  7
COURIER_NEW
 72
         1
 11
1250.0
 21
-52384.997
 31
0.0
100
AcDbText
 73
         2
  0
TEXT
  5
43D
100
AcDbEntity
  8
PIN_NUMBERS_TOP
100
AcDbText
 10
1096.204
 20
-52607.501
 30
0.0
 40
508.0
  1
E34
  7
COURIER_NEW
 72
         1
 11
1750.0
 21
-52384.997
 31
0.0
100
AcDbText
 73
         2
  0
TEXT
  5
43E
100
AcDbEntity
  8
PIN_NUMBERS_TOP
100
AcDbText
 10
1596.204
 20
-52607.501
 30
0.0
 40
508.0
  1
E35
  7
COURIER_NEW
 72
         1
 11
2250.0
 21
-52384.997
 31
0.0
100
AcDbText
 73
         2
  0
TEXT
  5
43F
100
AcDbEntity
  8
PIN_NUMBERS_TOP
100
AcDbText
 10
2096.204
 20
-52607.501
 30
0.0
 40
508.0
  1
E36
  7
COURIER_NEW
 72
         1
 11
2750.0
 21
-52384.997
 31
0.0
100
AcDbText
 73
         2
  0
TEXT
  5
440
100
AcDbEntity
  8
PIN_NUMBERS_TOP
100
AcDbText
 10
2596.204
 20
-52607.501
 30
0.0
 40
508.0
  1
E37
  7
COURIER_NEW
 72
         1
 11
3250.0
 21
-52384.997
 31
0.0
100
AcDbText
 73
         2
  0
TEXT
  5
441
100
AcDbEntity
  8
PIN_NUMBERS_TOP
100
AcDbText
 10
3096.204
 20
-52607.501
 30
0.0
 40
508.0
  1
E38
  7
COURIER_NEW
 72
         1
 11
3750.0
 21
-52384.997
 31
0.0
100
AcDbText
 73
         2
  0
TEXT
  5
442
100
AcDbEntity
  8
PIN_NUMBERS_TOP
100
AcDbText
 10
3596.204
 20
-52607.501
 30
0.0
 40
508.0
  1
E39
  7
COURIER_NEW
 72
         1
 11
4250.0
 21
-52384.997
 31
0.0
100
AcDbText
 73
         2
  0
TEXT
  5
443
100
AcDbEntity
  8
PIN_NUMBERS_TOP
100
AcDbText
 10
4096.204
 20
-52607.501
 30
0.0
 40
508.0
  1
E40
  7
COURIER_NEW
 72
         1
 11
4750.0
 21
-52384.997
 31
0.0
100
AcDbText
 73
         2
  0
TEXT
  5
444
100
AcDbEntity
  8
PIN_NUMBERS_TOP
100
AcDbText
 10
4596.204
 20
-52607.501
 30
0.0
 40
508.0
  1
E41
  7
COURIER_NEW
 72
         1
 11
5250.0
 21
-52384.997
 31
0.0
100
AcDbText
 73
         2
  0
TEXT
  5
445
100
AcDbEntity
  8
PIN_NUMBERS_TOP
100
AcDbText
 10
5096.204
 20
-52607.501
 30
0.0
 40
508.0
  1
E42
  7
COURIER_NEW
 72
         1
 11
5750.0
 21
-52384.997
 31
0.0
100
AcDbText
 73
         2
  0
TEXT
  5
446
100
AcDbEntity
  8
PIN_NUMBERS_TOP
100
AcDbText
 10
5596.204
 20
-52607.501
 30
0.0
 40
508.0
  1
E43
  7
COURIER_NEW
 72
         1
 11
6250.0
 21
-52384.997
 31
0.0
100
AcDbText
 73
         2
  0
TEXT
  5
447
100
AcDbEntity
  8
PIN_NUMBERS_TOP
100
AcDbText
 10
6096.204
 20
-52607.501
 30
0.0
 40
508.0
  1
E44
  7
COURIER_NEW
 72
         1
 11
6750.0
 21
-52384.997
 31
0.0
100
AcDbText
 73
         2
  0
TEXT
  5
448
100
AcDbEntity
  8
PIN_NUMBERS_TOP
100
AcDbText
 10
6596.204
 20
-52607.501
 30
0.0
 40
508.0
  1
E45
  7
COURIER_NEW
 72
         1
 11
7250.0
 21
-52384.997
 31
0.0
100
AcDbText
 73
         2
  0
TEXT
  5
449
100
AcDbEntity
  8
PIN_NUMBERS_TOP
100
AcDbText
 10
7096.204
 20
-52607.501
 30
0.0
 40
508.0
  1
E46
  7
COURIER_NEW
 72
         1
 11
7750.0
 21
-52384.997
 31
0.0
100
AcDbText
 73
         2
  0
TEXT
  5
44A
100
AcDbEntity
  8
PIN_NUMBERS_TOP
100
AcDbText
 10
7596.204
 20
-52607.501
 30
0.0
 40
508.0
  1
E47
  7
COURIER_NEW
 72
         1
 11
8250.0
 21
-52384.997
 31
0.0
100
AcDbText
 73
         2
  0
TEXT
  5
44B
100
AcDbEntity
  8
PIN_NUMBERS_TOP
100
AcDbText
 10
8096.204
 20
-52607.501
 30
0.0
 40
508.0
  1
E48
  7
COURIER_NEW
 72
         1
 11
8750.0
 21
-52384.997
 31
0.0
100
AcDbText
 73
         2
  0
TEXT
  5
44C
100
AcDbEntity
  8
PIN_NUMBERS_TOP
100
AcDbText
 10
8596.204
 20
-52607.501
 30
0.0
 40
508.0
  1
E49
  7
COURIER_NEW
 72
         1
 11
9250.0
 21
-52384.997
 31
0.0
100
AcDbText
 73
         2
  0
TEXT
  5
44D
100
AcDbEntity
  8
PIN_NUMBERS_TOP
100
AcDbText
 10
9096.204
 20
-52607.501
 30
0.0
 40
508.0
  1
E50
  7
COURIER_NEW
 72
         1
 11
9750.0
 21
-52384.997
 31
0.0
100
AcDbText
 73
         2
  0
TEXT
  5
44E
100
AcDbEntity
  8
PIN_NUMBERS_TOP
100
AcDbText
 10
9596.204
 20
-52607.501
 30
0.0
 40
508.0
  1
E51
  7
COURIER_NEW
 72
         1
 11
10250.0
 21
-52384.997
 31
0.0
100
AcDbText
 73
         2
  0
TEXT
  5
44F
100
AcDbEntity
  8
PIN_NUMBERS_TOP
100
AcDbText
 10
10096.204
 20
-52607.501
 30
0.0
 40
508.0
  1
E52
  7
COURIER_NEW
 72
         1
 11
10750.0
 21
-52384.997
 31
0.0
100
AcDbText
 73
         2
  0
TEXT
  5
450
100
AcDbEntity
  8
PIN_NUMBERS_TOP
100
AcDbText
 10
10596.204
 20
-52607.501
 30
0.0
 40
508.0
  1
E53
  7
COURIER_NEW
 72
         1
 11
11250.0
 21
-52384.997
 31
0.0
100
AcDbText
 73
         2
  0
TEXT
  5
451
100
AcDbEntity
  8
PIN_NUMBERS_TOP
100
AcDbText
 10
11096.204
 20
-52607.501
 30
0.0
 40
508.0
  1
E54
  7
COURIER_NEW
 72
         1
 11
11750.0
 21
-52384.997
 31
0.0
100
AcDbText
 73
         2
  0
TEXT
  5
452
100
AcDbEntity
  8
PIN_NUMBERS_TOP
100
AcDbText
 10
11596.204
 20
-52607.501
 30
0.0
 40
508.0
  1
E55
  7
COURIER_NEW
 72
         1
 11
12250.0
 21
-52384.997
 31
0.0
100
AcDbText
 73
         2
  0
TEXT
  5
453
100
AcDbEntity
  8
PIN_NUMBERS_TOP
100
AcDbText
 10
12096.204
 20
-52607.501
 30
0.0
 40
508.0
  1
E56
  7
COURIER_NEW
 72
         1
 11
12750.0
 21
-52384.997
 31
0.0
100
AcDbText
 73
         2
  0
TEXT
  5
454
100
AcDbEntity
  8
PIN_NUMBERS_TOP
100
AcDbText
 10
12596.204
 20
-52607.501
 30
0.0
 40
508.0
  1
E57
  7
COURIER_NEW
 72
         1
 11
13250.0
 21
-52384.997
 31
0.0
100
AcDbText
 73
         2
  0
TEXT
  5
455
100
AcDbEntity
  8
PIN_NUMBERS_TOP
100
AcDbText
 10
13096.204
 20
-52607.501
 30
0.0
 40
508.0
  1
E58
  7
COURIER_NEW
 72
         1
 11
13750.0
 21
-52384.997
 31
0.0
100
AcDbText
 73
         2
  0
TEXT
  5
456
100
AcDbEntity
  8
PIN_NUMBERS_TOP
100
AcDbText
 10
13596.204
 20
-52607.501
 30
0.0
 40
508.0
  1
E59
  7
COURIER_NEW
 72
         1
 11
14250.0
 21
-52384.997
 31
0.0
100
AcDbText
 73
         2
  0
TEXT
  5
457
100
AcDbEntity
  8
PIN_NUMBERS_TOP
100
AcDbText
 10
14096.204
 20
-52607.501
 30
0.0
 40
508.0
  1
E60
  7
COURIER_NEW
 72
         1
 11
14750.0
 21
-52384.997
 31
0.0
100
AcDbText
 73
         2
  0
TEXT
  5
458
100
AcDbEntity
  8
PIN_NUMBERS_TOP
100
AcDbText
 10
-22217.932
 20
11627.496
 30
0.0
 40
508.0
  1
1
  7
COURIER_NEW
 72
         1
 11
-22000.0
 21
11850.0
 31
0.0
100
AcDbText
 73
         2
  0
TEXT
  5
459
100
AcDbEntity
  8
PIN_NUMBERS_TOP
100
AcDbText
 10
21782.068
 20
-52372.504
 30
0.0
 40
508.0
  1
2
  7
COURIER_NEW
 72
         1
 11
22000.0
 21
-52150.0
 31
0.0
100
AcDbText
 73
         2
  0
TEXT
  5
45A
100
AcDbEntity
  8
PIN_NUMBERS_TOP
100
AcDbText
 10
21782.068
 20
11627.496
 30
0.0
 40
508.0
  1
1
  7
COURIER_NEW
 72
         1
 11
22000.0
 21
11850.0
 31
0.0
100
AcDbText
 73
         2
  0
TEXT
  5
45B
100
AcDbEntity
  8
PIN_NUMBERS_TOP
100
AcDbText
 10
-22217.932
 20
-52372.504
 30
0.0
 40
508.0
  1
2
  7
COURIER_NEW
 72
         1
 11
-22000.0
 21
-52150.0
 31
0.0
100
AcDbText
 73
         2
  0
LWPOLYLINE
  5
45C
100
AcDbEntity
  8
SILKSCREEN_OUTLINES_TOP
100
AcDbPolyline
 90
        6
 70
         1
 43
150.0
 10
-20667.501
 20
-3000.0
 10
-22500.0
 20
-1071.053
 10
-22500.0
 20
3000.0
 10
22500.0
 20
3000.0
 10
22500.0
 20
-947.222
 10
20893.478
 20
-3000.0
  0
LWPOLYLINE
  5
45D
100
AcDbEntity
  8
SILKSCREEN_OUTLINES_TOP
100
AcDbPolyline
 90
        6
 70
         1
 43
150.0
 10
-13184.25
 20
6855.0
 10
-15016.749
 20
8783.947
 10
-15016.749
 20
12855.0
 10
15015.75
 20
12855.0
 10
15015.75
 20
8955.0
 10
13415.75
 20
6855.0
  0
LWPOLYLINE
  5
45E
100
AcDbEntity
  8
SILKSCREEN_OUTLINES_TOP
100
AcDbPolyline
 90
        6
 70
         1
 43
150.0
 10
-15683.25
 20
-52303.0
 10
-17515.749
 20
-50374.053
 10
-17515.75
 20
-46303.0
 10
17506.75
 20
-46303.0
 10
17506.75
 20
-50194.255
 10
15900.086
 20
-52303.0
  0
TEXT
  5
460
100
AcDbEntity
  8
SILKSCREEN_REF_DES_TOP
100
AcDbText
 10
-2600.0
 20
4566.0
 30
0.0
 40
1000.0
  1
Ref Des
  7
VERIBEST_GERBER_0
 11
-2600.0
 21
5566.0
 31
0.0
100
AcDbText
 73
         3
  0
ENDSEC
  0
SECTION
  2
OBJECTS
  0
DICTIONARY
  5
19
100
AcDbDictionary
  3
ACAD_GROUP
350
1A
  3
ACAD_MLINESTYLE
350
1B
  0
DICTIONARY
  5
1A
102
{ACAD_REACTORS
330
19
102
}
100
AcDbDictionary
  0
DICTIONARY
  5
1B
102
{ACAD_REACTORS
330
19
102
}
100
AcDbDictionary
  3
STANDARD
350
1C
  0
MLINESTYLE
  5
1C
102
{ACAD_REACTORS
330
1B
102
}
100
AcDbMlineStyle
  2
STANDARD
 70
         0
  3

 62
         0
 51
90.0
 52
90.0
 71
         2
 49
0.5
 62
       256
  6
BYLAYER
 49
-0.5
 62
       256
  6
BYLAYER
  0
DICTIONARY
  5
22
102
{ACAD_REACTORS
330
19
102
}
100
AcDbDictionary
  0
ENDSEC
  0
EOF
