  0
SECTION
  2
HEADER
  9
$ACADVER
  1
AC1014
  9
$ACADMAINTVER
 70
         0
  9
$DWGCODEPAGE
  3
ANSI_1252
  9
$INSBASE
 10
0.0
 20
0.0
 30
0.0
  9
$EXTMIN
 10
-254000.0
 20
-254000.0
 30
0.0
  9
$EXTMAX
 10
254000.0
 20
254000.0
 30
0.0
  9
$LIMMIN
 10
0.0
 20
0.0
  9
$LIMMAX
 10
0.0
 20
0.0
  9
$ORTHOMODE
 70
         0
  9
$REGENMODE
 70
         1
  9
$FILLMODE
 70
         1
  9
$QTEXTMODE
 70
         0
  9
$MIRRTEXT
 70
         1
  9
$DRAGMODE
 70
         2
  9
$LTSCALE
 40
1.0
  9
$OSMODE
 70
         0
  9
$ATTMODE
 70
         1
  9
$TEXTSIZE
 40
0.2
  9
$TRACEWID
 40
0.05
  9
$TEXTSTYLE
  7
STANDARD
  9
$CLAYER
  8
0
  9
$CELTYPE
  6
CONTINUOUS
  9
$CECOLOR
 62
       256
  9
$CELTSCALE
 40
1.0
  9
$DELOBJ
 70
         1
  9
$DISPSILH
 70
         0
  9
$DIMSCALE
 40
1.0
  9
$DIMASZ
 40
0.18
  9
$DIMEXO
 40
0.0625
  9
$DIMDLI
 40
0.38
  9
$DIMRND
 40
0.0
  9
$DIMDLE
 40
0.0
  9
$DIMEXE
 40
0.18
  9
$DIMTP
 40
0.0
  9
$DIMTM
 40
0.0
  9
$DIMTXT
 40
0.18
  9
$DIMCEN
 40
0.09
  9
$DIMTSZ
 40
0.0
  9
$DIMTOL
 70
         0
  9
$DIMLIM
 70
         0
  9
$DIMTIH
 70
         1
  9
$DIMTOH
 70
         1
  9
$DIMSE1
 70
         0
  9
$DIMSE2
 70
         0
  9
$DIMTAD
 70
         0
  9
$DIMZIN
 70
         0
  9
$DIMBLK
  1

  9
$DIMASO
 70
         1
  9
$DIMSHO
 70
         1
  9
$DIMPOST
  1

  9
$DIMAPOST
  1

  9
$DIMALT
 70
         0
  9
$DIMALTD
 70
         2
  9
$DIMALTF
 40
25.4
  9
$DIMLFAC
 40
1.0
  9
$DIMTOFL
 70
         0
  9
$DIMTVP
 40
0.0
  9
$DIMTIX
 70
         0
  9
$DIMSOXD
 70
         0
  9
$DIMSAH
 70
         0
  9
$DIMBLK1
  1

  9
$DIMBLK2
  1

  9
$DIMSTYLE
  2
STANDARD
  9
$DIMCLRD
 70
         0
  9
$DIMCLRE
 70
         0
  9
$DIMCLRT
 70
         0
  9
$DIMTFAC
 40
1.0
  9
$DIMGAP
 40
0.09
  9
$DIMJUST
 70
         0
  9
$DIMSD1
 70
         0
  9
$DIMSD2
 70
         0
  9
$DIMTOLJ
 70
         1
  9
$DIMTZIN
 70
         0
  9
$DIMALTZ
 70
         0
  9
$DIMALTTZ
 70
         0
  9
$DIMFIT
 70
         3
  9
$DIMUPT
 70
         0
  9
$DIMUNIT
 70
         2
  9
$DIMDEC
 70
         4
  9
$DIMTDEC
 70
         4
  9
$DIMALTU
 70
         2
  9
$DIMALTTD
 70
         2
  9
$DIMTXSTY
  7
STANDARD
  9
$DIMAUNIT
 70
         0
  9
$LUNITS
 70
         2
  9
$LUPREC
 70
         4
  9
$SKETCHINC
 40
0.1
  9
$FILLETRAD
 40
0.0
  9
$AUNITS
 70
         0
  9
$AUPREC
 70
         0
  9
$MENU
  1
acad
  9
$ELEVATION
 40
0.0
  9
$PELEVATION
 40
0.0
  9
$THICKNESS
 40
0.0
  9
$LIMCHECK
 70
         0
  9
$BLIPMODE
 70
         1
  9
$CHAMFERA
 40
0.0
  9
$CHAMFERB
 40
0.0
  9
$CHAMFERC
 40
0.0
  9
$CHAMFERD
 40
0.0
  9
$SKPOLY
 70
         0
  9
$TDCREATE
 40
2456085.596481482
  9
$TDUPDATE
 40
0.000000000
  9
$TDINDWG
 40
0.0000000000
  9
$TDUSRTIMER
 40
0.0000000000
  9
$USRTIMER
 70
         1
  9
$ANGBASE
 50
0.0
  9
$ANGDIR
 70
         0
  9
$PDMODE
 70
         0
  9
$PDSIZE
 40
0.0
  9
$PLINEWID
 40
0.0
  9
$COORDS
 70
         0
  9
$SPLFRAME
 70
         0
  9
$SPLINETYPE
 70
         6
  9
$SPLINESEGS
 70
         8
  9
$ATTDIA
 70
         0
  9
$ATTREQ
 70
         1
  9
$HANDLING
 70
         1
  9
$HANDSEED
  5
11F
  9
$SURFTAB1
 70
         6
  9
$SURFTAB2
 70
         6
  9
$SURFTYPE
 70
         6
  9
$SURFU
 70
         6
  9
$SURFV
 70
         6
  9
$UCSNAME
  2

  9
$UCSORG
 10
0.0
 20
0.0
 30
0.0
  9
$UCSXDIR
 10
1.0
 20
0.0
 30
0.0
  9
$UCSYDIR
 10
0.0
 20
1.0
 30
0.0
  9
$PUCSNAME
  2

  9
$PUCSORG
 10
0.0
 20
0.0
 30
0.0
  9
$PUCSXDIR
 10
1.0
 20
0.0
 30
0.0
  9
$PUCSYDIR
 10
0.0
 20
1.0
 30
0.0
  9
$USERI1
 70
        -4
  9
$USERI2
 70
         0
  9
$USERI3
 70
         0
  9
$USERI4
 70
         0
  9
$USERI5
 70
         0
  9
$USERR1
 40
0.0
  9
$USERR2
 40
0.0
  9
$USERR3
 40
0.0
  9
$USERR4
 40
0.0
  9
$USERR5
 40
0.0
  9
$WORLDVIEW
 70
         1
  9
$SHADEDGE
 70
         3
  9
$SHADEDIF
 70
        70
  9
$TILEMODE
 70
         1
  9
$MAXACTVP
 70
        16
  9
$PINSBASE
 10
0.0
 20
0.0
 30
0.0
  9
$PLIMCHECK
 70
         0
  9
$PEXTMIN
 10
1.0000000000E+20
 20
1.0000000000E+20
 30
1.0000000000E+20
  9
$PEXTMAX
 10
-1.0000000000E+20
 20
-1.0000000000E+20
 30
-1.0000000000E+20
  9
$PLIMMIN
 10
0.0
 20
0.0
  9
$PLIMMAX
 10
12.0
 20
9.0
  9
$UNITMODE
 70
         0
  9
$VISRETAIN
 70
         0
  9
$PLINEGEN
 70
         1
  9
$PSLTSCALE
 70
         0
  9
$TREEDEPTH
 70
      3020
  9
$PICKSTYLE
 70
         1
  9
$CMLSTYLE
  2
STANDARD
  9
$CMLJUST
 70
         0
  9
$CMLSCALE
 40
1.0
  9
$PROXYGRAPHICS
 70
         0
  9
$MEASUREMENT
 70
         0
  0
ENDSEC
  0
SECTION
  2
CLASSES
  0
CLASS
  1
LWPOLYLINE
  2
AcDbPolyline
  3
"AutoCAD"
 90
        0
280
         0
281
         1
  0
CLASS
  1
IMAGE
  2
AcDbRasterImage
  3
ISM
 90
      127
280
         0
281
         1
  0
CLASS
  1
OLE2FRAME
  2
AcDbOle2Frame
  3
""
 90
        0
280
         0
281
         1
  0
CLASS
  1
HATCH
  2
AcDbHatch
  3
"ACAD_SEDONA"
 90
        0
280
         0
281
         1
  0
CLASS
  1
DICTIONARYVAR
  2
AcDbDictionaryVar
  3
"AutoCAD"
 90
        0
280
         0
281
         0
  0
CLASS
  1
RASTERVARIABLES
  2
AcDbRasterVariables
  3
ISM
 90
        0
280
         0
281
         0
  0
CLASS
  1
IMAGEDEF
  2
AcDbRasterImageDef
  3
ISM
 90
        0
280
         0
281
         0
  0
CLASS
  1
IMAGEDEF_REACTOR
  2
AcDbRasterImageDefReactor
  3
ISM
 90
        1
280
         0
281
         0
  0
CLASS
  1
IDBUFFER
  2
AcDbIdBuffer
  3
"Acad"
 90
        0
280
         0
281
         0
  0
CLASS
  1
SPATIAL_FILTER
  2
AcDbSpatialFilter
  3
"Acad"
 90
        0
280
         0
281
         0
  0
CLASS
  1
XRECORD
  2
AcDbXrecord
  3
"<Built In>"
 90
        0
280
         0
281
         0
  0
CLASS
  1
SORTENTSTABLE
  2
AcDbSortentsTable
  3
"AutoCAD"
 90
        0
280
         0
281
         0
  0
CLASS
  1
LAYER_INDEX
  2
AcDbLayerIndex
  3
"Acad"
 90
        0
280
         0
281
         0
  0
CLASS
  1
SPATIAL_INDEX
  2
AcDbSpatialIndex
  3
"Acad"
 90
        0
280
         0
281
         0
  0
CLASS
  1
OBJECT_PTR
  2
CAseDLPNTableRecord
  3
"ASE-LPNTableRecord"
 90
        1
280
         0
281
         0
  0
CLASS
  1
LAYOUT
  2
AcDbLayout
  3
"AutoCAD 2000"
 90
        0
280
         0
281
         0
  0
CLASS
  1
PLOTSETTINGS
  2
AcDbPlotSettings
  3
"AutoCAD 2000"
 90
        0
280
         0
281
         0
  0
CLASS
  1
ACDBDICTIONARYWDFLT
  2
AcDbDictionaryWithDefault
  3
"AutoCAD 2000"
 90
        0
280
         0
281
         0
  0
CLASS
  1
ACDBPLACEHOLDER
  2
AcDbPlaceHolder
  3
"AutoCAD 2000"
 90
        0
280
         0
281
         0
  0
CLASS
  1
VBA_PROJECT
  2
AcDbVbaProject
  3
"acadvba"
 90
        0
280
         0
281
         0
  0
CLASS
  1
WIPEOUT
  2
AcDbWipeout
  3
WipeOut|AutoCAD Express Tool|expresstools@autodesk.com
 90
      127
280
         0
281
         1
  0
CLASS
  1
WIPEOUTVARIABLES
  2
AcDbWipeoutVariables
  3
WipeOut|AutoCAD Express Tool|expresstools@autodesk.com
 90
        0
280
         0
281
         0
  0
CLASS
  1
RTEXT
  2
RText
  3
RText|AutoCAD Express Tool|expresstools@autodesk.com
 90
        0
280
         0
281
         1
  0
CLASS
  1
ARCALIGNEDTEXT
  2
AcDbArcAlignedText
  3
ATEXT|AutoCAD Express Tool|expresstools@autodesk.com
 90
        0
280
         0
281
         1
  0
ENDSEC
  0
SECTION
  2
TABLES
  0
TABLE
  2
VPORT
  5
7
100
AcDbSymbolTable
 70
         1
  0
VPORT
  5
15
100
AcDbSymbolTableRecord
100
AcDbViewportTableRecord
  2
*ACTIVE
 70
         0
 10
0.0
 20
0.0
 11
1.0
 21
1.0
 12
6.591288
 22
4.579184
 13
0.0
 23
0.0
 14
1.0
 24
1.0
 15
0.0
 25
0.0
 16
0.0
 26
0.0
 36
1.0
 17
0.0
 27
0.0
 37
0.0
 40
9.158369
 41
0.688564
 42
50.0
 43
0.0
 44
0.0
 50
0.0
 51
0.0
 71
         0
 72
       100
 73
         1
 74
         1
 75
         0
 76
         0
 77
         0
 78
         0
  0
ENDTAB
  0
TABLE
  2
LTYPE
  5
4
100
AcDbSymbolTable
 70
         3
  0
LTYPE
  5
11
100
AcDbSymbolTableRecord
100
AcDbLinetypeTableRecord
  2
BYBLOCK
 70
        64
  3

 72
        65
 73
         0
 40
0.0
  0
LTYPE
  5
12
100
AcDbSymbolTableRecord
100
AcDbLinetypeTableRecord
  2
BYLAYER
 70
        64
  3

 72
        65
 73
         0
 40
0.0
  0
LTYPE
  5
13
100
AcDbSymbolTableRecord
100
AcDbLinetypeTableRecord
  2
CONTINUOUS
 70
        64
  3
Solid line
 72
        65
 73
         0
 40
0.0
  0
ENDTAB
  0
TABLE
  2
LAYER
  5
2
100
AcDbSymbolTable
 70
         8
  0
LAYER
  5
14
100
AcDbSymbolTableRecord
100
AcDbLayerTableRecord
  2
0
 70
         0
 62
         7
  6
CONTINUOUS
  0
LAYER
  5
24
100
AcDbSymbolTableRecord
100
AcDbLayerTableRecord
  2
ASSEMBLY_OUTLINES_TOP
 70
         0
 62
       102
  6
CONTINUOUS
  0
LAYER
  5
25
100
AcDbSymbolTableRecord
100
AcDbLayerTableRecord
  2
ASSEMBLY_REF_DES_TOP
 70
         0
 62
       102
  6
CONTINUOUS
  0
LAYER
  5
26
100
AcDbSymbolTableRecord
100
AcDbLayerTableRecord
  2
BOARD_OUTLINE
 70
         0
 62
        10
  6
CONTINUOUS
  0
LAYER
  5
27
100
AcDbSymbolTableRecord
100
AcDbLayerTableRecord
  2
MOUNTING_HOLES_LAYER_TOP
 70
         0
 62
        42
  6
CONTINUOUS
  0
LAYER
  5
28
100
AcDbSymbolTableRecord
100
AcDbLayerTableRecord
  2
PART_HOLES_LAYER_TOP
 70
         0
 62
        30
  6
CONTINUOUS
  0
LAYER
  5
29
100
AcDbSymbolTableRecord
100
AcDbLayerTableRecord
  2
PART_PADS_SMD_TOP
 70
         0
 62
       150
  6
CONTINUOUS
  0
LAYER
  5
2A
100
AcDbSymbolTableRecord
100
AcDbLayerTableRecord
  2
PIN_NUMBERS_TOP
 70
         0
 62
         8
  6
CONTINUOUS
  0
ENDTAB
  0
TABLE
  2
STYLE
  5
3
100
AcDbSymbolTable
 70
         3
  0
STYLE
  5
17
100
AcDbSymbolTableRecord
100
AcDbTextStyleTableRecord
  2
STANDARD
 70
         0
 40
0.0
 41
1.0
 50
0.0
 71
         0
 42
0.0
  3
txt
  4

  0
STYLE
  5
32
100
AcDbSymbolTableRecord
100
AcDbTextStyleTableRecord
  2
ARIAL
 70
         0
 40
0.0
 41
1.0
 50
0.0
 71
         0
 42
0.0
  3
ARIAL.TTF
  4

  0
STYLE
  5
B0
100
AcDbSymbolTableRecord
100
AcDbTextStyleTableRecord
  2
COURIER_NEW
 70
         0
 40
0.0
 41
1.0
 50
0.0
 71
         0
 42
0.0
  3
COUR.TTF
  4

  0
ENDTAB
  0
TABLE
  2
VIEW
  5
5
100
AcDbSymbolTable
 70
         0
  0
ENDTAB
  0
TABLE
  2
UCS
  5
6
100
AcDbSymbolTable
 70
         0
  0
ENDTAB
  0
TABLE
  2
APPID
  5
8
100
AcDbSymbolTable
 70
         1
  0
APPID
  5
16
100
AcDbSymbolTableRecord
100
AcDbRegAppTableRecord
  2
ACAD
 70
         0
  0
ENDTAB
  0
TABLE
  2
DIMSTYLE
  5
9
100
AcDbSymbolTable
 70
         1
  0
DIMSTYLE
105
18
100
AcDbSymbolTableRecord
100
AcDbDimStyleTableRecord
  2
STANDARD
 70
         0
  3

  4

  5

  6

  7

 40
1.0
 41
0.18
 42
0.0625
 43
0.38
 44
0.18
 45
0.0
 46
0.0
 47
0.0
 48
0.0
 71
         0
 72
         0
 73
         1
 74
         1
 75
         0
 76
         0
 77
         0
 78
         0
140
0.18
141
0.09
142
0.0
143
25.4
144
1.0
145
0.0
146
1.0
147
0.09
170
         0
171
         2
172
         0
173
         0
174
         0
175
         0
176
         0
177
         0
178
         0
270
         2
271
         4
272
         4
273
         2
274
         2
275
         0
280
         0
281
         0
282
         0
283
         1
284
         0
285
         0
286
         0
287
         3
288
         0
340
17
  0
ENDTAB
  0
TABLE
  2
BLOCK_RECORD
  5
1
100
AcDbSymbolTable
 70
         0
  0
BLOCK_RECORD
  5
A
100
AcDbSymbolTableRecord
100
AcDbBlockTableRecord
  2
*MODEL_SPACE
  0
BLOCK_RECORD
  5
B
100
AcDbSymbolTableRecord
100
AcDbBlockTableRecord
  2
*PAPER_SPACE
  0
ENDTAB
  0
ENDSEC
  0
SECTION
  2
BLOCKS
  0
BLOCK
  5
D
100
AcDbEntity
  8
0
100
AcDbBlockBegin
  2
*MODEL_SPACE
 70
         0
 10
0.0
 20
0.0
 30
0.0
  3
*MODEL_SPACE
  1

  0
ENDBLK
  5
E
100
AcDbEntity
  8
0
100
AcDbBlockEnd
  0
BLOCK
  5
F
100
AcDbEntity
 67
         1
  8
0
100
AcDbBlockBegin
  2
*PAPER_SPACE
 70
         0
 10
0.0
 20
0.0
 30
0.0
  3
*PAPER_SPACE
  1

  0
ENDBLK
  5
10
100
AcDbEntity
 67
         1
  8
0
100
AcDbBlockEnd
  0
ENDSEC
  0
SECTION
  2
ENTITIES
  0
LWPOLYLINE
  5
2B
100
AcDbEntity
  8
ASSEMBLY_OUTLINES_TOP
100
AcDbPolyline
 90
        2
 70
         0
 43
200.0
 10
2000.0
 20
1750.0
 10
3750.0
 20
-250.0
  0
LWPOLYLINE
  5
2C
100
AcDbEntity
  8
ASSEMBLY_OUTLINES_TOP
100
AcDbPolyline
 90
        4
 70
         1
 43
200.0
 10
-3810.0
 20
-39750.0
 10
-3810.0
 20
1905.0
 10
3790.0
 20
1905.0
 10
3790.0
 20
-39750.0
  0
LWPOLYLINE
  5
2D
100
AcDbEntity
  8
ASSEMBLY_OUTLINES_TOP
100
AcDbPolyline
 90
        4
 70
         1
 43
150.0
 10
-94000.0
 20
-48840.0
 10
-94000.0
 20
11170.0
 10
6000.0
 20
11170.0
 10
6000.0
 20
-48840.0
  0
LWPOLYLINE
  5
2E
100
AcDbEntity
  8
ASSEMBLY_OUTLINES_TOP
100
AcDbPolyline
 90
        2
 70
         0
 43
150.0
 10
-54000.0
 20
11100.0
 10
-54000.0
 20
-48800.0
  0
LWPOLYLINE
  5
2F
100
AcDbEntity
  8
ASSEMBLY_OUTLINES_TOP
100
AcDbPolyline
 90
        2
 70
         0
 43
150.0
 10
-74000.0
 20
11100.0
 10
-74000.0
 20
-48800.0
  0
LWPOLYLINE
  5
30
100
AcDbEntity
  8
ASSEMBLY_OUTLINES_TOP
100
AcDbPolyline
 90
        3
 70
         0
 43
150.0
 10
-2945.199
 20
-277.869
 10
-2255.199
 20
352.131
 10
-2255.199
 20
-1097.869
  0
LWPOLYLINE
  5
31
100
AcDbEntity
  8
ASSEMBLY_OUTLINES_TOP
100
AcDbPolyline
 90
        4
 70
         1
 43
150.0
 10
-94000.0
 20
-54250.0
 10
-94000.0
 20
-48850.0
 10
6000.0
 20
-48850.0
 10
6000.0
 20
-54250.0
  0
TEXT
  5
33
100
AcDbEntity
  8
ASSEMBLY_OUTLINES_TOP
100
AcDbText
 10
-73850.0
 20
-52098.0
 30
0.0
 40
1200.0
  1
phyCARD XL cooling area
  7
ARIAL
 11
-73850.0
 21
-50850.0
 31
0.0
100
AcDbText
 73
         3
  0
TEXT
  5
34
100
AcDbEntity
  8
ASSEMBLY_REF_DES_TOP
100
AcDbText
 10
-472.55
 20
-167.45
 30
0.0
 40
1000.0
  1
Ref Des
 50
270.0
  7
ARIAL
 72
         2
 11
-472.55
 21
-5330.45
 31
0.0
100
AcDbText
 73
         1
  0
LWPOLYLINE
  5
35
100
AcDbEntity
  8
BOARD_OUTLINE
100
AcDbPolyline
 90
        4
 70
         1
 43
0.001
 10
-254000.0
 20
-254000.0
 10
-254000.0
 20
254000.0
 10
254000.0
 20
254000.0
 10
254000.0
 20
-254000.0
  0
CIRCLE
  5
36
100
AcDbEntity
  8
MOUNTING_HOLES_LAYER_TOP
100
AcDbCircle
 10
0.0
 20
-2020.0
 30
0.0
 40
450.0
  0
HATCH
  5
37
100
AcDbEntity
  8
MOUNTING_HOLES_LAYER_TOP
100
AcDbHatch
 10
0.0
 20
0.0
 30
0.0
210
0.0
220
0.0
230
1.0
  2
SOLID
 70
         1
 71
         1
 91
        1
 92
        1
 93
        1
 72
         2
 10
0.0
 20
-2020.0
 40
450.0
 50
0.0
 51
360.0
 73
         1
 97
        1
330
36
 75
         0
 76
         1
 98
        1
 10
0.0
 20
0.0
  0
CIRCLE
  5
38
100
AcDbEntity
  8
MOUNTING_HOLES_LAYER_TOP
100
AcDbCircle
 10
0.0
 20
-35635.87
 30
0.0
 40
350.0
  0
HATCH
  5
39
100
AcDbEntity
  8
MOUNTING_HOLES_LAYER_TOP
100
AcDbHatch
 10
0.0
 20
0.0
 30
0.0
210
0.0
220
0.0
230
1.0
  2
SOLID
 70
         1
 71
         1
 91
        1
 92
        1
 93
        1
 72
         2
 10
0.0
 20
-35635.870000000003
 40
350.0
 50
0.0
 51
360.0
 73
         1
 97
        1
330
38
 75
         0
 76
         1
 98
        1
 10
0.0
 20
0.0
  0
CIRCLE
  5
3A
100
AcDbEntity
  8
PART_HOLES_LAYER_TOP
100
AcDbCircle
 10
2000.0
 20
7170.0
 30
0.0
 40
1350.0
  0
HATCH
  5
3B
100
AcDbEntity
  8
PART_HOLES_LAYER_TOP
100
AcDbHatch
 10
0.0
 20
0.0
 30
0.0
210
0.0
220
0.0
230
1.0
  2
SOLID
 70
         1
 71
         1
 91
        1
 92
        1
 93
        1
 72
         2
 10
2000.0
 20
7170.0
 40
1350.0
 50
0.0
 51
360.0
 73
         1
 97
        1
330
3A
 75
         0
 76
         1
 98
        1
 10
0.0
 20
0.0
  0
CIRCLE
  5
3C
100
AcDbEntity
  8
PART_HOLES_LAYER_TOP
100
AcDbCircle
 10
2000.0
 20
-44837.0
 30
0.0
 40
1350.0
  0
HATCH
  5
3D
100
AcDbEntity
  8
PART_HOLES_LAYER_TOP
100
AcDbHatch
 10
0.0
 20
0.0
 30
0.0
210
0.0
220
0.0
230
1.0
  2
SOLID
 70
         1
 71
         1
 91
        1
 92
        1
 93
        1
 72
         2
 10
2000.0
 20
-44837.0
 40
1350.0
 50
0.0
 51
360.0
 73
         1
 97
        1
330
3C
 75
         0
 76
         1
 98
        1
 10
0.0
 20
0.0
  0
CIRCLE
  5
3E
100
AcDbEntity
  8
PART_HOLES_LAYER_TOP
100
AcDbCircle
 10
-50000.0
 20
7170.0
 30
0.0
 40
1350.0
  0
HATCH
  5
3F
100
AcDbEntity
  8
PART_HOLES_LAYER_TOP
100
AcDbHatch
 10
0.0
 20
0.0
 30
0.0
210
0.0
220
0.0
230
1.0
  2
SOLID
 70
         1
 71
         1
 91
        1
 92
        1
 93
        1
 72
         2
 10
-50000.0
 20
7170.0
 40
1350.0
 50
0.0
 51
360.0
 73
         1
 97
        1
330
3E
 75
         0
 76
         1
 98
        1
 10
0.0
 20
0.0
  0
CIRCLE
  5
40
100
AcDbEntity
  8
PART_HOLES_LAYER_TOP
100
AcDbCircle
 10
-50000.0
 20
-44837.0
 30
0.0
 40
1350.0
  0
HATCH
  5
41
100
AcDbEntity
  8
PART_HOLES_LAYER_TOP
100
AcDbHatch
 10
0.0
 20
0.0
 30
0.0
210
0.0
220
0.0
230
1.0
  2
SOLID
 70
         1
 71
         1
 91
        1
 92
        1
 93
        1
 72
         2
 10
-50000.0
 20
-44837.0
 40
1350.0
 50
0.0
 51
360.0
 73
         1
 97
        1
330
40
 75
         0
 76
         1
 98
        1
 10
0.0
 20
0.0
  0
CIRCLE
  5
42
100
AcDbEntity
  8
PART_HOLES_LAYER_TOP
100
AcDbCircle
 10
-70000.0
 20
7170.0
 30
0.0
 40
1350.0
  0
HATCH
  5
43
100
AcDbEntity
  8
PART_HOLES_LAYER_TOP
100
AcDbHatch
 10
0.0
 20
0.0
 30
0.0
210
0.0
220
0.0
230
1.0
  2
SOLID
 70
         1
 71
         1
 91
        1
 92
        1
 93
        1
 72
         2
 10
-70000.0
 20
7170.0
 40
1350.0
 50
0.0
 51
360.0
 73
         1
 97
        1
330
42
 75
         0
 76
         1
 98
        1
 10
0.0
 20
0.0
  0
CIRCLE
  5
44
100
AcDbEntity
  8
PART_HOLES_LAYER_TOP
100
AcDbCircle
 10
-70000.0
 20
-44837.0
 30
0.0
 40
1350.0
  0
HATCH
  5
45
100
AcDbEntity
  8
PART_HOLES_LAYER_TOP
100
AcDbHatch
 10
0.0
 20
0.0
 30
0.0
210
0.0
220
0.0
230
1.0
  2
SOLID
 70
         1
 71
         1
 91
        1
 92
        1
 93
        1
 72
         2
 10
-70000.0
 20
-44837.0
 40
1350.0
 50
0.0
 51
360.0
 73
         1
 97
        1
330
44
 75
         0
 76
         1
 98
        1
 10
0.0
 20
0.0
  0
CIRCLE
  5
46
100
AcDbEntity
  8
PART_HOLES_LAYER_TOP
100
AcDbCircle
 10
-90000.0
 20
7170.0
 30
0.0
 40
1350.0
  0
HATCH
  5
47
100
AcDbEntity
  8
PART_HOLES_LAYER_TOP
100
AcDbHatch
 10
0.0
 20
0.0
 30
0.0
210
0.0
220
0.0
230
1.0
  2
SOLID
 70
         1
 71
         1
 91
        1
 92
        1
 93
        1
 72
         2
 10
-90000.0
 20
7170.0
 40
1350.0
 50
0.0
 51
360.0
 73
         1
 97
        1
330
46
 75
         0
 76
         1
 98
        1
 10
0.0
 20
0.0
  0
CIRCLE
  5
48
100
AcDbEntity
  8
PART_HOLES_LAYER_TOP
100
AcDbCircle
 10
-90000.0
 20
-44837.0
 30
0.0
 40
1350.0
  0
HATCH
  5
49
100
AcDbEntity
  8
PART_HOLES_LAYER_TOP
100
AcDbHatch
 10
0.0
 20
0.0
 30
0.0
210
0.0
220
0.0
230
1.0
  2
SOLID
 70
         1
 71
         1
 91
        1
 92
        1
 93
        1
 72
         2
 10
-90000.0
 20
-44837.0
 40
1350.0
 50
0.0
 51
360.0
 73
         1
 97
        1
330
48
 75
         0
 76
         1
 98
        1
 10
0.0
 20
0.0
  0
SOLID
  5
4A
100
AcDbEntity
  8
PART_PADS_SMD_TOP
100
AcDbTrace
 10
-3350.0
 20
-3442.5
 30
0.0
 11
-850.0
 21
-3442.5
 31
0.0
 12
-3350.0
 22
-3092.5
 32
0.0
 13
-850.0
 23
-3092.5
 33
0.0
  0
SOLID
  5
4B
100
AcDbEntity
  8
PART_PADS_SMD_TOP
100
AcDbTrace
 10
-3350.0
 20
-4077.5
 30
0.0
 11
-850.0
 21
-4077.5
 31
0.0
 12
-3350.0
 22
-3727.5
 32
0.0
 13
-850.0
 23
-3727.5
 33
0.0
  0
SOLID
  5
4C
100
AcDbEntity
  8
PART_PADS_SMD_TOP
100
AcDbTrace
 10
-3350.0
 20
-4712.5
 30
0.0
 11
-850.0
 21
-4712.5
 31
0.0
 12
-3350.0
 22
-4362.5
 32
0.0
 13
-850.0
 23
-4362.5
 33
0.0
  0
SOLID
  5
4D
100
AcDbEntity
  8
PART_PADS_SMD_TOP
100
AcDbTrace
 10
-3350.0
 20
-5347.5
 30
0.0
 11
-850.0
 21
-5347.5
 31
0.0
 12
-3350.0
 22
-4997.5
 32
0.0
 13
-850.0
 23
-4997.5
 33
0.0
  0
SOLID
  5
4E
100
AcDbEntity
  8
PART_PADS_SMD_TOP
100
AcDbTrace
 10
-3350.0
 20
-5982.5
 30
0.0
 11
-850.0
 21
-5982.5
 31
0.0
 12
-3350.0
 22
-5632.5
 32
0.0
 13
-850.0
 23
-5632.5
 33
0.0
  0
SOLID
  5
4F
100
AcDbEntity
  8
PART_PADS_SMD_TOP
100
AcDbTrace
 10
-3350.0
 20
-6617.5
 30
0.0
 11
-850.0
 21
-6617.5
 31
0.0
 12
-3350.0
 22
-6267.5
 32
0.0
 13
-850.0
 23
-6267.5
 33
0.0
  0
SOLID
  5
50
100
AcDbEntity
  8
PART_PADS_SMD_TOP
100
AcDbTrace
 10
-3350.0
 20
-7252.5
 30
0.0
 11
-850.0
 21
-7252.5
 31
0.0
 12
-3350.0
 22
-6902.5
 32
0.0
 13
-850.0
 23
-6902.5
 33
0.0
  0
SOLID
  5
51
100
AcDbEntity
  8
PART_PADS_SMD_TOP
100
AcDbTrace
 10
-3350.0
 20
-7887.5
 30
0.0
 11
-850.0
 21
-7887.5
 31
0.0
 12
-3350.0
 22
-7537.5
 32
0.0
 13
-850.0
 23
-7537.5
 33
0.0
  0
SOLID
  5
52
100
AcDbEntity
  8
PART_PADS_SMD_TOP
100
AcDbTrace
 10
-3350.0
 20
-8522.5
 30
0.0
 11
-850.0
 21
-8522.5
 31
0.0
 12
-3350.0
 22
-8172.5
 32
0.0
 13
-850.0
 23
-8172.5
 33
0.0
  0
SOLID
  5
53
100
AcDbEntity
  8
PART_PADS_SMD_TOP
100
AcDbTrace
 10
-3350.0
 20
-9157.5
 30
0.0
 11
-850.0
 21
-9157.5
 31
0.0
 12
-3350.0
 22
-8807.5
 32
0.0
 13
-850.0
 23
-8807.5
 33
0.0
  0
SOLID
  5
54
100
AcDbEntity
  8
PART_PADS_SMD_TOP
100
AcDbTrace
 10
-3350.0
 20
-9792.5
 30
0.0
 11
-850.0
 21
-9792.5
 31
0.0
 12
-3350.0
 22
-9442.5
 32
0.0
 13
-850.0
 23
-9442.5
 33
0.0
  0
SOLID
  5
55
100
AcDbEntity
  8
PART_PADS_SMD_TOP
100
AcDbTrace
 10
-3350.0
 20
-10427.5
 30
0.0
 11
-850.0
 21
-10427.5
 31
0.0
 12
-3350.0
 22
-10077.5
 32
0.0
 13
-850.0
 23
-10077.5
 33
0.0
  0
SOLID
  5
56
100
AcDbEntity
  8
PART_PADS_SMD_TOP
100
AcDbTrace
 10
-3350.0
 20
-11062.5
 30
0.0
 11
-850.0
 21
-11062.5
 31
0.0
 12
-3350.0
 22
-10712.5
 32
0.0
 13
-850.0
 23
-10712.5
 33
0.0
  0
SOLID
  5
57
100
AcDbEntity
  8
PART_PADS_SMD_TOP
100
AcDbTrace
 10
-3350.0
 20
-11697.5
 30
0.0
 11
-850.0
 21
-11697.5
 31
0.0
 12
-3350.0
 22
-11347.5
 32
0.0
 13
-850.0
 23
-11347.5
 33
0.0
  0
SOLID
  5
58
100
AcDbEntity
  8
PART_PADS_SMD_TOP
100
AcDbTrace
 10
-3350.0
 20
-12332.5
 30
0.0
 11
-850.0
 21
-12332.5
 31
0.0
 12
-3350.0
 22
-11982.5
 32
0.0
 13
-850.0
 23
-11982.5
 33
0.0
  0
SOLID
  5
59
100
AcDbEntity
  8
PART_PADS_SMD_TOP
100
AcDbTrace
 10
-3350.0
 20
-12967.5
 30
0.0
 11
-850.0
 21
-12967.5
 31
0.0
 12
-3350.0
 22
-12617.5
 32
0.0
 13
-850.0
 23
-12617.5
 33
0.0
  0
SOLID
  5
5A
100
AcDbEntity
  8
PART_PADS_SMD_TOP
100
AcDbTrace
 10
-3350.0
 20
-13602.5
 30
0.0
 11
-850.0
 21
-13602.5
 31
0.0
 12
-3350.0
 22
-13252.5
 32
0.0
 13
-850.0
 23
-13252.5
 33
0.0
  0
SOLID
  5
5B
100
AcDbEntity
  8
PART_PADS_SMD_TOP
100
AcDbTrace
 10
-3350.0
 20
-14237.5
 30
0.0
 11
-850.0
 21
-14237.5
 31
0.0
 12
-3350.0
 22
-13887.5
 32
0.0
 13
-850.0
 23
-13887.5
 33
0.0
  0
SOLID
  5
5C
100
AcDbEntity
  8
PART_PADS_SMD_TOP
100
AcDbTrace
 10
-3350.0
 20
-14872.5
 30
0.0
 11
-850.0
 21
-14872.5
 31
0.0
 12
-3350.0
 22
-14522.5
 32
0.0
 13
-850.0
 23
-14522.5
 33
0.0
  0
SOLID
  5
5D
100
AcDbEntity
  8
PART_PADS_SMD_TOP
100
AcDbTrace
 10
-3350.0
 20
-15507.5
 30
0.0
 11
-850.0
 21
-15507.5
 31
0.0
 12
-3350.0
 22
-15157.5
 32
0.0
 13
-850.0
 23
-15157.5
 33
0.0
  0
SOLID
  5
5E
100
AcDbEntity
  8
PART_PADS_SMD_TOP
100
AcDbTrace
 10
-3350.0
 20
-16142.5
 30
0.0
 11
-850.0
 21
-16142.5
 31
0.0
 12
-3350.0
 22
-15792.5
 32
0.0
 13
-850.0
 23
-15792.5
 33
0.0
  0
SOLID
  5
5F
100
AcDbEntity
  8
PART_PADS_SMD_TOP
100
AcDbTrace
 10
-3350.0
 20
-16777.5
 30
0.0
 11
-850.0
 21
-16777.5
 31
0.0
 12
-3350.0
 22
-16427.5
 32
0.0
 13
-850.0
 23
-16427.5
 33
0.0
  0
SOLID
  5
60
100
AcDbEntity
  8
PART_PADS_SMD_TOP
100
AcDbTrace
 10
-3350.0
 20
-17412.5
 30
0.0
 11
-850.0
 21
-17412.5
 31
0.0
 12
-3350.0
 22
-17062.5
 32
0.0
 13
-850.0
 23
-17062.5
 33
0.0
  0
SOLID
  5
61
100
AcDbEntity
  8
PART_PADS_SMD_TOP
100
AcDbTrace
 10
-3350.0
 20
-18047.5
 30
0.0
 11
-850.0
 21
-18047.5
 31
0.0
 12
-3350.0
 22
-17697.5
 32
0.0
 13
-850.0
 23
-17697.5
 33
0.0
  0
SOLID
  5
62
100
AcDbEntity
  8
PART_PADS_SMD_TOP
100
AcDbTrace
 10
-3350.0
 20
-18682.5
 30
0.0
 11
-850.0
 21
-18682.5
 31
0.0
 12
-3350.0
 22
-18332.5
 32
0.0
 13
-850.0
 23
-18332.5
 33
0.0
  0
SOLID
  5
63
100
AcDbEntity
  8
PART_PADS_SMD_TOP
100
AcDbTrace
 10
-3350.0
 20
-19317.5
 30
0.0
 11
-850.0
 21
-19317.5
 31
0.0
 12
-3350.0
 22
-18967.5
 32
0.0
 13
-850.0
 23
-18967.5
 33
0.0
  0
SOLID
  5
64
100
AcDbEntity
  8
PART_PADS_SMD_TOP
100
AcDbTrace
 10
-3350.0
 20
-19952.5
 30
0.0
 11
-850.0
 21
-19952.5
 31
0.0
 12
-3350.0
 22
-19602.5
 32
0.0
 13
-850.0
 23
-19602.5
 33
0.0
  0
SOLID
  5
65
100
AcDbEntity
  8
PART_PADS_SMD_TOP
100
AcDbTrace
 10
-3350.0
 20
-20587.5
 30
0.0
 11
-850.0
 21
-20587.5
 31
0.0
 12
-3350.0
 22
-20237.5
 32
0.0
 13
-850.0
 23
-20237.5
 33
0.0
  0
SOLID
  5
66
100
AcDbEntity
  8
PART_PADS_SMD_TOP
100
AcDbTrace
 10
-3350.0
 20
-21222.5
 30
0.0
 11
-850.0
 21
-21222.5
 31
0.0
 12
-3350.0
 22
-20872.5
 32
0.0
 13
-850.0
 23
-20872.5
 33
0.0
  0
SOLID
  5
67
100
AcDbEntity
  8
PART_PADS_SMD_TOP
100
AcDbTrace
 10
-3350.0
 20
-21857.5
 30
0.0
 11
-850.0
 21
-21857.5
 31
0.0
 12
-3350.0
 22
-21507.5
 32
0.0
 13
-850.0
 23
-21507.5
 33
0.0
  0
SOLID
  5
68
100
AcDbEntity
  8
PART_PADS_SMD_TOP
100
AcDbTrace
 10
-3350.0
 20
-22492.5
 30
0.0
 11
-850.0
 21
-22492.5
 31
0.0
 12
-3350.0
 22
-22142.5
 32
0.0
 13
-850.0
 23
-22142.5
 33
0.0
  0
SOLID
  5
69
100
AcDbEntity
  8
PART_PADS_SMD_TOP
100
AcDbTrace
 10
-3350.0
 20
-23127.5
 30
0.0
 11
-850.0
 21
-23127.5
 31
0.0
 12
-3350.0
 22
-22777.5
 32
0.0
 13
-850.0
 23
-22777.5
 33
0.0
  0
SOLID
  5
6A
100
AcDbEntity
  8
PART_PADS_SMD_TOP
100
AcDbTrace
 10
-3350.0
 20
-23762.5
 30
0.0
 11
-850.0
 21
-23762.5
 31
0.0
 12
-3350.0
 22
-23412.5
 32
0.0
 13
-850.0
 23
-23412.5
 33
0.0
  0
SOLID
  5
6B
100
AcDbEntity
  8
PART_PADS_SMD_TOP
100
AcDbTrace
 10
-3350.0
 20
-24397.5
 30
0.0
 11
-850.0
 21
-24397.5
 31
0.0
 12
-3350.0
 22
-24047.5
 32
0.0
 13
-850.0
 23
-24047.5
 33
0.0
  0
SOLID
  5
6C
100
AcDbEntity
  8
PART_PADS_SMD_TOP
100
AcDbTrace
 10
-3350.0
 20
-25032.5
 30
0.0
 11
-850.0
 21
-25032.5
 31
0.0
 12
-3350.0
 22
-24682.5
 32
0.0
 13
-850.0
 23
-24682.5
 33
0.0
  0
SOLID
  5
6D
100
AcDbEntity
  8
PART_PADS_SMD_TOP
100
AcDbTrace
 10
-3350.0
 20
-25667.5
 30
0.0
 11
-850.0
 21
-25667.5
 31
0.0
 12
-3350.0
 22
-25317.5
 32
0.0
 13
-850.0
 23
-25317.5
 33
0.0
  0
SOLID
  5
6E
100
AcDbEntity
  8
PART_PADS_SMD_TOP
100
AcDbTrace
 10
-3350.0
 20
-26302.5
 30
0.0
 11
-850.0
 21
-26302.5
 31
0.0
 12
-3350.0
 22
-25952.5
 32
0.0
 13
-850.0
 23
-25952.5
 33
0.0
  0
SOLID
  5
6F
100
AcDbEntity
  8
PART_PADS_SMD_TOP
100
AcDbTrace
 10
-3350.0
 20
-26937.5
 30
0.0
 11
-850.0
 21
-26937.5
 31
0.0
 12
-3350.0
 22
-26587.5
 32
0.0
 13
-850.0
 23
-26587.5
 33
0.0
  0
SOLID
  5
70
100
AcDbEntity
  8
PART_PADS_SMD_TOP
100
AcDbTrace
 10
-3350.0
 20
-27572.5
 30
0.0
 11
-850.0
 21
-27572.5
 31
0.0
 12
-3350.0
 22
-27222.5
 32
0.0
 13
-850.0
 23
-27222.5
 33
0.0
  0
SOLID
  5
71
100
AcDbEntity
  8
PART_PADS_SMD_TOP
100
AcDbTrace
 10
-3350.0
 20
-28207.5
 30
0.0
 11
-850.0
 21
-28207.5
 31
0.0
 12
-3350.0
 22
-27857.5
 32
0.0
 13
-850.0
 23
-27857.5
 33
0.0
  0
SOLID
  5
72
100
AcDbEntity
  8
PART_PADS_SMD_TOP
100
AcDbTrace
 10
-3350.0
 20
-28842.5
 30
0.0
 11
-850.0
 21
-28842.5
 31
0.0
 12
-3350.0
 22
-28492.5
 32
0.0
 13
-850.0
 23
-28492.5
 33
0.0
  0
SOLID
  5
73
100
AcDbEntity
  8
PART_PADS_SMD_TOP
100
AcDbTrace
 10
-3350.0
 20
-29477.5
 30
0.0
 11
-850.0
 21
-29477.5
 31
0.0
 12
-3350.0
 22
-29127.5
 32
0.0
 13
-850.0
 23
-29127.5
 33
0.0
  0
SOLID
  5
74
100
AcDbEntity
  8
PART_PADS_SMD_TOP
100
AcDbTrace
 10
-3350.0
 20
-30112.5
 30
0.0
 11
-850.0
 21
-30112.5
 31
0.0
 12
-3350.0
 22
-29762.5
 32
0.0
 13
-850.0
 23
-29762.5
 33
0.0
  0
SOLID
  5
75
100
AcDbEntity
  8
PART_PADS_SMD_TOP
100
AcDbTrace
 10
-3350.0
 20
-30747.5
 30
0.0
 11
-850.0
 21
-30747.5
 31
0.0
 12
-3350.0
 22
-30397.5
 32
0.0
 13
-850.0
 23
-30397.5
 33
0.0
  0
SOLID
  5
76
100
AcDbEntity
  8
PART_PADS_SMD_TOP
100
AcDbTrace
 10
-3350.0
 20
-31382.5
 30
0.0
 11
-850.0
 21
-31382.5
 31
0.0
 12
-3350.0
 22
-31032.5
 32
0.0
 13
-850.0
 23
-31032.5
 33
0.0
  0
SOLID
  5
77
100
AcDbEntity
  8
PART_PADS_SMD_TOP
100
AcDbTrace
 10
-3350.0
 20
-32017.5
 30
0.0
 11
-850.0
 21
-32017.5
 31
0.0
 12
-3350.0
 22
-31667.5
 32
0.0
 13
-850.0
 23
-31667.5
 33
0.0
  0
SOLID
  5
78
100
AcDbEntity
  8
PART_PADS_SMD_TOP
100
AcDbTrace
 10
-3350.0
 20
-32652.5
 30
0.0
 11
-850.0
 21
-32652.5
 31
0.0
 12
-3350.0
 22
-32302.5
 32
0.0
 13
-850.0
 23
-32302.5
 33
0.0
  0
SOLID
  5
79
100
AcDbEntity
  8
PART_PADS_SMD_TOP
100
AcDbTrace
 10
-3350.0
 20
-33287.5
 30
0.0
 11
-850.0
 21
-33287.5
 31
0.0
 12
-3350.0
 22
-32937.5
 32
0.0
 13
-850.0
 23
-32937.5
 33
0.0
  0
SOLID
  5
7A
100
AcDbEntity
  8
PART_PADS_SMD_TOP
100
AcDbTrace
 10
-3350.0
 20
-33922.5
 30
0.0
 11
-850.0
 21
-33922.5
 31
0.0
 12
-3350.0
 22
-33572.5
 32
0.0
 13
-850.0
 23
-33572.5
 33
0.0
  0
SOLID
  5
7B
100
AcDbEntity
  8
PART_PADS_SMD_TOP
100
AcDbTrace
 10
-3350.0
 20
-34557.5
 30
0.0
 11
-850.0
 21
-34557.5
 31
0.0
 12
-3350.0
 22
-34207.5
 32
0.0
 13
-850.0
 23
-34207.5
 33
0.0
  0
SOLID
  5
7C
100
AcDbEntity
  8
PART_PADS_SMD_TOP
100
AcDbTrace
 10
850.0
 20
-3442.5
 30
0.0
 11
3350.0
 21
-3442.5
 31
0.0
 12
850.0
 22
-3092.5
 32
0.0
 13
3350.0
 23
-3092.5
 33
0.0
  0
SOLID
  5
7D
100
AcDbEntity
  8
PART_PADS_SMD_TOP
100
AcDbTrace
 10
850.0
 20
-4077.5
 30
0.0
 11
3350.0
 21
-4077.5
 31
0.0
 12
850.0
 22
-3727.5
 32
0.0
 13
3350.0
 23
-3727.5
 33
0.0
  0
SOLID
  5
7E
100
AcDbEntity
  8
PART_PADS_SMD_TOP
100
AcDbTrace
 10
850.0
 20
-4712.5
 30
0.0
 11
3350.0
 21
-4712.5
 31
0.0
 12
850.0
 22
-4362.5
 32
0.0
 13
3350.0
 23
-4362.5
 33
0.0
  0
SOLID
  5
7F
100
AcDbEntity
  8
PART_PADS_SMD_TOP
100
AcDbTrace
 10
850.0
 20
-5347.5
 30
0.0
 11
3350.0
 21
-5347.5
 31
0.0
 12
850.0
 22
-4997.5
 32
0.0
 13
3350.0
 23
-4997.5
 33
0.0
  0
SOLID
  5
80
100
AcDbEntity
  8
PART_PADS_SMD_TOP
100
AcDbTrace
 10
850.0
 20
-5982.5
 30
0.0
 11
3350.0
 21
-5982.5
 31
0.0
 12
850.0
 22
-5632.5
 32
0.0
 13
3350.0
 23
-5632.5
 33
0.0
  0
SOLID
  5
81
100
AcDbEntity
  8
PART_PADS_SMD_TOP
100
AcDbTrace
 10
850.0
 20
-6617.5
 30
0.0
 11
3350.0
 21
-6617.5
 31
0.0
 12
850.0
 22
-6267.5
 32
0.0
 13
3350.0
 23
-6267.5
 33
0.0
  0
SOLID
  5
82
100
AcDbEntity
  8
PART_PADS_SMD_TOP
100
AcDbTrace
 10
850.0
 20
-7252.5
 30
0.0
 11
3350.0
 21
-7252.5
 31
0.0
 12
850.0
 22
-6902.5
 32
0.0
 13
3350.0
 23
-6902.5
 33
0.0
  0
SOLID
  5
83
100
AcDbEntity
  8
PART_PADS_SMD_TOP
100
AcDbTrace
 10
850.0
 20
-7887.5
 30
0.0
 11
3350.0
 21
-7887.5
 31
0.0
 12
850.0
 22
-7537.5
 32
0.0
 13
3350.0
 23
-7537.5
 33
0.0
  0
SOLID
  5
84
100
AcDbEntity
  8
PART_PADS_SMD_TOP
100
AcDbTrace
 10
850.0
 20
-8522.5
 30
0.0
 11
3350.0
 21
-8522.5
 31
0.0
 12
850.0
 22
-8172.5
 32
0.0
 13
3350.0
 23
-8172.5
 33
0.0
  0
SOLID
  5
85
100
AcDbEntity
  8
PART_PADS_SMD_TOP
100
AcDbTrace
 10
850.0
 20
-9157.5
 30
0.0
 11
3350.0
 21
-9157.5
 31
0.0
 12
850.0
 22
-8807.5
 32
0.0
 13
3350.0
 23
-8807.5
 33
0.0
  0
SOLID
  5
86
100
AcDbEntity
  8
PART_PADS_SMD_TOP
100
AcDbTrace
 10
850.0
 20
-9792.5
 30
0.0
 11
3350.0
 21
-9792.5
 31
0.0
 12
850.0
 22
-9442.5
 32
0.0
 13
3350.0
 23
-9442.5
 33
0.0
  0
SOLID
  5
87
100
AcDbEntity
  8
PART_PADS_SMD_TOP
100
AcDbTrace
 10
850.0
 20
-10427.5
 30
0.0
 11
3350.0
 21
-10427.5
 31
0.0
 12
850.0
 22
-10077.5
 32
0.0
 13
3350.0
 23
-10077.5
 33
0.0
  0
SOLID
  5
88
100
AcDbEntity
  8
PART_PADS_SMD_TOP
100
AcDbTrace
 10
850.0
 20
-11062.5
 30
0.0
 11
3350.0
 21
-11062.5
 31
0.0
 12
850.0
 22
-10712.5
 32
0.0
 13
3350.0
 23
-10712.5
 33
0.0
  0
SOLID
  5
89
100
AcDbEntity
  8
PART_PADS_SMD_TOP
100
AcDbTrace
 10
850.0
 20
-11697.5
 30
0.0
 11
3350.0
 21
-11697.5
 31
0.0
 12
850.0
 22
-11347.5
 32
0.0
 13
3350.0
 23
-11347.5
 33
0.0
  0
SOLID
  5
8A
100
AcDbEntity
  8
PART_PADS_SMD_TOP
100
AcDbTrace
 10
850.0
 20
-12332.5
 30
0.0
 11
3350.0
 21
-12332.5
 31
0.0
 12
850.0
 22
-11982.5
 32
0.0
 13
3350.0
 23
-11982.5
 33
0.0
  0
SOLID
  5
8B
100
AcDbEntity
  8
PART_PADS_SMD_TOP
100
AcDbTrace
 10
850.0
 20
-12967.5
 30
0.0
 11
3350.0
 21
-12967.5
 31
0.0
 12
850.0
 22
-12617.5
 32
0.0
 13
3350.0
 23
-12617.5
 33
0.0
  0
SOLID
  5
8C
100
AcDbEntity
  8
PART_PADS_SMD_TOP
100
AcDbTrace
 10
850.0
 20
-13602.5
 30
0.0
 11
3350.0
 21
-13602.5
 31
0.0
 12
850.0
 22
-13252.5
 32
0.0
 13
3350.0
 23
-13252.5
 33
0.0
  0
SOLID
  5
8D
100
AcDbEntity
  8
PART_PADS_SMD_TOP
100
AcDbTrace
 10
850.0
 20
-14237.5
 30
0.0
 11
3350.0
 21
-14237.5
 31
0.0
 12
850.0
 22
-13887.5
 32
0.0
 13
3350.0
 23
-13887.5
 33
0.0
  0
SOLID
  5
8E
100
AcDbEntity
  8
PART_PADS_SMD_TOP
100
AcDbTrace
 10
850.0
 20
-14872.5
 30
0.0
 11
3350.0
 21
-14872.5
 31
0.0
 12
850.0
 22
-14522.5
 32
0.0
 13
3350.0
 23
-14522.5
 33
0.0
  0
SOLID
  5
8F
100
AcDbEntity
  8
PART_PADS_SMD_TOP
100
AcDbTrace
 10
850.0
 20
-15507.5
 30
0.0
 11
3350.0
 21
-15507.5
 31
0.0
 12
850.0
 22
-15157.5
 32
0.0
 13
3350.0
 23
-15157.5
 33
0.0
  0
SOLID
  5
90
100
AcDbEntity
  8
PART_PADS_SMD_TOP
100
AcDbTrace
 10
850.0
 20
-16142.5
 30
0.0
 11
3350.0
 21
-16142.5
 31
0.0
 12
850.0
 22
-15792.5
 32
0.0
 13
3350.0
 23
-15792.5
 33
0.0
  0
SOLID
  5
91
100
AcDbEntity
  8
PART_PADS_SMD_TOP
100
AcDbTrace
 10
850.0
 20
-16777.5
 30
0.0
 11
3350.0
 21
-16777.5
 31
0.0
 12
850.0
 22
-16427.5
 32
0.0
 13
3350.0
 23
-16427.5
 33
0.0
  0
SOLID
  5
92
100
AcDbEntity
  8
PART_PADS_SMD_TOP
100
AcDbTrace
 10
850.0
 20
-17412.5
 30
0.0
 11
3350.0
 21
-17412.5
 31
0.0
 12
850.0
 22
-17062.5
 32
0.0
 13
3350.0
 23
-17062.5
 33
0.0
  0
SOLID
  5
93
100
AcDbEntity
  8
PART_PADS_SMD_TOP
100
AcDbTrace
 10
850.0
 20
-18047.5
 30
0.0
 11
3350.0
 21
-18047.5
 31
0.0
 12
850.0
 22
-17697.5
 32
0.0
 13
3350.0
 23
-17697.5
 33
0.0
  0
SOLID
  5
94
100
AcDbEntity
  8
PART_PADS_SMD_TOP
100
AcDbTrace
 10
850.0
 20
-18682.5
 30
0.0
 11
3350.0
 21
-18682.5
 31
0.0
 12
850.0
 22
-18332.5
 32
0.0
 13
3350.0
 23
-18332.5
 33
0.0
  0
SOLID
  5
95
100
AcDbEntity
  8
PART_PADS_SMD_TOP
100
AcDbTrace
 10
850.0
 20
-19317.5
 30
0.0
 11
3350.0
 21
-19317.5
 31
0.0
 12
850.0
 22
-18967.5
 32
0.0
 13
3350.0
 23
-18967.5
 33
0.0
  0
SOLID
  5
96
100
AcDbEntity
  8
PART_PADS_SMD_TOP
100
AcDbTrace
 10
850.0
 20
-19952.5
 30
0.0
 11
3350.0
 21
-19952.5
 31
0.0
 12
850.0
 22
-19602.5
 32
0.0
 13
3350.0
 23
-19602.5
 33
0.0
  0
SOLID
  5
97
100
AcDbEntity
  8
PART_PADS_SMD_TOP
100
AcDbTrace
 10
850.0
 20
-20587.5
 30
0.0
 11
3350.0
 21
-20587.5
 31
0.0
 12
850.0
 22
-20237.5
 32
0.0
 13
3350.0
 23
-20237.5
 33
0.0
  0
SOLID
  5
98
100
AcDbEntity
  8
PART_PADS_SMD_TOP
100
AcDbTrace
 10
850.0
 20
-21222.5
 30
0.0
 11
3350.0
 21
-21222.5
 31
0.0
 12
850.0
 22
-20872.5
 32
0.0
 13
3350.0
 23
-20872.5
 33
0.0
  0
SOLID
  5
99
100
AcDbEntity
  8
PART_PADS_SMD_TOP
100
AcDbTrace
 10
850.0
 20
-21857.5
 30
0.0
 11
3350.0
 21
-21857.5
 31
0.0
 12
850.0
 22
-21507.5
 32
0.0
 13
3350.0
 23
-21507.5
 33
0.0
  0
SOLID
  5
9A
100
AcDbEntity
  8
PART_PADS_SMD_TOP
100
AcDbTrace
 10
850.0
 20
-22492.5
 30
0.0
 11
3350.0
 21
-22492.5
 31
0.0
 12
850.0
 22
-22142.5
 32
0.0
 13
3350.0
 23
-22142.5
 33
0.0
  0
SOLID
  5
9B
100
AcDbEntity
  8
PART_PADS_SMD_TOP
100
AcDbTrace
 10
850.0
 20
-23127.5
 30
0.0
 11
3350.0
 21
-23127.5
 31
0.0
 12
850.0
 22
-22777.5
 32
0.0
 13
3350.0
 23
-22777.5
 33
0.0
  0
SOLID
  5
9C
100
AcDbEntity
  8
PART_PADS_SMD_TOP
100
AcDbTrace
 10
850.0
 20
-23762.5
 30
0.0
 11
3350.0
 21
-23762.5
 31
0.0
 12
850.0
 22
-23412.5
 32
0.0
 13
3350.0
 23
-23412.5
 33
0.0
  0
SOLID
  5
9D
100
AcDbEntity
  8
PART_PADS_SMD_TOP
100
AcDbTrace
 10
850.0
 20
-24397.5
 30
0.0
 11
3350.0
 21
-24397.5
 31
0.0
 12
850.0
 22
-24047.5
 32
0.0
 13
3350.0
 23
-24047.5
 33
0.0
  0
SOLID
  5
9E
100
AcDbEntity
  8
PART_PADS_SMD_TOP
100
AcDbTrace
 10
850.0
 20
-25032.5
 30
0.0
 11
3350.0
 21
-25032.5
 31
0.0
 12
850.0
 22
-24682.5
 32
0.0
 13
3350.0
 23
-24682.5
 33
0.0
  0
SOLID
  5
9F
100
AcDbEntity
  8
PART_PADS_SMD_TOP
100
AcDbTrace
 10
850.0
 20
-25667.5
 30
0.0
 11
3350.0
 21
-25667.5
 31
0.0
 12
850.0
 22
-25317.5
 32
0.0
 13
3350.0
 23
-25317.5
 33
0.0
  0
SOLID
  5
A0
100
AcDbEntity
  8
PART_PADS_SMD_TOP
100
AcDbTrace
 10
850.0
 20
-26302.5
 30
0.0
 11
3350.0
 21
-26302.5
 31
0.0
 12
850.0
 22
-25952.5
 32
0.0
 13
3350.0
 23
-25952.5
 33
0.0
  0
SOLID
  5
A1
100
AcDbEntity
  8
PART_PADS_SMD_TOP
100
AcDbTrace
 10
850.0
 20
-26937.5
 30
0.0
 11
3350.0
 21
-26937.5
 31
0.0
 12
850.0
 22
-26587.5
 32
0.0
 13
3350.0
 23
-26587.5
 33
0.0
  0
SOLID
  5
A2
100
AcDbEntity
  8
PART_PADS_SMD_TOP
100
AcDbTrace
 10
850.0
 20
-27572.5
 30
0.0
 11
3350.0
 21
-27572.5
 31
0.0
 12
850.0
 22
-27222.5
 32
0.0
 13
3350.0
 23
-27222.5
 33
0.0
  0
SOLID
  5
A3
100
AcDbEntity
  8
PART_PADS_SMD_TOP
100
AcDbTrace
 10
850.0
 20
-28207.5
 30
0.0
 11
3350.0
 21
-28207.5
 31
0.0
 12
850.0
 22
-27857.5
 32
0.0
 13
3350.0
 23
-27857.5
 33
0.0
  0
SOLID
  5
A4
100
AcDbEntity
  8
PART_PADS_SMD_TOP
100
AcDbTrace
 10
850.0
 20
-28842.5
 30
0.0
 11
3350.0
 21
-28842.5
 31
0.0
 12
850.0
 22
-28492.5
 32
0.0
 13
3350.0
 23
-28492.5
 33
0.0
  0
SOLID
  5
A5
100
AcDbEntity
  8
PART_PADS_SMD_TOP
100
AcDbTrace
 10
850.0
 20
-29477.5
 30
0.0
 11
3350.0
 21
-29477.5
 31
0.0
 12
850.0
 22
-29127.5
 32
0.0
 13
3350.0
 23
-29127.5
 33
0.0
  0
SOLID
  5
A6
100
AcDbEntity
  8
PART_PADS_SMD_TOP
100
AcDbTrace
 10
850.0
 20
-30112.5
 30
0.0
 11
3350.0
 21
-30112.5
 31
0.0
 12
850.0
 22
-29762.5
 32
0.0
 13
3350.0
 23
-29762.5
 33
0.0
  0
SOLID
  5
A7
100
AcDbEntity
  8
PART_PADS_SMD_TOP
100
AcDbTrace
 10
850.0
 20
-30747.5
 30
0.0
 11
3350.0
 21
-30747.5
 31
0.0
 12
850.0
 22
-30397.5
 32
0.0
 13
3350.0
 23
-30397.5
 33
0.0
  0
SOLID
  5
A8
100
AcDbEntity
  8
PART_PADS_SMD_TOP
100
AcDbTrace
 10
850.0
 20
-31382.5
 30
0.0
 11
3350.0
 21
-31382.5
 31
0.0
 12
850.0
 22
-31032.5
 32
0.0
 13
3350.0
 23
-31032.5
 33
0.0
  0
SOLID
  5
A9
100
AcDbEntity
  8
PART_PADS_SMD_TOP
100
AcDbTrace
 10
850.0
 20
-32017.5
 30
0.0
 11
3350.0
 21
-32017.5
 31
0.0
 12
850.0
 22
-31667.5
 32
0.0
 13
3350.0
 23
-31667.5
 33
0.0
  0
SOLID
  5
AA
100
AcDbEntity
  8
PART_PADS_SMD_TOP
100
AcDbTrace
 10
850.0
 20
-32652.5
 30
0.0
 11
3350.0
 21
-32652.5
 31
0.0
 12
850.0
 22
-32302.5
 32
0.0
 13
3350.0
 23
-32302.5
 33
0.0
  0
SOLID
  5
AB
100
AcDbEntity
  8
PART_PADS_SMD_TOP
100
AcDbTrace
 10
850.0
 20
-33287.5
 30
0.0
 11
3350.0
 21
-33287.5
 31
0.0
 12
850.0
 22
-32937.5
 32
0.0
 13
3350.0
 23
-32937.5
 33
0.0
  0
SOLID
  5
AC
100
AcDbEntity
  8
PART_PADS_SMD_TOP
100
AcDbTrace
 10
850.0
 20
-33922.5
 30
0.0
 11
3350.0
 21
-33922.5
 31
0.0
 12
850.0
 22
-33572.5
 32
0.0
 13
3350.0
 23
-33572.5
 33
0.0
  0
SOLID
  5
AD
100
AcDbEntity
  8
PART_PADS_SMD_TOP
100
AcDbTrace
 10
850.0
 20
-34557.5
 30
0.0
 11
3350.0
 21
-34557.5
 31
0.0
 12
850.0
 22
-34207.5
 32
0.0
 13
3350.0
 23
-34207.5
 33
0.0
  0
SOLID
  5
AE
100
AcDbEntity
  8
PART_PADS_SMD_TOP
100
AcDbTrace
 10
-1000.0
 20
-38850.0
 30
0.0
 11
1000.0
 21
-38850.0
 31
0.0
 12
-1000.0
 22
-36350.0
 32
0.0
 13
1000.0
 23
-36350.0
 33
0.0
  0
SOLID
  5
AF
100
AcDbEntity
  8
PART_PADS_SMD_TOP
100
AcDbTrace
 10
-1000.0
 20
-1310.0
 30
0.0
 11
1000.0
 21
-1310.0
 31
0.0
 12
-1000.0
 22
1190.0
 32
0.0
 13
1000.0
 23
1190.0
 33
0.0
  0
TEXT
  5
B1
100
AcDbEntity
  8
PIN_NUMBERS_TOP
100
AcDbText
 10
-2317.932
 20
-3490.004
 30
0.0
 40
508.0
  1
1
  7
COURIER_NEW
 72
         1
 11
-2100.0
 21
-3267.5
 31
0.0
100
AcDbText
 73
         2
  0
TEXT
  5
B2
100
AcDbEntity
  8
PIN_NUMBERS_TOP
100
AcDbText
 10
-2317.932
 20
-4125.004
 30
0.0
 40
508.0
  1
2
  7
COURIER_NEW
 72
         1
 11
-2100.0
 21
-3902.5
 31
0.0
100
AcDbText
 73
         2
  0
TEXT
  5
B3
100
AcDbEntity
  8
PIN_NUMBERS_TOP
100
AcDbText
 10
-2317.932
 20
-4760.004
 30
0.0
 40
508.0
  1
3
  7
COURIER_NEW
 72
         1
 11
-2100.0
 21
-4537.5
 31
0.0
100
AcDbText
 73
         2
  0
TEXT
  5
B4
100
AcDbEntity
  8
PIN_NUMBERS_TOP
100
AcDbText
 10
-2317.932
 20
-5395.004
 30
0.0
 40
508.0
  1
4
  7
COURIER_NEW
 72
         1
 11
-2100.0
 21
-5172.5
 31
0.0
100
AcDbText
 73
         2
  0
TEXT
  5
B5
100
AcDbEntity
  8
PIN_NUMBERS_TOP
100
AcDbText
 10
-2317.932
 20
-6030.004
 30
0.0
 40
508.0
  1
5
  7
COURIER_NEW
 72
         1
 11
-2100.0
 21
-5807.5
 31
0.0
100
AcDbText
 73
         2
  0
TEXT
  5
B6
100
AcDbEntity
  8
PIN_NUMBERS_TOP
100
AcDbText
 10
-2317.932
 20
-6665.004
 30
0.0
 40
508.0
  1
6
  7
COURIER_NEW
 72
         1
 11
-2100.0
 21
-6442.5
 31
0.0
100
AcDbText
 73
         2
  0
TEXT
  5
B7
100
AcDbEntity
  8
PIN_NUMBERS_TOP
100
AcDbText
 10
-2317.932
 20
-7300.004
 30
0.0
 40
508.0
  1
7
  7
COURIER_NEW
 72
         1
 11
-2100.0
 21
-7077.5
 31
0.0
100
AcDbText
 73
         2
  0
TEXT
  5
B8
100
AcDbEntity
  8
PIN_NUMBERS_TOP
100
AcDbText
 10
-2317.932
 20
-7935.004
 30
0.0
 40
508.0
  1
8
  7
COURIER_NEW
 72
         1
 11
-2100.0
 21
-7712.5
 31
0.0
100
AcDbText
 73
         2
  0
TEXT
  5
B9
100
AcDbEntity
  8
PIN_NUMBERS_TOP
100
AcDbText
 10
-2317.932
 20
-8570.004
 30
0.0
 40
508.0
  1
9
  7
COURIER_NEW
 72
         1
 11
-2100.0
 21
-8347.5
 31
0.0
100
AcDbText
 73
         2
  0
TEXT
  5
BA
100
AcDbEntity
  8
PIN_NUMBERS_TOP
100
AcDbText
 10
-2535.864
 20
-9205.004
 30
0.0
 40
508.0
  1
10
  7
COURIER_NEW
 72
         1
 11
-2100.0
 21
-8982.5
 31
0.0
100
AcDbText
 73
         2
  0
TEXT
  5
BB
100
AcDbEntity
  8
PIN_NUMBERS_TOP
100
AcDbText
 10
-2535.864
 20
-9840.004
 30
0.0
 40
508.0
  1
11
  7
COURIER_NEW
 72
         1
 11
-2100.0
 21
-9617.5
 31
0.0
100
AcDbText
 73
         2
  0
TEXT
  5
BC
100
AcDbEntity
  8
PIN_NUMBERS_TOP
100
AcDbText
 10
-2535.864
 20
-10475.004
 30
0.0
 40
508.0
  1
12
  7
COURIER_NEW
 72
         1
 11
-2100.0
 21
-10252.5
 31
0.0
100
AcDbText
 73
         2
  0
TEXT
  5
BD
100
AcDbEntity
  8
PIN_NUMBERS_TOP
100
AcDbText
 10
-2535.864
 20
-11110.004
 30
0.0
 40
508.0
  1
13
  7
COURIER_NEW
 72
         1
 11
-2100.0
 21
-10887.5
 31
0.0
100
AcDbText
 73
         2
  0
TEXT
  5
BE
100
AcDbEntity
  8
PIN_NUMBERS_TOP
100
AcDbText
 10
-2535.864
 20
-11745.004
 30
0.0
 40
508.0
  1
14
  7
COURIER_NEW
 72
         1
 11
-2100.0
 21
-11522.5
 31
0.0
100
AcDbText
 73
         2
  0
TEXT
  5
BF
100
AcDbEntity
  8
PIN_NUMBERS_TOP
100
AcDbText
 10
-2535.864
 20
-12380.004
 30
0.0
 40
508.0
  1
15
  7
COURIER_NEW
 72
         1
 11
-2100.0
 21
-12157.5
 31
0.0
100
AcDbText
 73
         2
  0
TEXT
  5
C0
100
AcDbEntity
  8
PIN_NUMBERS_TOP
100
AcDbText
 10
-2535.864
 20
-13015.004
 30
0.0
 40
508.0
  1
16
  7
COURIER_NEW
 72
         1
 11
-2100.0
 21
-12792.5
 31
0.0
100
AcDbText
 73
         2
  0
TEXT
  5
C1
100
AcDbEntity
  8
PIN_NUMBERS_TOP
100
AcDbText
 10
-2535.864
 20
-13650.004
 30
0.0
 40
508.0
  1
17
  7
COURIER_NEW
 72
         1
 11
-2100.0
 21
-13427.5
 31
0.0
100
AcDbText
 73
         2
  0
TEXT
  5
C2
100
AcDbEntity
  8
PIN_NUMBERS_TOP
100
AcDbText
 10
-2535.864
 20
-14285.004
 30
0.0
 40
508.0
  1
18
  7
COURIER_NEW
 72
         1
 11
-2100.0
 21
-14062.5
 31
0.0
100
AcDbText
 73
         2
  0
TEXT
  5
C3
100
AcDbEntity
  8
PIN_NUMBERS_TOP
100
AcDbText
 10
-2535.864
 20
-14920.004
 30
0.0
 40
508.0
  1
19
  7
COURIER_NEW
 72
         1
 11
-2100.0
 21
-14697.5
 31
0.0
100
AcDbText
 73
         2
  0
TEXT
  5
C4
100
AcDbEntity
  8
PIN_NUMBERS_TOP
100
AcDbText
 10
-2535.864
 20
-15555.004
 30
0.0
 40
508.0
  1
20
  7
COURIER_NEW
 72
         1
 11
-2100.0
 21
-15332.5
 31
0.0
100
AcDbText
 73
         2
  0
TEXT
  5
C5
100
AcDbEntity
  8
PIN_NUMBERS_TOP
100
AcDbText
 10
-2535.864
 20
-16190.004
 30
0.0
 40
508.0
  1
21
  7
COURIER_NEW
 72
         1
 11
-2100.0
 21
-15967.5
 31
0.0
100
AcDbText
 73
         2
  0
TEXT
  5
C6
100
AcDbEntity
  8
PIN_NUMBERS_TOP
100
AcDbText
 10
-2535.864
 20
-16825.004
 30
0.0
 40
508.0
  1
22
  7
COURIER_NEW
 72
         1
 11
-2100.0
 21
-16602.5
 31
0.0
100
AcDbText
 73
         2
  0
TEXT
  5
C7
100
AcDbEntity
  8
PIN_NUMBERS_TOP
100
AcDbText
 10
-2535.864
 20
-17460.004
 30
0.0
 40
508.0
  1
23
  7
COURIER_NEW
 72
         1
 11
-2100.0
 21
-17237.5
 31
0.0
100
AcDbText
 73
         2
  0
TEXT
  5
C8
100
AcDbEntity
  8
PIN_NUMBERS_TOP
100
AcDbText
 10
-2535.864
 20
-18095.004
 30
0.0
 40
508.0
  1
24
  7
COURIER_NEW
 72
         1
 11
-2100.0
 21
-17872.5
 31
0.0
100
AcDbText
 73
         2
  0
TEXT
  5
C9
100
AcDbEntity
  8
PIN_NUMBERS_TOP
100
AcDbText
 10
-2535.864
 20
-18730.004
 30
0.0
 40
508.0
  1
25
  7
COURIER_NEW
 72
         1
 11
-2100.0
 21
-18507.5
 31
0.0
100
AcDbText
 73
         2
  0
TEXT
  5
CA
100
AcDbEntity
  8
PIN_NUMBERS_TOP
100
AcDbText
 10
-2535.864
 20
-19365.004
 30
0.0
 40
508.0
  1
26
  7
COURIER_NEW
 72
         1
 11
-2100.0
 21
-19142.5
 31
0.0
100
AcDbText
 73
         2
  0
TEXT
  5
CB
100
AcDbEntity
  8
PIN_NUMBERS_TOP
100
AcDbText
 10
-2535.864
 20
-20000.004
 30
0.0
 40
508.0
  1
27
  7
COURIER_NEW
 72
         1
 11
-2100.0
 21
-19777.5
 31
0.0
100
AcDbText
 73
         2
  0
TEXT
  5
CC
100
AcDbEntity
  8
PIN_NUMBERS_TOP
100
AcDbText
 10
-2535.864
 20
-20635.004
 30
0.0
 40
508.0
  1
28
  7
COURIER_NEW
 72
         1
 11
-2100.0
 21
-20412.5
 31
0.0
100
AcDbText
 73
         2
  0
TEXT
  5
CD
100
AcDbEntity
  8
PIN_NUMBERS_TOP
100
AcDbText
 10
-2535.864
 20
-21270.004
 30
0.0
 40
508.0
  1
29
  7
COURIER_NEW
 72
         1
 11
-2100.0
 21
-21047.5
 31
0.0
100
AcDbText
 73
         2
  0
TEXT
  5
CE
100
AcDbEntity
  8
PIN_NUMBERS_TOP
100
AcDbText
 10
-2535.864
 20
-21905.004
 30
0.0
 40
508.0
  1
30
  7
COURIER_NEW
 72
         1
 11
-2100.0
 21
-21682.5
 31
0.0
100
AcDbText
 73
         2
  0
TEXT
  5
CF
100
AcDbEntity
  8
PIN_NUMBERS_TOP
100
AcDbText
 10
-2535.864
 20
-22540.004
 30
0.0
 40
508.0
  1
31
  7
COURIER_NEW
 72
         1
 11
-2100.0
 21
-22317.5
 31
0.0
100
AcDbText
 73
         2
  0
TEXT
  5
D0
100
AcDbEntity
  8
PIN_NUMBERS_TOP
100
AcDbText
 10
-2535.864
 20
-23175.004
 30
0.0
 40
508.0
  1
32
  7
COURIER_NEW
 72
         1
 11
-2100.0
 21
-22952.5
 31
0.0
100
AcDbText
 73
         2
  0
TEXT
  5
D1
100
AcDbEntity
  8
PIN_NUMBERS_TOP
100
AcDbText
 10
-2535.864
 20
-23810.004
 30
0.0
 40
508.0
  1
33
  7
COURIER_NEW
 72
         1
 11
-2100.0
 21
-23587.5
 31
0.0
100
AcDbText
 73
         2
  0
TEXT
  5
D2
100
AcDbEntity
  8
PIN_NUMBERS_TOP
100
AcDbText
 10
-2535.864
 20
-24445.004
 30
0.0
 40
508.0
  1
34
  7
COURIER_NEW
 72
         1
 11
-2100.0
 21
-24222.5
 31
0.0
100
AcDbText
 73
         2
  0
TEXT
  5
D3
100
AcDbEntity
  8
PIN_NUMBERS_TOP
100
AcDbText
 10
-2535.864
 20
-25080.004
 30
0.0
 40
508.0
  1
35
  7
COURIER_NEW
 72
         1
 11
-2100.0
 21
-24857.5
 31
0.0
100
AcDbText
 73
         2
  0
TEXT
  5
D4
100
AcDbEntity
  8
PIN_NUMBERS_TOP
100
AcDbText
 10
-2535.864
 20
-25715.004
 30
0.0
 40
508.0
  1
36
  7
COURIER_NEW
 72
         1
 11
-2100.0
 21
-25492.5
 31
0.0
100
AcDbText
 73
         2
  0
TEXT
  5
D5
100
AcDbEntity
  8
PIN_NUMBERS_TOP
100
AcDbText
 10
-2535.864
 20
-26350.004
 30
0.0
 40
508.0
  1
37
  7
COURIER_NEW
 72
         1
 11
-2100.0
 21
-26127.5
 31
0.0
100
AcDbText
 73
         2
  0
TEXT
  5
D6
100
AcDbEntity
  8
PIN_NUMBERS_TOP
100
AcDbText
 10
-2535.864
 20
-26985.004
 30
0.0
 40
508.0
  1
38
  7
COURIER_NEW
 72
         1
 11
-2100.0
 21
-26762.5
 31
0.0
100
AcDbText
 73
         2
  0
TEXT
  5
D7
100
AcDbEntity
  8
PIN_NUMBERS_TOP
100
AcDbText
 10
-2535.864
 20
-27620.004
 30
0.0
 40
508.0
  1
39
  7
COURIER_NEW
 72
         1
 11
-2100.0
 21
-27397.5
 31
0.0
100
AcDbText
 73
         2
  0
TEXT
  5
D8
100
AcDbEntity
  8
PIN_NUMBERS_TOP
100
AcDbText
 10
-2535.864
 20
-28255.004
 30
0.0
 40
508.0
  1
40
  7
COURIER_NEW
 72
         1
 11
-2100.0
 21
-28032.5
 31
0.0
100
AcDbText
 73
         2
  0
TEXT
  5
D9
100
AcDbEntity
  8
PIN_NUMBERS_TOP
100
AcDbText
 10
-2535.864
 20
-28890.004
 30
0.0
 40
508.0
  1
41
  7
COURIER_NEW
 72
         1
 11
-2100.0
 21
-28667.5
 31
0.0
100
AcDbText
 73
         2
  0
TEXT
  5
DA
100
AcDbEntity
  8
PIN_NUMBERS_TOP
100
AcDbText
 10
-2535.864
 20
-29525.004
 30
0.0
 40
508.0
  1
42
  7
COURIER_NEW
 72
         1
 11
-2100.0
 21
-29302.5
 31
0.0
100
AcDbText
 73
         2
  0
TEXT
  5
DB
100
AcDbEntity
  8
PIN_NUMBERS_TOP
100
AcDbText
 10
-2535.864
 20
-30160.004
 30
0.0
 40
508.0
  1
43
  7
COURIER_NEW
 72
         1
 11
-2100.0
 21
-29937.5
 31
0.0
100
AcDbText
 73
         2
  0
TEXT
  5
DC
100
AcDbEntity
  8
PIN_NUMBERS_TOP
100
AcDbText
 10
-2535.864
 20
-30795.004
 30
0.0
 40
508.0
  1
44
  7
COURIER_NEW
 72
         1
 11
-2100.0
 21
-30572.5
 31
0.0
100
AcDbText
 73
         2
  0
TEXT
  5
DD
100
AcDbEntity
  8
PIN_NUMBERS_TOP
100
AcDbText
 10
-2535.864
 20
-31430.004
 30
0.0
 40
508.0
  1
45
  7
COURIER_NEW
 72
         1
 11
-2100.0
 21
-31207.5
 31
0.0
100
AcDbText
 73
         2
  0
TEXT
  5
DE
100
AcDbEntity
  8
PIN_NUMBERS_TOP
100
AcDbText
 10
-2535.864
 20
-32065.004
 30
0.0
 40
508.0
  1
46
  7
COURIER_NEW
 72
         1
 11
-2100.0
 21
-31842.5
 31
0.0
100
AcDbText
 73
         2
  0
TEXT
  5
DF
100
AcDbEntity
  8
PIN_NUMBERS_TOP
100
AcDbText
 10
-2535.864
 20
-32700.004
 30
0.0
 40
508.0
  1
47
  7
COURIER_NEW
 72
         1
 11
-2100.0
 21
-32477.5
 31
0.0
100
AcDbText
 73
         2
  0
TEXT
  5
E0
100
AcDbEntity
  8
PIN_NUMBERS_TOP
100
AcDbText
 10
-2535.864
 20
-33335.004
 30
0.0
 40
508.0
  1
48
  7
COURIER_NEW
 72
         1
 11
-2100.0
 21
-33112.5
 31
0.0
100
AcDbText
 73
         2
  0
TEXT
  5
E1
100
AcDbEntity
  8
PIN_NUMBERS_TOP
100
AcDbText
 10
-2535.864
 20
-33970.004
 30
0.0
 40
508.0
  1
49
  7
COURIER_NEW
 72
         1
 11
-2100.0
 21
-33747.5
 31
0.0
100
AcDbText
 73
         2
  0
TEXT
  5
E2
100
AcDbEntity
  8
PIN_NUMBERS_TOP
100
AcDbText
 10
-2535.864
 20
-34605.004
 30
0.0
 40
508.0
  1
50
  7
COURIER_NEW
 72
         1
 11
-2100.0
 21
-34382.5
 31
0.0
100
AcDbText
 73
         2
  0
TEXT
  5
E3
100
AcDbEntity
  8
PIN_NUMBERS_TOP
100
AcDbText
 10
1664.136
 20
-3490.004
 30
0.0
 40
508.0
  1
51
  7
COURIER_NEW
 72
         1
 11
2100.0
 21
-3267.5
 31
0.0
100
AcDbText
 73
         2
  0
TEXT
  5
E4
100
AcDbEntity
  8
PIN_NUMBERS_TOP
100
AcDbText
 10
1664.136
 20
-4125.004
 30
0.0
 40
508.0
  1
52
  7
COURIER_NEW
 72
         1
 11
2100.0
 21
-3902.5
 31
0.0
100
AcDbText
 73
         2
  0
TEXT
  5
E5
100
AcDbEntity
  8
PIN_NUMBERS_TOP
100
AcDbText
 10
1664.136
 20
-4760.004
 30
0.0
 40
508.0
  1
53
  7
COURIER_NEW
 72
         1
 11
2100.0
 21
-4537.5
 31
0.0
100
AcDbText
 73
         2
  0
TEXT
  5
E6
100
AcDbEntity
  8
PIN_NUMBERS_TOP
100
AcDbText
 10
1664.136
 20
-5395.004
 30
0.0
 40
508.0
  1
54
  7
COURIER_NEW
 72
         1
 11
2100.0
 21
-5172.5
 31
0.0
100
AcDbText
 73
         2
  0
TEXT
  5
E7
100
AcDbEntity
  8
PIN_NUMBERS_TOP
100
AcDbText
 10
1664.136
 20
-6030.004
 30
0.0
 40
508.0
  1
55
  7
COURIER_NEW
 72
         1
 11
2100.0
 21
-5807.5
 31
0.0
100
AcDbText
 73
         2
  0
TEXT
  5
E8
100
AcDbEntity
  8
PIN_NUMBERS_TOP
100
AcDbText
 10
1664.136
 20
-6665.004
 30
0.0
 40
508.0
  1
56
  7
COURIER_NEW
 72
         1
 11
2100.0
 21
-6442.5
 31
0.0
100
AcDbText
 73
         2
  0
TEXT
  5
E9
100
AcDbEntity
  8
PIN_NUMBERS_TOP
100
AcDbText
 10
1664.136
 20
-7300.004
 30
0.0
 40
508.0
  1
57
  7
COURIER_NEW
 72
         1
 11
2100.0
 21
-7077.5
 31
0.0
100
AcDbText
 73
         2
  0
TEXT
  5
EA
100
AcDbEntity
  8
PIN_NUMBERS_TOP
100
AcDbText
 10
1664.136
 20
-7935.004
 30
0.0
 40
508.0
  1
58
  7
COURIER_NEW
 72
         1
 11
2100.0
 21
-7712.5
 31
0.0
100
AcDbText
 73
         2
  0
TEXT
  5
EB
100
AcDbEntity
  8
PIN_NUMBERS_TOP
100
AcDbText
 10
1664.136
 20
-8570.004
 30
0.0
 40
508.0
  1
59
  7
COURIER_NEW
 72
         1
 11
2100.0
 21
-8347.5
 31
0.0
100
AcDbText
 73
         2
  0
TEXT
  5
EC
100
AcDbEntity
  8
PIN_NUMBERS_TOP
100
AcDbText
 10
1664.136
 20
-9205.004
 30
0.0
 40
508.0
  1
60
  7
COURIER_NEW
 72
         1
 11
2100.0
 21
-8982.5
 31
0.0
100
AcDbText
 73
         2
  0
TEXT
  5
ED
100
AcDbEntity
  8
PIN_NUMBERS_TOP
100
AcDbText
 10
1664.136
 20
-9840.004
 30
0.0
 40
508.0
  1
61
  7
COURIER_NEW
 72
         1
 11
2100.0
 21
-9617.5
 31
0.0
100
AcDbText
 73
         2
  0
TEXT
  5
EE
100
AcDbEntity
  8
PIN_NUMBERS_TOP
100
AcDbText
 10
1664.136
 20
-10475.004
 30
0.0
 40
508.0
  1
62
  7
COURIER_NEW
 72
         1
 11
2100.0
 21
-10252.5
 31
0.0
100
AcDbText
 73
         2
  0
TEXT
  5
EF
100
AcDbEntity
  8
PIN_NUMBERS_TOP
100
AcDbText
 10
1664.136
 20
-11110.004
 30
0.0
 40
508.0
  1
63
  7
COURIER_NEW
 72
         1
 11
2100.0
 21
-10887.5
 31
0.0
100
AcDbText
 73
         2
  0
TEXT
  5
F0
100
AcDbEntity
  8
PIN_NUMBERS_TOP
100
AcDbText
 10
1664.136
 20
-11745.004
 30
0.0
 40
508.0
  1
64
  7
COURIER_NEW
 72
         1
 11
2100.0
 21
-11522.5
 31
0.0
100
AcDbText
 73
         2
  0
TEXT
  5
F1
100
AcDbEntity
  8
PIN_NUMBERS_TOP
100
AcDbText
 10
1664.136
 20
-12380.004
 30
0.0
 40
508.0
  1
65
  7
COURIER_NEW
 72
         1
 11
2100.0
 21
-12157.5
 31
0.0
100
AcDbText
 73
         2
  0
TEXT
  5
F2
100
AcDbEntity
  8
PIN_NUMBERS_TOP
100
AcDbText
 10
1664.136
 20
-13015.004
 30
0.0
 40
508.0
  1
66
  7
COURIER_NEW
 72
         1
 11
2100.0
 21
-12792.5
 31
0.0
100
AcDbText
 73
         2
  0
TEXT
  5
F3
100
AcDbEntity
  8
PIN_NUMBERS_TOP
100
AcDbText
 10
1664.136
 20
-13650.004
 30
0.0
 40
508.0
  1
67
  7
COURIER_NEW
 72
         1
 11
2100.0
 21
-13427.5
 31
0.0
100
AcDbText
 73
         2
  0
TEXT
  5
F4
100
AcDbEntity
  8
PIN_NUMBERS_TOP
100
AcDbText
 10
1664.136
 20
-14285.004
 30
0.0
 40
508.0
  1
68
  7
COURIER_NEW
 72
         1
 11
2100.0
 21
-14062.5
 31
0.0
100
AcDbText
 73
         2
  0
TEXT
  5
F5
100
AcDbEntity
  8
PIN_NUMBERS_TOP
100
AcDbText
 10
1664.136
 20
-14920.004
 30
0.0
 40
508.0
  1
69
  7
COURIER_NEW
 72
         1
 11
2100.0
 21
-14697.5
 31
0.0
100
AcDbText
 73
         2
  0
TEXT
  5
F6
100
AcDbEntity
  8
PIN_NUMBERS_TOP
100
AcDbText
 10
1664.136
 20
-15555.004
 30
0.0
 40
508.0
  1
70
  7
COURIER_NEW
 72
         1
 11
2100.0
 21
-15332.5
 31
0.0
100
AcDbText
 73
         2
  0
TEXT
  5
F7
100
AcDbEntity
  8
PIN_NUMBERS_TOP
100
AcDbText
 10
1664.136
 20
-16190.004
 30
0.0
 40
508.0
  1
71
  7
COURIER_NEW
 72
         1
 11
2100.0
 21
-15967.5
 31
0.0
100
AcDbText
 73
         2
  0
TEXT
  5
F8
100
AcDbEntity
  8
PIN_NUMBERS_TOP
100
AcDbText
 10
1664.136
 20
-16825.004
 30
0.0
 40
508.0
  1
72
  7
COURIER_NEW
 72
         1
 11
2100.0
 21
-16602.5
 31
0.0
100
AcDbText
 73
         2
  0
TEXT
  5
F9
100
AcDbEntity
  8
PIN_NUMBERS_TOP
100
AcDbText
 10
1664.136
 20
-17460.004
 30
0.0
 40
508.0
  1
73
  7
COURIER_NEW
 72
         1
 11
2100.0
 21
-17237.5
 31
0.0
100
AcDbText
 73
         2
  0
TEXT
  5
FA
100
AcDbEntity
  8
PIN_NUMBERS_TOP
100
AcDbText
 10
1664.136
 20
-18095.004
 30
0.0
 40
508.0
  1
74
  7
COURIER_NEW
 72
         1
 11
2100.0
 21
-17872.5
 31
0.0
100
AcDbText
 73
         2
  0
TEXT
  5
FB
100
AcDbEntity
  8
PIN_NUMBERS_TOP
100
AcDbText
 10
1664.136
 20
-18730.004
 30
0.0
 40
508.0
  1
75
  7
COURIER_NEW
 72
         1
 11
2100.0
 21
-18507.5
 31
0.0
100
AcDbText
 73
         2
  0
TEXT
  5
FC
100
AcDbEntity
  8
PIN_NUMBERS_TOP
100
AcDbText
 10
1664.136
 20
-19365.004
 30
0.0
 40
508.0
  1
76
  7
COURIER_NEW
 72
         1
 11
2100.0
 21
-19142.5
 31
0.0
100
AcDbText
 73
         2
  0
TEXT
  5
FD
100
AcDbEntity
  8
PIN_NUMBERS_TOP
100
AcDbText
 10
1664.136
 20
-20000.004
 30
0.0
 40
508.0
  1
77
  7
COURIER_NEW
 72
         1
 11
2100.0
 21
-19777.5
 31
0.0
100
AcDbText
 73
         2
  0
TEXT
  5
FE
100
AcDbEntity
  8
PIN_NUMBERS_TOP
100
AcDbText
 10
1664.136
 20
-20635.004
 30
0.0
 40
508.0
  1
78
  7
COURIER_NEW
 72
         1
 11
2100.0
 21
-20412.5
 31
0.0
100
AcDbText
 73
         2
  0
TEXT
  5
FF
100
AcDbEntity
  8
PIN_NUMBERS_TOP
100
AcDbText
 10
1664.136
 20
-21270.004
 30
0.0
 40
508.0
  1
79
  7
COURIER_NEW
 72
         1
 11
2100.0
 21
-21047.5
 31
0.0
100
AcDbText
 73
         2
  0
TEXT
  5
100
100
AcDbEntity
  8
PIN_NUMBERS_TOP
100
AcDbText
 10
1664.136
 20
-21905.004
 30
0.0
 40
508.0
  1
80
  7
COURIER_NEW
 72
         1
 11
2100.0
 21
-21682.5
 31
0.0
100
AcDbText
 73
         2
  0
TEXT
  5
101
100
AcDbEntity
  8
PIN_NUMBERS_TOP
100
AcDbText
 10
1664.136
 20
-22540.004
 30
0.0
 40
508.0
  1
81
  7
COURIER_NEW
 72
         1
 11
2100.0
 21
-22317.5
 31
0.0
100
AcDbText
 73
         2
  0
TEXT
  5
102
100
AcDbEntity
  8
PIN_NUMBERS_TOP
100
AcDbText
 10
1664.136
 20
-23175.004
 30
0.0
 40
508.0
  1
82
  7
COURIER_NEW
 72
         1
 11
2100.0
 21
-22952.5
 31
0.0
100
AcDbText
 73
         2
  0
TEXT
  5
103
100
AcDbEntity
  8
PIN_NUMBERS_TOP
100
AcDbText
 10
1664.136
 20
-23810.004
 30
0.0
 40
508.0
  1
83
  7
COURIER_NEW
 72
         1
 11
2100.0
 21
-23587.5
 31
0.0
100
AcDbText
 73
         2
  0
TEXT
  5
104
100
AcDbEntity
  8
PIN_NUMBERS_TOP
100
AcDbText
 10
1664.136
 20
-24445.004
 30
0.0
 40
508.0
  1
84
  7
COURIER_NEW
 72
         1
 11
2100.0
 21
-24222.5
 31
0.0
100
AcDbText
 73
         2
  0
TEXT
  5
105
100
AcDbEntity
  8
PIN_NUMBERS_TOP
100
AcDbText
 10
1664.136
 20
-25080.004
 30
0.0
 40
508.0
  1
85
  7
COURIER_NEW
 72
         1
 11
2100.0
 21
-24857.5
 31
0.0
100
AcDbText
 73
         2
  0
TEXT
  5
106
100
AcDbEntity
  8
PIN_NUMBERS_TOP
100
AcDbText
 10
1664.136
 20
-25715.004
 30
0.0
 40
508.0
  1
86
  7
COURIER_NEW
 72
         1
 11
2100.0
 21
-25492.5
 31
0.0
100
AcDbText
 73
         2
  0
TEXT
  5
107
100
AcDbEntity
  8
PIN_NUMBERS_TOP
100
AcDbText
 10
1664.136
 20
-26350.004
 30
0.0
 40
508.0
  1
87
  7
COURIER_NEW
 72
         1
 11
2100.0
 21
-26127.5
 31
0.0
100
AcDbText
 73
         2
  0
TEXT
  5
108
100
AcDbEntity
  8
PIN_NUMBERS_TOP
100
AcDbText
 10
1664.136
 20
-26985.004
 30
0.0
 40
508.0
  1
88
  7
COURIER_NEW
 72
         1
 11
2100.0
 21
-26762.5
 31
0.0
100
AcDbText
 73
         2
  0
TEXT
  5
109
100
AcDbEntity
  8
PIN_NUMBERS_TOP
100
AcDbText
 10
1664.136
 20
-27620.004
 30
0.0
 40
508.0
  1
89
  7
COURIER_NEW
 72
         1
 11
2100.0
 21
-27397.5
 31
0.0
100
AcDbText
 73
         2
  0
TEXT
  5
10A
100
AcDbEntity
  8
PIN_NUMBERS_TOP
100
AcDbText
 10
1664.136
 20
-28255.004
 30
0.0
 40
508.0
  1
90
  7
COURIER_NEW
 72
         1
 11
2100.0
 21
-28032.5
 31
0.0
100
AcDbText
 73
         2
  0
TEXT
  5
10B
100
AcDbEntity
  8
PIN_NUMBERS_TOP
100
AcDbText
 10
1664.136
 20
-28890.004
 30
0.0
 40
508.0
  1
91
  7
COURIER_NEW
 72
         1
 11
2100.0
 21
-28667.5
 31
0.0
100
AcDbText
 73
         2
  0
TEXT
  5
10C
100
AcDbEntity
  8
PIN_NUMBERS_TOP
100
AcDbText
 10
1664.136
 20
-29525.004
 30
0.0
 40
508.0
  1
92
  7
COURIER_NEW
 72
         1
 11
2100.0
 21
-29302.5
 31
0.0
100
AcDbText
 73
         2
  0
TEXT
  5
10D
100
AcDbEntity
  8
PIN_NUMBERS_TOP
100
AcDbText
 10
1664.136
 20
-30160.004
 30
0.0
 40
508.0
  1
93
  7
COURIER_NEW
 72
         1
 11
2100.0
 21
-29937.5
 31
0.0
100
AcDbText
 73
         2
  0
TEXT
  5
10E
100
AcDbEntity
  8
PIN_NUMBERS_TOP
100
AcDbText
 10
1664.136
 20
-30795.004
 30
0.0
 40
508.0
  1
94
  7
COURIER_NEW
 72
         1
 11
2100.0
 21
-30572.5
 31
0.0
100
AcDbText
 73
         2
  0
TEXT
  5
10F
100
AcDbEntity
  8
PIN_NUMBERS_TOP
100
AcDbText
 10
1664.136
 20
-31430.004
 30
0.0
 40
508.0
  1
95
  7
COURIER_NEW
 72
         1
 11
2100.0
 21
-31207.5
 31
0.0
100
AcDbText
 73
         2
  0
TEXT
  5
110
100
AcDbEntity
  8
PIN_NUMBERS_TOP
100
AcDbText
 10
1664.136
 20
-32065.004
 30
0.0
 40
508.0
  1
96
  7
COURIER_NEW
 72
         1
 11
2100.0
 21
-31842.5
 31
0.0
100
AcDbText
 73
         2
  0
TEXT
  5
111
100
AcDbEntity
  8
PIN_NUMBERS_TOP
100
AcDbText
 10
1664.136
 20
-32700.004
 30
0.0
 40
508.0
  1
97
  7
COURIER_NEW
 72
         1
 11
2100.0
 21
-32477.5
 31
0.0
100
AcDbText
 73
         2
  0
TEXT
  5
112
100
AcDbEntity
  8
PIN_NUMBERS_TOP
100
AcDbText
 10
1664.136
 20
-33335.004
 30
0.0
 40
508.0
  1
98
  7
COURIER_NEW
 72
         1
 11
2100.0
 21
-33112.5
 31
0.0
100
AcDbText
 73
         2
  0
TEXT
  5
113
100
AcDbEntity
  8
PIN_NUMBERS_TOP
100
AcDbText
 10
1664.136
 20
-33970.004
 30
0.0
 40
508.0
  1
99
  7
COURIER_NEW
 72
         1
 11
2100.0
 21
-33747.5
 31
0.0
100
AcDbText
 73
         2
  0
TEXT
  5
114
100
AcDbEntity
  8
PIN_NUMBERS_TOP
100
AcDbText
 10
1446.204
 20
-34605.004
 30
0.0
 40
508.0
  1
100
  7
COURIER_NEW
 72
         1
 11
2100.0
 21
-34382.5
 31
0.0
100
AcDbText
 73
         2
  0
TEXT
  5
115
100
AcDbEntity
  8
PIN_NUMBERS_TOP
100
AcDbText
 10
-653.796
 20
-37822.504
 30
0.0
 40
508.0
  1
102
  7
COURIER_NEW
 72
         1
 11
0.0
 21
-37600.0
 31
0.0
100
AcDbText
 73
         2
  0
TEXT
  5
116
100
AcDbEntity
  8
PIN_NUMBERS_TOP
100
AcDbText
 10
1346.204
 20
6947.496
 30
0.0
 40
508.0
  1
103
  7
COURIER_NEW
 72
         1
 11
2000.0
 21
7170.0
 31
0.0
100
AcDbText
 73
         2
  0
TEXT
  5
117
100
AcDbEntity
  8
PIN_NUMBERS_TOP
100
AcDbText
 10
1346.204
 20
-45059.504
 30
0.0
 40
508.0
  1
104
  7
COURIER_NEW
 72
         1
 11
2000.0
 21
-44837.0
 31
0.0
100
AcDbText
 73
         2
  0
TEXT
  5
118
100
AcDbEntity
  8
PIN_NUMBERS_TOP
100
AcDbText
 10
-50653.796
 20
6947.496
 30
0.0
 40
508.0
  1
105
  7
COURIER_NEW
 72
         1
 11
-50000.0
 21
7170.0
 31
0.0
100
AcDbText
 73
         2
  0
TEXT
  5
119
100
AcDbEntity
  8
PIN_NUMBERS_TOP
100
AcDbText
 10
-50653.796
 20
-45059.504
 30
0.0
 40
508.0
  1
106
  7
COURIER_NEW
 72
         1
 11
-50000.0
 21
-44837.0
 31
0.0
100
AcDbText
 73
         2
  0
TEXT
  5
11A
100
AcDbEntity
  8
PIN_NUMBERS_TOP
100
AcDbText
 10
-70653.796
 20
6947.496
 30
0.0
 40
508.0
  1
107
  7
COURIER_NEW
 72
         1
 11
-70000.0
 21
7170.0
 31
0.0
100
AcDbText
 73
         2
  0
TEXT
  5
11B
100
AcDbEntity
  8
PIN_NUMBERS_TOP
100
AcDbText
 10
-70653.796
 20
-45059.504
 30
0.0
 40
508.0
  1
108
  7
COURIER_NEW
 72
         1
 11
-70000.0
 21
-44837.0
 31
0.0
100
AcDbText
 73
         2
  0
TEXT
  5
11C
100
AcDbEntity
  8
PIN_NUMBERS_TOP
100
AcDbText
 10
-90653.796
 20
6947.496
 30
0.0
 40
508.0
  1
109
  7
COURIER_NEW
 72
         1
 11
-90000.0
 21
7170.0
 31
0.0
100
AcDbText
 73
         2
  0
TEXT
  5
11D
100
AcDbEntity
  8
PIN_NUMBERS_TOP
100
AcDbText
 10
-90653.796
 20
-45059.504
 30
0.0
 40
508.0
  1
110
  7
COURIER_NEW
 72
         1
 11
-90000.0
 21
-44837.0
 31
0.0
100
AcDbText
 73
         2
  0
TEXT
  5
11E
100
AcDbEntity
  8
PIN_NUMBERS_TOP
100
AcDbText
 10
-653.796
 20
-282.504
 30
0.0
 40
508.0
  1
101
  7
COURIER_NEW
 72
         1
 11
0.0
 21
-60.0
 31
0.0
100
AcDbText
 73
         2
  0
ENDSEC
  0
SECTION
  2
OBJECTS
  0
DICTIONARY
  5
19
100
AcDbDictionary
  3
ACAD_GROUP
350
1A
  3
ACAD_MLINESTYLE
350
1B
  0
DICTIONARY
  5
1A
102
{ACAD_REACTORS
330
19
102
}
100
AcDbDictionary
  0
DICTIONARY
  5
1B
102
{ACAD_REACTORS
330
19
102
}
100
AcDbDictionary
  3
STANDARD
350
1C
  0
MLINESTYLE
  5
1C
102
{ACAD_REACTORS
330
1B
102
}
100
AcDbMlineStyle
  2
STANDARD
 70
         0
  3

 62
         0
 51
90.0
 52
90.0
 71
         2
 49
0.5
 62
       256
  6
BYLAYER
 49
-0.5
 62
       256
  6
BYLAYER
  0
DICTIONARY
  5
22
102
{ACAD_REACTORS
330
19
102
}
100
AcDbDictionary
  0
ENDSEC
  0
EOF
