  0
SECTION
  2
HEADER
  9
$ACADVER
  1
AC1014
  9
$ACADMAINTVER
 70
         0
  9
$DWGCODEPAGE
  3
ANSI_1252
  9
$INSBASE
 10
0.0
 20
0.0
 30
0.0
  9
$EXTMIN
 10
-10.15
 20
-6.2
 30
0.0
  9
$EXTMAX
 10
81.98
 20
75.14
 30
0.0
  9
$LIMMIN
 10
0.0
 20
0.0
  9
$LIMMAX
 10
0.0
 20
0.0
  9
$ORTHOMODE
 70
         0
  9
$REGENMODE
 70
         1
  9
$FILLMODE
 70
         1
  9
$QTEXTMODE
 70
         0
  9
$MIRRTEXT
 70
         1
  9
$DRAGMODE
 70
         2
  9
$LTSCALE
 40
1.0
  9
$OSMODE
 70
         0
  9
$ATTMODE
 70
         1
  9
$TEXTSIZE
 40
0.2
  9
$TRACEWID
 40
0.05
  9
$TEXTSTYLE
  7
STANDARD
  9
$CLAYER
  8
0
  9
$CELTYPE
  6
CONTINUOUS
  9
$CECOLOR
 62
       256
  9
$CELTSCALE
 40
1.0
  9
$DELOBJ
 70
         1
  9
$DISPSILH
 70
         0
  9
$DIMSCALE
 40
1.0
  9
$DIMASZ
 40
0.18
  9
$DIMEXO
 40
0.0625
  9
$DIMDLI
 40
0.38
  9
$DIMRND
 40
0.0
  9
$DIMDLE
 40
0.0
  9
$DIMEXE
 40
0.18
  9
$DIMTP
 40
0.0
  9
$DIMTM
 40
0.0
  9
$DIMTXT
 40
0.18
  9
$DIMCEN
 40
0.09
  9
$DIMTSZ
 40
0.0
  9
$DIMTOL
 70
         0
  9
$DIMLIM
 70
         0
  9
$DIMTIH
 70
         1
  9
$DIMTOH
 70
         1
  9
$DIMSE1
 70
         0
  9
$DIMSE2
 70
         0
  9
$DIMTAD
 70
         0
  9
$DIMZIN
 70
         0
  9
$DIMBLK
  1

  9
$DIMASO
 70
         1
  9
$DIMSHO
 70
         1
  9
$DIMPOST
  1

  9
$DIMAPOST
  1

  9
$DIMALT
 70
         0
  9
$DIMALTD
 70
         2
  9
$DIMALTF
 40
25.4
  9
$DIMLFAC
 40
1.0
  9
$DIMTOFL
 70
         0
  9
$DIMTVP
 40
0.0
  9
$DIMTIX
 70
         0
  9
$DIMSOXD
 70
         0
  9
$DIMSAH
 70
         0
  9
$DIMBLK1
  1

  9
$DIMBLK2
  1

  9
$DIMSTYLE
  2
STANDARD
  9
$DIMCLRD
 70
         0
  9
$DIMCLRE
 70
         0
  9
$DIMCLRT
 70
         0
  9
$DIMTFAC
 40
1.0
  9
$DIMGAP
 40
0.09
  9
$DIMJUST
 70
         0
  9
$DIMSD1
 70
         0
  9
$DIMSD2
 70
         0
  9
$DIMTOLJ
 70
         1
  9
$DIMTZIN
 70
         0
  9
$DIMALTZ
 70
         0
  9
$DIMALTTZ
 70
         0
  9
$DIMFIT
 70
         3
  9
$DIMUPT
 70
         0
  9
$DIMUNIT
 70
         2
  9
$DIMDEC
 70
         4
  9
$DIMTDEC
 70
         4
  9
$DIMALTU
 70
         2
  9
$DIMALTTD
 70
         2
  9
$DIMTXSTY
  7
STANDARD
  9
$DIMAUNIT
 70
         0
  9
$LUNITS
 70
         2
  9
$LUPREC
 70
         4
  9
$SKETCHINC
 40
0.1
  9
$FILLETRAD
 40
0.0
  9
$AUNITS
 70
         0
  9
$AUPREC
 70
         0
  9
$MENU
  1
acad
  9
$ELEVATION
 40
0.0
  9
$PELEVATION
 40
0.0
  9
$THICKNESS
 40
0.0
  9
$LIMCHECK
 70
         0
  9
$BLIPMODE
 70
         1
  9
$CHAMFERA
 40
0.0
  9
$CHAMFERB
 40
0.0
  9
$CHAMFERC
 40
0.0
  9
$CHAMFERD
 40
0.0
  9
$SKPOLY
 70
         0
  9
$TDCREATE
 40
2455422.377754630
  9
$TDUPDATE
 40
0.000000000
  9
$TDINDWG
 40
0.0000000000
  9
$TDUSRTIMER
 40
0.0000000000
  9
$USRTIMER
 70
         1
  9
$ANGBASE
 50
0.0
  9
$ANGDIR
 70
         0
  9
$PDMODE
 70
         0
  9
$PDSIZE
 40
0.0
  9
$PLINEWID
 40
0.0
  9
$COORDS
 70
         0
  9
$SPLFRAME
 70
         0
  9
$SPLINETYPE
 70
         6
  9
$SPLINESEGS
 70
         8
  9
$ATTDIA
 70
         0
  9
$ATTREQ
 70
         1
  9
$HANDLING
 70
         1
  9
$HANDSEED
  5
62E
  9
$SURFTAB1
 70
         6
  9
$SURFTAB2
 70
         6
  9
$SURFTYPE
 70
         6
  9
$SURFU
 70
         6
  9
$SURFV
 70
         6
  9
$UCSNAME
  2

  9
$UCSORG
 10
0.0
 20
0.0
 30
0.0
  9
$UCSXDIR
 10
1.0
 20
0.0
 30
0.0
  9
$UCSYDIR
 10
0.0
 20
1.0
 30
0.0
  9
$PUCSNAME
  2

  9
$PUCSORG
 10
0.0
 20
0.0
 30
0.0
  9
$PUCSXDIR
 10
1.0
 20
0.0
 30
0.0
  9
$PUCSYDIR
 10
0.0
 20
1.0
 30
0.0
  9
$USERI1
 70
        -3
  9
$USERI2
 70
         0
  9
$USERI3
 70
         0
  9
$USERI4
 70
         0
  9
$USERI5
 70
         0
  9
$USERR1
 40
0.0
  9
$USERR2
 40
0.0
  9
$USERR3
 40
0.0
  9
$USERR4
 40
0.0
  9
$USERR5
 40
0.0
  9
$WORLDVIEW
 70
         1
  9
$SHADEDGE
 70
         3
  9
$SHADEDIF
 70
        70
  9
$TILEMODE
 70
         1
  9
$MAXACTVP
 70
        16
  9
$PINSBASE
 10
0.0
 20
0.0
 30
0.0
  9
$PLIMCHECK
 70
         0
  9
$PEXTMIN
 10
1.0000000000E+20
 20
1.0000000000E+20
 30
1.0000000000E+20
  9
$PEXTMAX
 10
-1.0000000000E+20
 20
-1.0000000000E+20
 30
-1.0000000000E+20
  9
$PLIMMIN
 10
0.0
 20
0.0
  9
$PLIMMAX
 10
12.0
 20
9.0
  9
$UNITMODE
 70
         0
  9
$VISRETAIN
 70
         0
  9
$PLINEGEN
 70
         1
  9
$PSLTSCALE
 70
         0
  9
$TREEDEPTH
 70
      3020
  9
$PICKSTYLE
 70
         1
  9
$CMLSTYLE
  2
STANDARD
  9
$CMLJUST
 70
         0
  9
$CMLSCALE
 40
1.0
  9
$PROXYGRAPHICS
 70
         0
  9
$MEASUREMENT
 70
         0
  0
ENDSEC
  0
SECTION
  2
CLASSES
  0
CLASS
  1
LWPOLYLINE
  2
AcDbPolyline
  3
"AutoCAD"
 90
        0
280
         0
281
         1
  0
CLASS
  1
IMAGE
  2
AcDbRasterImage
  3
ISM
 90
      127
280
         0
281
         1
  0
CLASS
  1
OLE2FRAME
  2
AcDbOle2Frame
  3
""
 90
        0
280
         0
281
         1
  0
CLASS
  1
HATCH
  2
AcDbHatch
  3
"ACAD_SEDONA"
 90
        0
280
         0
281
         1
  0
CLASS
  1
DICTIONARYVAR
  2
AcDbDictionaryVar
  3
"AutoCAD"
 90
        0
280
         0
281
         0
  0
CLASS
  1
RASTERVARIABLES
  2
AcDbRasterVariables
  3
ISM
 90
        0
280
         0
281
         0
  0
CLASS
  1
IMAGEDEF
  2
AcDbRasterImageDef
  3
ISM
 90
        0
280
         0
281
         0
  0
CLASS
  1
IMAGEDEF_REACTOR
  2
AcDbRasterImageDefReactor
  3
ISM
 90
        1
280
         0
281
         0
  0
CLASS
  1
IDBUFFER
  2
AcDbIdBuffer
  3
"Acad"
 90
        0
280
         0
281
         0
  0
CLASS
  1
SPATIAL_FILTER
  2
AcDbSpatialFilter
  3
"Acad"
 90
        0
280
         0
281
         0
  0
CLASS
  1
XRECORD
  2
AcDbXrecord
  3
"<Built In>"
 90
        0
280
         0
281
         0
  0
CLASS
  1
SORTENTSTABLE
  2
AcDbSortentsTable
  3
"AutoCAD"
 90
        0
280
         0
281
         0
  0
CLASS
  1
LAYER_INDEX
  2
AcDbLayerIndex
  3
"Acad"
 90
        0
280
         0
281
         0
  0
CLASS
  1
SPATIAL_INDEX
  2
AcDbSpatialIndex
  3
"Acad"
 90
        0
280
         0
281
         0
  0
CLASS
  1
OBJECT_PTR
  2
CAseDLPNTableRecord
  3
"ASE-LPNTableRecord"
 90
        1
280
         0
281
         0
  0
CLASS
  1
LAYOUT
  2
AcDbLayout
  3
"AutoCAD 2000"
 90
        0
280
         0
281
         0
  0
CLASS
  1
PLOTSETTINGS
  2
AcDbPlotSettings
  3
"AutoCAD 2000"
 90
        0
280
         0
281
         0
  0
CLASS
  1
ACDBDICTIONARYWDFLT
  2
AcDbDictionaryWithDefault
  3
"AutoCAD 2000"
 90
        0
280
         0
281
         0
  0
CLASS
  1
ACDBPLACEHOLDER
  2
AcDbPlaceHolder
  3
"AutoCAD 2000"
 90
        0
280
         0
281
         0
  0
CLASS
  1
VBA_PROJECT
  2
AcDbVbaProject
  3
"acadvba"
 90
        0
280
         0
281
         0
  0
CLASS
  1
WIPEOUT
  2
AcDbWipeout
  3
WipeOut|AutoCAD Express Tool|expresstools@autodesk.com
 90
      127
280
         0
281
         1
  0
CLASS
  1
WIPEOUTVARIABLES
  2
AcDbWipeoutVariables
  3
WipeOut|AutoCAD Express Tool|expresstools@autodesk.com
 90
        0
280
         0
281
         0
  0
CLASS
  1
RTEXT
  2
RText
  3
RText|AutoCAD Express Tool|expresstools@autodesk.com
 90
        0
280
         0
281
         1
  0
CLASS
  1
ARCALIGNEDTEXT
  2
AcDbArcAlignedText
  3
ATEXT|AutoCAD Express Tool|expresstools@autodesk.com
 90
        0
280
         0
281
         1
  0
ENDSEC
  0
SECTION
  2
TABLES
  0
TABLE
  2
VPORT
  5
7
100
AcDbSymbolTable
 70
         1
  0
VPORT
  5
15
100
AcDbSymbolTableRecord
100
AcDbViewportTableRecord
  2
*ACTIVE
 70
         0
 10
0.0
 20
0.0
 11
1.0
 21
1.0
 12
6.591288
 22
4.579184
 13
0.0
 23
0.0
 14
1.0
 24
1.0
 15
0.0
 25
0.0
 16
0.0
 26
0.0
 36
1.0
 17
0.0
 27
0.0
 37
0.0
 40
9.158369
 41
0.688564
 42
50.0
 43
0.0
 44
0.0
 50
0.0
 51
0.0
 71
         0
 72
       100
 73
         1
 74
         1
 75
         0
 76
         0
 77
         0
 78
         0
  0
ENDTAB
  0
TABLE
  2
LTYPE
  5
4
100
AcDbSymbolTable
 70
         3
  0
LTYPE
  5
11
100
AcDbSymbolTableRecord
100
AcDbLinetypeTableRecord
  2
BYBLOCK
 70
        64
  3

 72
        65
 73
         0
 40
0.0
  0
LTYPE
  5
12
100
AcDbSymbolTableRecord
100
AcDbLinetypeTableRecord
  2
BYLAYER
 70
        64
  3

 72
        65
 73
         0
 40
0.0
  0
LTYPE
  5
13
100
AcDbSymbolTableRecord
100
AcDbLinetypeTableRecord
  2
CONTINUOUS
 70
        64
  3
Solid line
 72
        65
 73
         0
 40
0.0
  0
ENDTAB
  0
TABLE
  2
LAYER
  5
2
100
AcDbSymbolTable
 70
        20
  0
LAYER
  5
14
100
AcDbSymbolTableRecord
100
AcDbLayerTableRecord
  2
0
 70
         0
 62
         7
  6
CONTINUOUS
  0
LAYER
  5
24
100
AcDbSymbolTableRecord
100
AcDbLayerTableRecord
  2
ASSEMBLY_OUTLINES_TOP
 70
         0
 62
       104
  6
CONTINUOUS
  0
LAYER
  5
25
100
AcDbSymbolTableRecord
100
AcDbLayerTableRecord
  2
ASSEMBLY_PART_NUMBERS_TOP
 70
         0
 62
       200
  6
CONTINUOUS
  0
LAYER
  5
26
100
AcDbSymbolTableRecord
100
AcDbLayerTableRecord
  2
ASSEMBLY_REF_DES_TOP
 70
         0
 62
        30
  6
CONTINUOUS
  0
LAYER
  5
27
100
AcDbSymbolTableRecord
100
AcDbLayerTableRecord
  2
DIMENSION
 70
         0
 62
        10
  6
CONTINUOUS
  0
LAYER
  5
28
100
AcDbSymbolTableRecord
100
AcDbLayerTableRecord
  2
MOUNTING_HOLES_LAYER_TOP
 70
         0
 62
       104
  6
CONTINUOUS
  0
LAYER
  5
29
100
AcDbSymbolTableRecord
100
AcDbLayerTableRecord
  2
MOUNTING_HOLES_LAYER_BOTT6
 70
         0
 62
       104
  6
CONTINUOUS
  0
LAYER
  5
2A
100
AcDbSymbolTableRecord
100
AcDbLayerTableRecord
  2
NC_DRILL_ORIGIN
 70
         0
 62
       244
  6
CONTINUOUS
  0
LAYER
  5
2B
100
AcDbSymbolTableRecord
100
AcDbLayerTableRecord
  2
PART_HOLES_LAYER_TOP
 70
         0
 62
       170
  6
CONTINUOUS
  0
LAYER
  5
2C
100
AcDbSymbolTableRecord
100
AcDbLayerTableRecord
  2
PART_HOLES_LAYER_BOTTOM
 70
         0
 62
       170
  6
CONTINUOUS
  0
LAYER
  5
2D
100
AcDbSymbolTableRecord
100
AcDbLayerTableRecord
  2
PART_PADS_LAYER_TOP
 70
         0
 62
       170
  6
CONTINUOUS
  0
LAYER
  5
2E
100
AcDbSymbolTableRecord
100
AcDbLayerTableRecord
  2
PART_PADS_LAYER_BOTTOM
 70
         0
 62
       221
  6
CONTINUOUS
  0
LAYER
  5
2F
100
AcDbSymbolTableRecord
100
AcDbLayerTableRecord
  2
PART_PADS_SMD_TOP
 70
         0
 62
       170
  6
CONTINUOUS
  0
LAYER
  5
30
100
AcDbSymbolTableRecord
100
AcDbLayerTableRecord
  2
PIN_NUMBERS_TOP
 70
         0
 62
         8
  6
CONTINUOUS
  0
LAYER
  5
31
100
AcDbSymbolTableRecord
100
AcDbLayerTableRecord
  2
PLACEMENT_OUTLINES_TOP
 70
         0
 62
       150
  6
CONTINUOUS
  0
LAYER
  5
32
100
AcDbSymbolTableRecord
100
AcDbLayerTableRecord
  2
SILKSCREEN_OUTLINES_TOP
 70
         0
 62
       104
  6
CONTINUOUS
  0
LAYER
  5
33
100
AcDbSymbolTableRecord
100
AcDbLayerTableRecord
  2
SILKSCREEN_REF_DES_TOP
 70
         0
 62
        10
  6
CONTINUOUS
  0
LAYER
  5
34
100
AcDbSymbolTableRecord
100
AcDbLayerTableRecord
  2
SOLDERMASK_PADS_BTM
 70
         0
 62
       151
  6
CONTINUOUS
  0
LAYER
  5
35
100
AcDbSymbolTableRecord
100
AcDbLayerTableRecord
  2
SOLDERMASK_PADS_TOP
 70
         0
 62
        81
  6
CONTINUOUS
  0
LAYER
  5
36
100
AcDbSymbolTableRecord
100
AcDbLayerTableRecord
  2
SOLDERPASTE_PADS_TOP
 70
         0
 62
        81
  6
CONTINUOUS
  0
ENDTAB
  0
TABLE
  2
STYLE
  5
3
100
AcDbSymbolTable
 70
         4
  0
STYLE
  5
17
100
AcDbSymbolTableRecord
100
AcDbTextStyleTableRecord
  2
STANDARD
 70
         0
 40
0.0
 41
1.0
 50
0.0
 71
         0
 42
0.0
  3
txt
  4

  0
STYLE
  5
3E
100
AcDbSymbolTableRecord
100
AcDbTextStyleTableRecord
  2
ARIAL
 70
         0
 40
0.0
 41
1.0
 50
0.0
 71
         0
 42
0.0
  3
ARIAL.TTF
  4

  0
STYLE
  5
24D
100
AcDbSymbolTableRecord
100
AcDbTextStyleTableRecord
  2
COURIER_NEW
 70
         0
 40
0.0
 41
1.0
 50
0.0
 71
         0
 42
0.0
  3
COUR.TTF
  4

  0
STYLE
  5
39C
100
AcDbSymbolTableRecord
100
AcDbTextStyleTableRecord
  2
VERIBEST_GERBER_0
 70
         0
 40
0.0
 41
1.0
 50
0.0
 71
         0
 42
0.0
  3
COUR.TTF
  4

  0
ENDTAB
  0
TABLE
  2
VIEW
  5
5
100
AcDbSymbolTable
 70
         0
  0
ENDTAB
  0
TABLE
  2
UCS
  5
6
100
AcDbSymbolTable
 70
         0
  0
ENDTAB
  0
TABLE
  2
APPID
  5
8
100
AcDbSymbolTable
 70
         1
  0
APPID
  5
16
100
AcDbSymbolTableRecord
100
AcDbRegAppTableRecord
  2
ACAD
 70
         0
  0
ENDTAB
  0
TABLE
  2
DIMSTYLE
  5
9
100
AcDbSymbolTable
 70
         1
  0
DIMSTYLE
105
18
100
AcDbSymbolTableRecord
100
AcDbDimStyleTableRecord
  2
STANDARD
 70
         0
  3

  4

  5

  6

  7

 40
1.0
 41
0.18
 42
0.0625
 43
0.38
 44
0.18
 45
0.0
 46
0.0
 47
0.0
 48
0.0
 71
         0
 72
         0
 73
         1
 74
         1
 75
         0
 76
         0
 77
         0
 78
         0
140
0.18
141
0.09
142
0.0
143
25.4
144
1.0
145
0.0
146
1.0
147
0.09
170
         0
171
         2
172
         0
173
         0
174
         0
175
         0
176
         0
177
         0
178
         0
270
         2
271
         4
272
         4
273
         2
274
         2
275
         0
280
         0
281
         0
282
         0
283
         1
284
         0
285
         0
286
         0
287
         3
288
         0
340
17
  0
ENDTAB
  0
TABLE
  2
BLOCK_RECORD
  5
1
100
AcDbSymbolTable
 70
         0
  0
BLOCK_RECORD
  5
A
100
AcDbSymbolTableRecord
100
AcDbBlockTableRecord
  2
*MODEL_SPACE
  0
BLOCK_RECORD
  5
B
100
AcDbSymbolTableRecord
100
AcDbBlockTableRecord
  2
*PAPER_SPACE
  0
ENDTAB
  0
ENDSEC
  0
SECTION
  2
BLOCKS
  0
BLOCK
  5
D
100
AcDbEntity
  8
0
100
AcDbBlockBegin
  2
*MODEL_SPACE
 70
         0
 10
0.0
 20
0.0
 30
0.0
  3
*MODEL_SPACE
  1

  0
ENDBLK
  5
E
100
AcDbEntity
  8
0
100
AcDbBlockEnd
  0
BLOCK
  5
F
100
AcDbEntity
 67
         1
  8
0
100
AcDbBlockBegin
  2
*PAPER_SPACE
 70
         0
 10
0.0
 20
0.0
 30
0.0
  3
*PAPER_SPACE
  1

  0
ENDBLK
  5
10
100
AcDbEntity
 67
         1
  8
0
100
AcDbBlockEnd
  0
ENDSEC
  0
SECTION
  2
ENTITIES
  0
LWPOLYLINE
  5
37
100
AcDbEntity
  8
ASSEMBLY_OUTLINES_TOP
100
AcDbPolyline
 90
        4
 70
         1
 43
0.2
 10
-1.905
 20
-3.81
 10
-1.905
 20
3.79
 10
58.795
 20
3.79
 10
58.795
 20
-3.81
  0
LWPOLYLINE
  5
38
100
AcDbEntity
  8
ASSEMBLY_OUTLINES_TOP
100
AcDbPolyline
 90
        4
 70
         1
 43
0.2
 10
-1.905
 20
43.815
 10
-1.905
 20
51.415
 10
58.795
 20
51.415
 10
58.795
 20
43.815
  0
LWPOLYLINE
  5
39
100
AcDbEntity
  8
ASSEMBLY_OUTLINES_TOP
100
AcDbPolyline
 90
        2
 70
         0
 43
0.2
 10
-1.75
 20
49.5
 10
0.25
 20
51.25
  0
LWPOLYLINE
  5
3A
100
AcDbEntity
  8
ASSEMBLY_OUTLINES_TOP
100
AcDbPolyline
 90
        4
 70
         1
 43
0.2
 10
-6.7
 20
-4.8
 10
-6.7
 20
52.4
 10
63.4
 20
52.4
 10
63.4
 20
-4.8
  0
LWPOLYLINE
  5
3B
100
AcDbEntity
  8
ASSEMBLY_OUTLINES_TOP
100
AcDbPolyline
 90
        3
 70
         1
 10
-6.7
 20
-2.4
 10
-4.3
 20
-4.8
 10
-6.7
 20
-4.8
  0
HATCH
  5
3C
100
AcDbEntity
  8
ASSEMBLY_OUTLINES_TOP
100
AcDbHatch
 10
0.0
 20
0.0
 30
0.0
210
0.0
220
0.0
230
1.0
  2
SOLID
 70
         1
 71
         1
 91
        1
 92
        2
 72
         0
 73
         1
 93
        3
 10
-6.7000000000000002
 20
-2.3999999999999999
 10
-4.2999999999999998
 20
-4.7999999999999998
 10
-6.7000000000000002
 20
-4.7999999999999998
 97
        1
330
3B
 75
         0
 76
         1
 98
        1
 10
0.0
 20
0.0
  0
LWPOLYLINE
  5
3D
100
AcDbEntity
  8
ASSEMBLY_OUTLINES_TOP
100
AcDbPolyline
 90
        4
 70
         1
 43
0.05
 10
-10.15
 20
-6.2
 10
-10.15
 20
53.8
 10
66.85
 20
53.8
 10
66.85
 20
-6.2
  0
TEXT
  5
3F
100
AcDbEntity
  8
ASSEMBLY_PART_NUMBERS_TOP
100
AcDbText
 10
60.96
 20
45.32001
 30
0.0
 40
1.0
  1
Part No
 50
90.0
  7
ARIAL
 72
         2
 11
60.96
 21
50.16501
 31
0.0
100
AcDbText
 73
         1
  0
TEXT
  5
40
100
AcDbEntity
  8
ASSEMBLY_REF_DES_TOP
100
AcDbText
 10
0.735925
 20
0.355925
 30
0.0
 40
1.0
  1
Ref Des
 50
90.0
  7
ARIAL
 72
         2
 11
0.735925
 21
5.518925
 31
0.0
100
AcDbText
 73
         1
  0
TEXT
  5
41
100
AcDbEntity
  8
DIMENSION
100
AcDbText
 10
73.6904
 20
3.119902
 30
0.0
 40
1.27
  1
1.5mm
 50
90.0
  7
ARIAL
 72
         1
 11
73.03
 21
5.892947
 31
0.0
100
AcDbText
 73
         2
  0
TEXT
  5
42
100
AcDbEntity
  8
DIMENSION
100
AcDbText
 10
73.9104
 20
20.52213
 30
0.0
 40
1.27
  1
47.6mm
 50
90.0
  7
ARIAL
 72
         1
 11
73.25
 21
23.8
 31
0.0
100
AcDbText
 73
         2
  0
TEXT
  5
43
100
AcDbEntity
  8
DIMENSION
100
AcDbText
 10
55.159761
 20
5.319902
 30
0.0
 40
1.27
  1
2.2mm
 50
90.0
  7
ARIAL
 72
         1
 11
54.499361
 21
8.092947
 31
0.0
100
AcDbText
 73
         2
  0
TEXT
  5
44
100
AcDbEntity
  8
DIMENSION
100
AcDbText
 10
73.882076
 20
52.659836
 30
0.0
 40
1.27
  1
1.5mm
 50
90.0
  7
ARIAL
 72
         1
 11
73.221676
 21
55.432881
 31
0.0
100
AcDbText
 73
         2
  0
TEXT
  5
45
100
AcDbEntity
  8
DIMENSION
100
AcDbText
 10
25.07213
 20
68.654526
 30
0.0
 40
1.27
  1
64.7mm
  7
ARIAL
 72
         1
 11
28.35
 21
69.314926
 31
0.0
100
AcDbText
 73
         2
  0
TEXT
  5
46
100
AcDbEntity
  8
DIMENSION
100
AcDbText
 10
24.567305
 20
65.372532
 30
0.0
 40
1.27
  1
56.27mm
  7
ARIAL
 72
         1
 11
28.35
 21
66.032932
 31
0.0
100
AcDbText
 73
         2
  0
TEXT
  5
47
100
AcDbEntity
  8
DIMENSION
100
AcDbText
 10
24.567305
 20
62.789314
 30
0.0
 40
1.27
  1
52.67mm
  7
ARIAL
 72
         1
 11
28.35
 21
63.449714
 31
0.0
100
AcDbText
 73
         2
  0
TEXT
  5
48
100
AcDbEntity
  8
DIMENSION
100
AcDbText
 10
24.06248
 20
60.163144
 30
0.0
 40
1.27
  1
50.165mm
  7
ARIAL
 72
         1
 11
28.35
 21
60.823544
 31
0.0
100
AcDbText
 73
         2
  0
TEXT
  5
49
100
AcDbEntity
  8
DIMENSION
100
AcDbText
 10
23.582885
 20
56.058702
 30
0.0
 40
1.27
  1
0.635mm
  7
ARIAL
 72
         1
 11
27.36558
 21
56.719102
 31
0.0
100
AcDbText
 73
         2
  0
TEXT
  5
4A
100
AcDbEntity
  8
DIMENSION
100
AcDbText
 10
64.949366
 20
65.077098
 30
0.0
 40
1.27
  1
4.21mm
  7
ARIAL
 72
         1
 11
68.227236
 21
65.737498
 31
0.0
100
AcDbText
 73
         2
  0
TEXT
  5
4B
100
AcDbEntity
  8
DIMENSION
100
AcDbText
 10
64.959912
 20
62.603378
 30
0.0
 40
1.27
  1
6.01mm
  7
ARIAL
 72
         1
 11
68.237782
 21
63.263778
 31
0.0
100
AcDbText
 73
         2
  0
TEXT
  5
4C
100
AcDbEntity
  8
DIMENSION
100
AcDbText
 10
65.049562
 20
59.919078
 30
0.0
 40
1.27
  1
7.27mm
  7
ARIAL
 72
         1
 11
68.327432
 21
60.579478
 31
0.0
100
AcDbText
 73
         2
  0
TEXT
  5
4D
100
AcDbEntity
  8
DIMENSION
100
AcDbText
 10
78.1604
 20
20.52213
 30
0.0
 40
1.27
  1
50.6mm
 50
90.0
  7
ARIAL
 72
         1
 11
77.5
 21
23.8
 31
0.0
100
AcDbText
 73
         2
  0
TEXT
  5
4E
100
AcDbEntity
  8
DIMENSION
100
AcDbText
 10
0.452668
 20
29.7496
 30
0.0
 40
1.27
  1
D2.7mm
  7
ARIAL
 72
         1
 11
3.881033
 21
30.41
 31
0.0
100
AcDbText
 73
         2
  0
TEXT
  5
4F
100
AcDbEntity
  8
DIMENSION
100
AcDbText
 10
6.372668
 20
34.3896
 30
0.0
 40
1.27
  1
D0.9mm
  7
ARIAL
 72
         1
 11
9.801033
 21
35.05
 31
0.0
100
AcDbText
 73
         2
  0
TEXT
  5
50
100
AcDbEntity
  8
DIMENSION
100
AcDbText
 10
59.452668
 20
34.1296
 30
0.0
 40
1.27
  1
D0.7mm
  7
ARIAL
 72
         1
 11
62.881033
 21
34.79
 31
0.0
100
AcDbText
 73
         2
  0
TEXT
  5
51
100
AcDbEntity
  8
DIMENSION
100
AcDbText
 10
2.787929
 20
5.319902
 30
0.0
 40
1.27
  1
4.4mm
 50
90.0
  7
ARIAL
 72
         1
 11
2.127529
 21
8.092947
 31
0.0
100
AcDbText
 73
         2
  0
TEXT
  5
52
100
AcDbEntity
  8
DIMENSION
100
AcDbText
 10
46.95
 20
74.19
 30
0.0
 40
1.5
  1
C +/- 0,2mm
  7
ARIAL
 11
46.95
 21
75.75
 31
0.0
100
AcDbText
 73
         3
  0
TEXT
  5
53
100
AcDbEntity
  8
DIMENSION
100
AcDbText
 10
22.78
 20
74.27
 30
0.0
 40
1.5
  1
A +/- 0,2mm
  7
ARIAL
 11
22.78
 21
75.83
 31
0.0
100
AcDbText
 73
         3
  0
TEXT
  5
54
100
AcDbEntity
  8
DIMENSION
100
AcDbText
 10
84.6
 20
17.54
 30
0.0
 40
1.5
  1
B +/- 0,2mm
 50
90.0
  7
ARIAL
 11
83.04
 21
17.54
 31
0.0
100
AcDbText
 73
         3
  0
TEXT
  5
55
100
AcDbEntity
  8
DIMENSION
100
AcDbText
 10
69.82
 20
-18.74
 30
0.0
 40
1.5
  1
D +/- 0,2mm
 50
90.0
  7
ARIAL
 11
68.26
 21
-18.74
 31
0.0
100
AcDbText
 73
         3
  0
TEXT
  5
56
100
AcDbEntity
  8
DIMENSION
100
AcDbText
 10
15.09
 20
-12.08
 30
0.0
 40
1.5
  1
alle maße mit einer Toleranz von +/- 0,1mm
  7
ARIAL
 11
15.09
 21
-10.52
 31
0.0
100
AcDbText
 73
         3
  0
LWPOLYLINE
  5
57
100
AcDbEntity
  8
DIMENSION
100
AcDbPolyline
 90
        2
 70
         0
 43
0.2
 10
19.7775
 20
45.91
 10
19.7775
 20
57.229102
  0
LWPOLYLINE
  5
58
100
AcDbEntity
  8
DIMENSION
100
AcDbPolyline
 90
        2
 70
         0
 43
0.2
 10
20.4125
 20
45.91
 10
20.4125
 20
57.229102
  0
LWPOLYLINE
  5
59
100
AcDbEntity
  8
DIMENSION
100
AcDbPolyline
 90
        2
 70
         0
 43
0.2
 10
19.2075
 20
56.719102
 10
16.9275
 20
56.719102
  0
LWPOLYLINE
  5
5A
100
AcDbEntity
  8
DIMENSION
100
AcDbPolyline
 90
        2
 70
         0
 43
0.2
 10
20.9825
 20
56.719102
 10
23.2625
 20
56.719102
  0
LWPOLYLINE
  5
5B
100
AcDbEntity
  8
DIMENSION
100
AcDbPolyline
 90
        3
 70
         1
 10
19.7775
 20
56.719102
 10
18.6375
 20
56.149102
 10
18.6375
 20
57.289102
  0
HATCH
  5
5C
100
AcDbEntity
  8
DIMENSION
100
AcDbHatch
 10
0.0
 20
0.0
 30
0.0
210
0.0
220
0.0
230
1.0
  2
SOLID
 70
         1
 71
         1
 91
        1
 92
        2
 72
         0
 73
         1
 93
        3
 10
19.7775
 20
56.719101999999999
 10
18.637499999999999
 20
56.149101999999999
 10
18.637499999999999
 20
57.289102
 97
        1
330
5B
 75
         0
 76
         1
 98
        1
 10
0.0
 20
0.0
  0
LWPOLYLINE
  5
5D
100
AcDbEntity
  8
DIMENSION
100
AcDbPolyline
 90
        3
 70
         1
 10
20.4125
 20
56.719102
 10
21.5525
 20
57.289102
 10
21.5525
 20
56.149102
  0
HATCH
  5
5E
100
AcDbEntity
  8
DIMENSION
100
AcDbHatch
 10
0.0
 20
0.0
 30
0.0
210
0.0
220
0.0
230
1.0
  2
SOLID
 70
         1
 71
         1
 91
        1
 92
        2
 72
         0
 73
         1
 93
        3
 10
20.412500000000001
 20
56.719101999999999
 10
21.552499999999998
 20
57.289102
 10
21.552499999999998
 20
56.149101999999999
 97
        1
330
5D
 75
         0
 76
         1
 98
        1
 10
0.0
 20
0.0
  0
LWPOLYLINE
  5
5F
100
AcDbEntity
  8
DIMENSION
100
AcDbPolyline
 90
        2
 70
         0
 43
0.2
 10
3.2675
 20
50.31
 10
3.2675
 20
61.333544
  0
LWPOLYLINE
  5
60
100
AcDbEntity
  8
DIMENSION
100
AcDbPolyline
 90
        2
 70
         0
 43
0.2
 10
53.4325
 20
50.31
 10
53.4325
 20
61.333544
  0
LWPOLYLINE
  5
61
100
AcDbEntity
  8
DIMENSION
100
AcDbPolyline
 90
        2
 70
         0
 43
0.2
 10
3.8375
 20
60.823544
 10
23.616854
 20
60.823544
  0
LWPOLYLINE
  5
62
100
AcDbEntity
  8
DIMENSION
100
AcDbPolyline
 90
        2
 70
         0
 43
0.2
 10
33.083146
 20
60.823544
 10
52.8625
 20
60.823544
  0
LWPOLYLINE
  5
63
100
AcDbEntity
  8
DIMENSION
100
AcDbPolyline
 90
        3
 70
         1
 10
3.2675
 20
60.823544
 10
4.4075
 20
61.393544
 10
4.4075
 20
60.253544
  0
HATCH
  5
64
100
AcDbEntity
  8
DIMENSION
100
AcDbHatch
 10
0.0
 20
0.0
 30
0.0
210
0.0
220
0.0
230
1.0
  2
SOLID
 70
         1
 71
         1
 91
        1
 92
        2
 72
         0
 73
         1
 93
        3
 10
3.2675000000000001
 20
60.823543999999998
 10
4.4074999999999998
 20
61.393543999999999
 10
4.4074999999999998
 20
60.253543999999998
 97
        1
330
63
 75
         0
 76
         1
 98
        1
 10
0.0
 20
0.0
  0
LWPOLYLINE
  5
65
100
AcDbEntity
  8
DIMENSION
100
AcDbPolyline
 90
        3
 70
         1
 10
53.4325
 20
60.823544
 10
52.2925
 20
60.253544
 10
52.2925
 20
61.393544
  0
HATCH
  5
66
100
AcDbEntity
  8
DIMENSION
100
AcDbHatch
 10
0.0
 20
0.0
 30
0.0
210
0.0
220
0.0
230
1.0
  2
SOLID
 70
         1
 71
         1
 91
        1
 92
        2
 72
         0
 73
         1
 93
        3
 10
53.432499999999997
 20
60.823543999999998
 10
52.292499999999997
 20
60.253543999999998
 10
52.292499999999997
 20
61.393543999999999
 97
        1
330
65
 75
         0
 76
         1
 98
        1
 10
0.0
 20
0.0
  0
LWPOLYLINE
  5
67
100
AcDbEntity
  8
DIMENSION
100
AcDbPolyline
 90
        2
 70
         0
 43
0.2
 10
2.015
 20
48.11
 10
2.015
 20
63.959715
  0
LWPOLYLINE
  5
68
100
AcDbEntity
  8
DIMENSION
100
AcDbPolyline
 90
        2
 70
         0
 43
0.2
 10
54.685
 20
48.11
 10
54.685
 20
63.959715
  0
LWPOLYLINE
  5
69
100
AcDbEntity
  8
DIMENSION
100
AcDbPolyline
 90
        2
 70
         0
 43
0.2
 10
2.585
 20
63.449715
 10
24.14692
 20
63.449715
  0
LWPOLYLINE
  5
6A
100
AcDbEntity
  8
DIMENSION
100
AcDbPolyline
 90
        2
 70
         0
 43
0.2
 10
32.55308
 20
63.449715
 10
54.115
 20
63.449715
  0
LWPOLYLINE
  5
6B
100
AcDbEntity
  8
DIMENSION
100
AcDbPolyline
 90
        3
 70
         1
 10
2.015
 20
63.449715
 10
3.155
 20
64.019715
 10
3.155
 20
62.879715
  0
HATCH
  5
6C
100
AcDbEntity
  8
DIMENSION
100
AcDbHatch
 10
0.0
 20
0.0
 30
0.0
210
0.0
220
0.0
230
1.0
  2
SOLID
 70
         1
 71
         1
 91
        1
 92
        2
 72
         0
 73
         1
 93
        3
 10
2.0150000000000001
 20
63.449714999999998
 10
3.1549999999999998
 20
64.019715000000005
 10
3.1549999999999998
 20
62.879714999999997
 97
        1
330
6B
 75
         0
 76
         1
 98
        1
 10
0.0
 20
0.0
  0
LWPOLYLINE
  5
6D
100
AcDbEntity
  8
DIMENSION
100
AcDbPolyline
 90
        3
 70
         1
 10
54.685
 20
63.449715
 10
53.545
 20
62.879715
 10
53.545
 20
64.019715
  0
HATCH
  5
6E
100
AcDbEntity
  8
DIMENSION
100
AcDbHatch
 10
0.0
 20
0.0
 30
0.0
210
0.0
220
0.0
230
1.0
  2
SOLID
 70
         1
 71
         1
 91
        1
 92
        2
 72
         0
 73
         1
 93
        3
 10
54.685000000000002
 20
63.449714999999998
 10
53.545000000000002
 20
62.879714999999997
 10
53.545000000000002
 20
64.019715000000005
 97
        1
330
6D
 75
         0
 76
         1
 98
        1
 10
0.0
 20
0.0
  0
LWPOLYLINE
  5
6F
100
AcDbEntity
  8
DIMENSION
100
AcDbPolyline
 90
        2
 70
         0
 43
0.2
 10
0.215
 20
48.11
 10
0.215
 20
66.542932
  0
LWPOLYLINE
  5
70
100
AcDbEntity
  8
DIMENSION
100
AcDbPolyline
 90
        2
 70
         0
 43
0.2
 10
56.485
 20
48.11
 10
56.485
 20
66.542932
  0
LWPOLYLINE
  5
71
100
AcDbEntity
  8
DIMENSION
100
AcDbPolyline
 90
        2
 70
         0
 43
0.2
 10
0.785
 20
66.032932
 10
24.14692
 20
66.032932
  0
LWPOLYLINE
  5
72
100
AcDbEntity
  8
DIMENSION
100
AcDbPolyline
 90
        2
 70
         0
 43
0.2
 10
32.55308
 20
66.032932
 10
55.915
 20
66.032932
  0
LWPOLYLINE
  5
73
100
AcDbEntity
  8
DIMENSION
100
AcDbPolyline
 90
        3
 70
         1
 10
0.215
 20
66.032932
 10
1.355
 20
66.602932
 10
1.355
 20
65.462932
  0
HATCH
  5
74
100
AcDbEntity
  8
DIMENSION
100
AcDbHatch
 10
0.0
 20
0.0
 30
0.0
210
0.0
220
0.0
230
1.0
  2
SOLID
 70
         1
 71
         1
 91
        1
 92
        2
 72
         0
 73
         1
 93
        3
 10
0.215
 20
66.032932000000002
 10
1.355
 20
66.602931999999996
 10
1.355
 20
65.462931999999995
 97
        1
330
73
 75
         0
 76
         1
 98
        1
 10
0.0
 20
0.0
  0
LWPOLYLINE
  5
75
100
AcDbEntity
  8
DIMENSION
100
AcDbPolyline
 90
        3
 70
         1
 10
56.485
 20
66.032932
 10
55.345
 20
65.462932
 10
55.345
 20
66.602932
  0
HATCH
  5
76
100
AcDbEntity
  8
DIMENSION
100
AcDbHatch
 10
0.0
 20
0.0
 30
0.0
210
0.0
220
0.0
230
1.0
  2
SOLID
 70
         1
 71
         1
 91
        1
 92
        2
 72
         0
 73
         1
 93
        3
 10
56.484999999999999
 20
66.032932000000002
 10
55.344999999999999
 20
65.462931999999995
 10
55.344999999999999
 20
66.602931999999996
 97
        1
330
75
 75
         0
 76
         1
 98
        1
 10
0.0
 20
0.0
  0
LWPOLYLINE
  5
77
100
AcDbEntity
  8
DIMENSION
100
AcDbPolyline
 90
        2
 70
         0
 43
0.2
 10
-4.0
 20
49.61
 10
-4.0
 20
69.824927
  0
LWPOLYLINE
  5
78
100
AcDbEntity
  8
DIMENSION
100
AcDbPolyline
 90
        2
 70
         0
 43
0.2
 10
60.7
 20
49.61
 10
60.7
 20
69.824927
  0
LWPOLYLINE
  5
79
100
AcDbEntity
  8
DIMENSION
100
AcDbPolyline
 90
        2
 70
         0
 43
0.2
 10
-3.43
 20
69.314927
 10
24.676987
 20
69.314927
  0
LWPOLYLINE
  5
7A
100
AcDbEntity
  8
DIMENSION
100
AcDbPolyline
 90
        2
 70
         0
 43
0.2
 10
32.023014
 20
69.314927
 10
60.13
 20
69.314927
  0
LWPOLYLINE
  5
7B
100
AcDbEntity
  8
DIMENSION
100
AcDbPolyline
 90
        3
 70
         1
 10
-4.0
 20
69.314927
 10
-2.86
 20
69.884927
 10
-2.86
 20
68.744927
  0
HATCH
  5
7C
100
AcDbEntity
  8
DIMENSION
100
AcDbHatch
 10
0.0
 20
0.0
 30
0.0
210
0.0
220
0.0
230
1.0
  2
SOLID
 70
         1
 71
         1
 91
        1
 92
        2
 72
         0
 73
         1
 93
        3
 10
-4.0
 20
69.314926999999997
 10
-2.8599999999999999
 20
69.884927000000005
 10
-2.8599999999999999
 20
68.744927000000004
 97
        1
330
7B
 75
         0
 76
         1
 98
        1
 10
0.0
 20
0.0
  0
LWPOLYLINE
  5
7D
100
AcDbEntity
  8
DIMENSION
100
AcDbPolyline
 90
        3
 70
         1
 10
60.7
 20
69.314927
 10
59.56
 20
68.744927
 10
59.56
 20
69.884927
  0
HATCH
  5
7E
100
AcDbEntity
  8
DIMENSION
100
AcDbHatch
 10
0.0
 20
0.0
 30
0.0
210
0.0
220
0.0
230
1.0
  2
SOLID
 70
         1
 71
         1
 91
        1
 92
        2
 72
         0
 73
         1
 93
        3
 10
60.700000000000003
 20
69.314926999999997
 10
59.560000000000002
 20
68.744927000000004
 10
59.560000000000002
 20
69.884927000000005
 97
        1
330
7D
 75
         0
 76
         1
 98
        1
 10
0.0
 20
0.0
  0
LWPOLYLINE
  5
7F
100
AcDbEntity
  8
DIMENSION
100
AcDbPolyline
 90
        2
 70
         0
 43
0.2
 10
56.485
 20
48.11
 10
56.485
 20
66.51
  0
LWPOLYLINE
  5
80
100
AcDbEntity
  8
DIMENSION
100
AcDbPolyline
 90
        2
 70
         0
 43
0.2
 10
60.7
 20
49.61
 10
60.7
 20
66.51
  0
LWPOLYLINE
  5
81
100
AcDbEntity
  8
DIMENSION
100
AcDbPolyline
 90
        2
 70
         0
 43
0.2
 10
55.915
 20
66.0
 10
53.635
 20
66.0
  0
LWPOLYLINE
  5
82
100
AcDbEntity
  8
DIMENSION
100
AcDbPolyline
 90
        2
 70
         0
 43
0.2
 10
61.27
 20
66.0
 10
63.55
 20
66.0
  0
LWPOLYLINE
  5
83
100
AcDbEntity
  8
DIMENSION
100
AcDbPolyline
 90
        3
 70
         1
 10
56.485
 20
66.0
 10
55.345
 20
65.43
 10
55.345
 20
66.57
  0
HATCH
  5
84
100
AcDbEntity
  8
DIMENSION
100
AcDbHatch
 10
0.0
 20
0.0
 30
0.0
210
0.0
220
0.0
230
1.0
  2
SOLID
 70
         1
 71
         1
 91
        1
 92
        2
 72
         0
 73
         1
 93
        3
 10
56.484999999999999
 20
66.0
 10
55.344999999999999
 20
65.430000000000007
 10
55.344999999999999
 20
66.569999999999993
 97
        1
330
83
 75
         0
 76
         1
 98
        1
 10
0.0
 20
0.0
  0
LWPOLYLINE
  5
85
100
AcDbEntity
  8
DIMENSION
100
AcDbPolyline
 90
        3
 70
         1
 10
60.7
 20
66.0
 10
61.84
 20
66.57
 10
61.84
 20
65.43
  0
HATCH
  5
86
100
AcDbEntity
  8
DIMENSION
100
AcDbHatch
 10
0.0
 20
0.0
 30
0.0
210
0.0
220
0.0
230
1.0
  2
SOLID
 70
         1
 71
         1
 91
        1
 92
        2
 72
         0
 73
         1
 93
        3
 10
60.700000000000003
 20
66.0
 10
61.840000000000003
 20
66.569999999999993
 10
61.840000000000003
 20
65.430000000000007
 97
        1
330
85
 75
         0
 76
         1
 98
        1
 10
0.0
 20
0.0
  0
LWPOLYLINE
  5
87
100
AcDbEntity
  8
DIMENSION
100
AcDbPolyline
 90
        2
 70
         0
 43
0.2
 10
54.685
 20
48.11
 10
54.685
 20
64.01
  0
LWPOLYLINE
  5
88
100
AcDbEntity
  8
DIMENSION
100
AcDbPolyline
 90
        2
 70
         0
 43
0.2
 10
60.7
 20
49.61
 10
60.7
 20
64.01
  0
LWPOLYLINE
  5
89
100
AcDbEntity
  8
DIMENSION
100
AcDbPolyline
 90
        2
 70
         0
 43
0.2
 10
54.115
 20
63.5
 10
51.835
 20
63.5
  0
LWPOLYLINE
  5
8A
100
AcDbEntity
  8
DIMENSION
100
AcDbPolyline
 90
        2
 70
         0
 43
0.2
 10
61.27
 20
63.5
 10
63.55
 20
63.5
  0
LWPOLYLINE
  5
8B
100
AcDbEntity
  8
DIMENSION
100
AcDbPolyline
 90
        3
 70
         1
 10
54.685
 20
63.5
 10
53.545
 20
62.93
 10
53.545
 20
64.07
  0
HATCH
  5
8C
100
AcDbEntity
  8
DIMENSION
100
AcDbHatch
 10
0.0
 20
0.0
 30
0.0
210
0.0
220
0.0
230
1.0
  2
SOLID
 70
         1
 71
         1
 91
        1
 92
        2
 72
         0
 73
         1
 93
        3
 10
54.685000000000002
 20
63.5
 10
53.545000000000002
 20
62.93
 10
53.545000000000002
 20
64.069999999999993
 97
        1
330
8B
 75
         0
 76
         1
 98
        1
 10
0.0
 20
0.0
  0
LWPOLYLINE
  5
8D
100
AcDbEntity
  8
DIMENSION
100
AcDbPolyline
 90
        3
 70
         1
 10
60.7
 20
63.5
 10
61.84
 20
64.07
 10
61.84
 20
62.93
  0
HATCH
  5
8E
100
AcDbEntity
  8
DIMENSION
100
AcDbHatch
 10
0.0
 20
0.0
 30
0.0
210
0.0
220
0.0
230
1.0
  2
SOLID
 70
         1
 71
         1
 91
        1
 92
        2
 72
         0
 73
         1
 93
        3
 10
60.700000000000003
 20
63.5
 10
61.840000000000003
 20
64.069999999999993
 10
61.840000000000003
 20
62.93
 97
        1
330
8D
 75
         0
 76
         1
 98
        1
 10
0.0
 20
0.0
  0
LWPOLYLINE
  5
8F
100
AcDbEntity
  8
DIMENSION
100
AcDbPolyline
 90
        2
 70
         0
 43
0.2
 10
53.4325
 20
50.31
 10
53.4325
 20
61.26
  0
LWPOLYLINE
  5
90
100
AcDbEntity
  8
DIMENSION
100
AcDbPolyline
 90
        2
 70
         0
 43
0.2
 10
60.7
 20
49.61
 10
60.7
 20
61.26
  0
LWPOLYLINE
  5
91
100
AcDbEntity
  8
DIMENSION
100
AcDbPolyline
 90
        2
 70
         0
 43
0.2
 10
52.8625
 20
60.75
 10
50.5825
 20
60.75
  0
LWPOLYLINE
  5
92
100
AcDbEntity
  8
DIMENSION
100
AcDbPolyline
 90
        2
 70
         0
 43
0.2
 10
61.27
 20
60.75
 10
63.55
 20
60.75
  0
LWPOLYLINE
  5
93
100
AcDbEntity
  8
DIMENSION
100
AcDbPolyline
 90
        3
 70
         1
 10
53.4325
 20
60.75
 10
52.2925
 20
60.18
 10
52.2925
 20
61.32
  0
HATCH
  5
94
100
AcDbEntity
  8
DIMENSION
100
AcDbHatch
 10
0.0
 20
0.0
 30
0.0
210
0.0
220
0.0
230
1.0
  2
SOLID
 70
         1
 71
         1
 91
        1
 92
        2
 72
         0
 73
         1
 93
        3
 10
53.432499999999997
 20
60.75
 10
52.292499999999997
 20
60.18
 10
52.292499999999997
 20
61.32
 97
        1
330
93
 75
         0
 76
         1
 98
        1
 10
0.0
 20
0.0
  0
LWPOLYLINE
  5
95
100
AcDbEntity
  8
DIMENSION
100
AcDbPolyline
 90
        3
 70
         1
 10
60.7
 20
60.75
 10
61.84
 20
61.32
 10
61.84
 20
60.18
  0
HATCH
  5
96
100
AcDbEntity
  8
DIMENSION
100
AcDbHatch
 10
0.0
 20
0.0
 30
0.0
210
0.0
220
0.0
230
1.0
  2
SOLID
 70
         1
 71
         1
 91
        1
 92
        2
 72
         0
 73
         1
 93
        3
 10
60.700000000000003
 20
60.75
 10
61.840000000000003
 20
61.32
 10
61.840000000000003
 20
60.18
 97
        1
330
95
 75
         0
 76
         1
 98
        1
 10
0.0
 20
0.0
  0
LWPOLYLINE
  5
97
100
AcDbEntity
  8
DIMENSION
100
AcDbPolyline
 90
        2
 70
         0
 43
0.2
 10
61.21
 20
49.1
 10
78.01
 20
49.1
  0
LWPOLYLINE
  5
98
100
AcDbEntity
  8
DIMENSION
100
AcDbPolyline
 90
        2
 70
         0
 43
0.2
 10
61.21
 20
-1.5
 10
78.01
 20
-1.5
  0
LWPOLYLINE
  5
99
100
AcDbEntity
  8
DIMENSION
100
AcDbPolyline
 90
        2
 70
         0
 43
0.2
 10
77.5
 20
48.53
 10
77.5
 20
27.473013
  0
LWPOLYLINE
  5
9A
100
AcDbEntity
  8
DIMENSION
100
AcDbPolyline
 90
        2
 70
         0
 43
0.2
 10
77.5
 20
20.126987
 10
77.5
 20
-0.93
  0
LWPOLYLINE
  5
9B
100
AcDbEntity
  8
DIMENSION
100
AcDbPolyline
 90
        3
 70
         1
 10
77.5
 20
49.1
 10
78.069999
 20
47.96
 10
76.93
 20
47.96
  0
HATCH
  5
9C
100
AcDbEntity
  8
DIMENSION
100
AcDbHatch
 10
0.0
 20
0.0
 30
0.0
210
0.0
220
0.0
230
1.0
  2
SOLID
 70
         1
 71
         1
 91
        1
 92
        2
 72
         0
 73
         1
 93
        3
 10
77.5
 20
49.100000000000001
 10
78.069998999999996
 20
47.960000000000001
 10
76.930000000000007
 20
47.960000000000001
 97
        1
330
9B
 75
         0
 76
         1
 98
        1
 10
0.0
 20
0.0
  0
LWPOLYLINE
  5
9D
100
AcDbEntity
  8
DIMENSION
100
AcDbPolyline
 90
        3
 70
         1
 10
77.5
 20
-1.5
 10
76.93
 20
-0.36
 10
78.07
 20
-0.36
  0
HATCH
  5
9E
100
AcDbEntity
  8
DIMENSION
100
AcDbHatch
 10
0.0
 20
0.0
 30
0.0
210
0.0
220
0.0
230
1.0
  2
SOLID
 70
         1
 71
         1
 91
        1
 92
        2
 72
         0
 73
         1
 93
        3
 10
77.5
 20
-1.5
 10
76.930000000000007
 20
-0.36
 10
78.069999999999993
 20
-0.36
 97
        1
330
9D
 75
         0
 76
         1
 98
        1
 10
0.0
 20
0.0
  0
LWPOLYLINE
  5
9F
100
AcDbEntity
  8
DIMENSION
100
AcDbPolyline
 90
        2
 70
         0
 43
0.15
 10
63.4
 20
-4.8
 10
81.4
 20
-4.8
  0
LWPOLYLINE
  5
A0
100
AcDbEntity
  8
DIMENSION
100
AcDbPolyline
 90
        2
 70
         0
 43
0.15
 10
63.4
 20
52.4
 10
81.4
 20
52.4
  0
LWPOLYLINE
  5
A1
100
AcDbEntity
  8
DIMENSION
100
AcDbPolyline
 90
        2
 70
         0
 43
0.15
 10
81.4
 20
52.4
 10
81.4
 20
-4.8
  0
LWPOLYLINE
  5
A2
100
AcDbEntity
  8
DIMENSION
100
AcDbPolyline
 90
        3
 70
         1
 10
80.82
 20
51.26
 10
81.97
 20
51.26
 10
81.39
 20
52.41
  0
HATCH
  5
A3
100
AcDbEntity
  8
DIMENSION
100
AcDbHatch
 10
0.0
 20
0.0
 30
0.0
210
0.0
220
0.0
230
1.0
  2
SOLID
 70
         1
 71
         1
 91
        1
 92
        2
 72
         0
 73
         1
 93
        3
 10
80.819999999999993
 20
51.259999999999998
 10
81.969999999999999
 20
51.259999999999998
 10
81.390000000000001
 20
52.409999999999997
 97
        1
330
A2
 75
         0
 76
         1
 98
        1
 10
0.0
 20
0.0
  0
LWPOLYLINE
  5
A4
100
AcDbEntity
  8
DIMENSION
100
AcDbPolyline
 90
        3
 70
         1
 10
80.83
 20
-3.66
 10
81.98
 20
-3.66
 10
81.4
 20
-4.81
  0
HATCH
  5
A5
100
AcDbEntity
  8
DIMENSION
100
AcDbHatch
 10
0.0
 20
0.0
 30
0.0
210
0.0
220
0.0
230
1.0
  2
SOLID
 70
         1
 71
         1
 91
        1
 92
        2
 72
         0
 73
         1
 93
        3
 10
80.829999999999998
 20
-3.6600000000000001
 10
81.980000000000004
 20
-3.6600000000000001
 10
81.400000000000006
 20
-4.8099999999999996
 97
        1
330
A4
 75
         0
 76
         1
 98
        1
 10
0.0
 20
0.0
  0
LWPOLYLINE
  5
A6
100
AcDbEntity
  8
DIMENSION
100
AcDbPolyline
 90
        2
 70
         0
 43
0.15
 10
63.4
 20
52.4
 10
63.4
 20
72.4
  0
LWPOLYLINE
  5
A7
100
AcDbEntity
  8
DIMENSION
100
AcDbPolyline
 90
        2
 70
         0
 43
0.15
 10
-6.7
 20
52.4
 10
-6.7
 20
72.4
  0
LWPOLYLINE
  5
A8
100
AcDbEntity
  8
DIMENSION
100
AcDbPolyline
 90
        2
 70
         0
 43
0.15
 10
-6.7
 20
72.41
 10
63.4
 20
72.41
  0
LWPOLYLINE
  5
A9
100
AcDbEntity
  8
DIMENSION
100
AcDbPolyline
 90
        3
 70
         1
 10
62.28
 20
71.83
 10
62.28
 20
72.98
 10
63.43
 20
72.4
  0
HATCH
  5
AA
100
AcDbEntity
  8
DIMENSION
100
AcDbHatch
 10
0.0
 20
0.0
 30
0.0
210
0.0
220
0.0
230
1.0
  2
SOLID
 70
         1
 71
         1
 91
        1
 92
        2
 72
         0
 73
         1
 93
        3
 10
62.280000000000001
 20
71.829999999999998
 10
62.280000000000001
 20
72.980000000000004
 10
63.43
 20
72.400000000000006
 97
        1
330
A9
 75
         0
 76
         1
 98
        1
 10
0.0
 20
0.0
  0
LWPOLYLINE
  5
AB
100
AcDbEntity
  8
DIMENSION
100
AcDbPolyline
 90
        3
 70
         1
 10
-5.55
 20
71.83
 10
-5.55
 20
72.98
 10
-6.7
 20
72.4
  0
HATCH
  5
AC
100
AcDbEntity
  8
DIMENSION
100
AcDbHatch
 10
0.0
 20
0.0
 30
0.0
210
0.0
220
0.0
230
1.0
  2
SOLID
 70
         1
 71
         1
 91
        1
 92
        2
 72
         0
 73
         1
 93
        3
 10
-5.5499999999999998
 20
71.829999999999998
 10
-5.5499999999999998
 20
72.980000000000004
 10
-6.7000000000000002
 20
72.400000000000006
 97
        1
330
AB
 75
         0
 76
         1
 98
        1
 10
0.0
 20
0.0
  0
LWPOLYLINE
  5
AD
100
AcDbEntity
  8
DIMENSION
100
AcDbPolyline
 90
        2
 70
         0
 43
0.15
 10
60.7
 20
69.77
 10
60.7
 20
74.57
  0
LWPOLYLINE
  5
AE
100
AcDbEntity
  8
DIMENSION
100
AcDbPolyline
 90
        2
 70
         0
 43
0.15
 10
63.4
 20
69.73
 10
63.4
 20
74.53
  0
LWPOLYLINE
  5
AF
100
AcDbEntity
  8
DIMENSION
100
AcDbPolyline
 90
        2
 70
         0
 43
0.15
 10
60.7
 20
74.57
 10
63.4
 20
74.57
  0
LWPOLYLINE
  5
B0
100
AcDbEntity
  8
DIMENSION
100
AcDbPolyline
 90
        3
 70
         1
 10
59.72
 20
73.99
 10
59.72
 20
75.14
 10
60.87
 20
74.56
  0
HATCH
  5
B1
100
AcDbEntity
  8
DIMENSION
100
AcDbHatch
 10
0.0
 20
0.0
 30
0.0
210
0.0
220
0.0
230
1.0
  2
SOLID
 70
         1
 71
         1
 91
        1
 92
        2
 72
         0
 73
         1
 93
        3
 10
59.719999999999999
 20
73.989999999999995
 10
59.719999999999999
 20
75.140000000000001
 10
60.869999999999997
 20
74.560000000000002
 97
        1
330
B0
 75
         0
 76
         1
 98
        1
 10
0.0
 20
0.0
  0
LWPOLYLINE
  5
B2
100
AcDbEntity
  8
DIMENSION
100
AcDbPolyline
 90
        3
 70
         1
 10
64.42
 20
73.98
 10
64.42
 20
75.13
 10
63.27
 20
74.55
  0
HATCH
  5
B3
100
AcDbEntity
  8
DIMENSION
100
AcDbHatch
 10
0.0
 20
0.0
 30
0.0
210
0.0
220
0.0
230
1.0
  2
SOLID
 70
         1
 71
         1
 91
        1
 92
        2
 72
         0
 73
         1
 93
        3
 10
64.420000000000002
 20
73.980000000000004
 10
64.420000000000002
 20
75.129999999999995
 10
63.270000000000003
 20
74.549999999999997
 97
        1
330
B2
 75
         0
 76
         1
 98
        1
 10
0.0
 20
0.0
  0
LWPOLYLINE
  5
B4
100
AcDbEntity
  8
DIMENSION
100
AcDbPolyline
 90
        3
 70
         1
 10
68.35
 20
-0.49
 10
69.5
 20
-0.49
 10
68.92
 20
-1.64
  0
HATCH
  5
B5
100
AcDbEntity
  8
DIMENSION
100
AcDbHatch
 10
0.0
 20
0.0
 30
0.0
210
0.0
220
0.0
230
1.0
  2
SOLID
 70
         1
 71
         1
 91
        1
 92
        2
 72
         0
 73
         1
 93
        3
 10
68.349999999999994
 20
-0.49
 10
69.5
 20
-0.49
 10
68.920000000000002
 20
-1.6399999999999999
 97
        1
330
B4
 75
         0
 76
         1
 98
        1
 10
0.0
 20
0.0
  0
LWPOLYLINE
  5
B6
100
AcDbEntity
  8
DIMENSION
100
AcDbPolyline
 90
        3
 70
         1
 10
68.34
 20
-5.8
 10
69.49
 20
-5.8
 10
68.91
 20
-4.65
  0
HATCH
  5
B7
100
AcDbEntity
  8
DIMENSION
100
AcDbHatch
 10
0.0
 20
0.0
 30
0.0
210
0.0
220
0.0
230
1.0
  2
SOLID
 70
         1
 71
         1
 91
        1
 92
        2
 72
         0
 73
         1
 93
        3
 10
68.340000000000003
 20
-5.7999999999999998
 10
69.489999999999995
 20
-5.7999999999999998
 10
68.909999999999997
 20
-4.6500000000000004
 97
        1
330
B6
 75
         0
 76
         1
 98
        1
 10
0.0
 20
0.0
  0
LWPOLYLINE
  5
B8
100
AcDbEntity
  8
DIMENSION
100
AcDbPolyline
 90
        2
 70
         0
 43
0.15
 10
68.93
 20
-1.52
 10
68.93
 20
-4.83
  0
LWPOLYLINE
  5
B9
100
AcDbEntity
  8
DIMENSION
100
AcDbPolyline
 90
        2
 70
         0
 43
0.2
 10
-0.35
 20
30.41
 10
-4.16
 20
30.41
  0
LWPOLYLINE
  5
BA
100
AcDbEntity
  8
DIMENSION
100
AcDbPolyline
 90
        2
 70
         0
 43
0.2
 10
-4.16
 20
30.41
 10
-4.011556
 20
47.750049
  0
LWPOLYLINE
  5
BB
100
AcDbEntity
  8
DIMENSION
100
AcDbPolyline
 90
        3
 70
         1
 10
-4.011556
 20
47.750049
 10
-3.451336
 20
46.605212
 10
-4.591294
 20
46.614971
  0
HATCH
  5
BC
100
AcDbEntity
  8
DIMENSION
100
AcDbHatch
 10
0.0
 20
0.0
 30
0.0
210
0.0
220
0.0
230
1.0
  2
SOLID
 70
         1
 71
         1
 91
        1
 92
        2
 72
         0
 73
         1
 93
        3
 10
-4.0115559999999997
 20
47.750048999999997
 10
-3.451336
 20
46.605212000000002
 10
-4.5912940000000004
 20
46.614970999999997
 97
        1
330
BB
 75
         0
 76
         1
 98
        1
 10
0.0
 20
0.0
  0
LWPOLYLINE
  5
BD
100
AcDbEntity
  8
DIMENSION
100
AcDbPolyline
 90
        2
 70
         0
 43
0.2
 10
5.57
 20
35.05
 10
1.76
 20
35.05
  0
LWPOLYLINE
  5
BE
100
AcDbEntity
  8
DIMENSION
100
AcDbPolyline
 90
        2
 70
         0
 43
0.2
 10
1.76
 20
35.05
 10
2.005858
 20
47.150092
  0
LWPOLYLINE
  5
BF
100
AcDbEntity
  8
DIMENSION
100
AcDbPolyline
 90
        3
 70
         1
 10
2.005858
 20
47.150092
 10
2.552581
 20
45.998748
 10
1.412818
 20
46.021907
  0
HATCH
  5
C0
100
AcDbEntity
  8
DIMENSION
100
AcDbHatch
 10
0.0
 20
0.0
 30
0.0
210
0.0
220
0.0
230
1.0
  2
SOLID
 70
         1
 71
         1
 91
        1
 92
        2
 72
         0
 73
         1
 93
        3
 10
2.0058579999999999
 20
47.150092000000001
 10
2.552581
 20
45.998747999999999
 10
1.4128179999999999
 20
46.021906999999999
 97
        1
330
BF
 75
         0
 76
         1
 98
        1
 10
0.0
 20
0.0
  0
LWPOLYLINE
  5
C1
100
AcDbEntity
  8
DIMENSION
100
AcDbPolyline
 90
        2
 70
         0
 43
0.2
 10
58.65
 20
34.79
 10
54.84
 20
34.79
  0
LWPOLYLINE
  5
C2
100
AcDbEntity
  8
DIMENSION
100
AcDbPolyline
 90
        2
 70
         0
 43
0.2
 10
54.84
 20
34.79
 10
54.689234
 20
47.250025
  0
LWPOLYLINE
  5
C3
100
AcDbEntity
  8
DIMENSION
100
AcDbPolyline
 90
        3
 70
         1
 10
54.689234
 20
47.250025
 10
55.272985
 20
46.117005
 10
54.133069
 20
46.103212
  0
HATCH
  5
C4
100
AcDbEntity
  8
DIMENSION
100
AcDbHatch
 10
0.0
 20
0.0
 30
0.0
210
0.0
220
0.0
230
1.0
  2
SOLID
 70
         1
 71
         1
 91
        1
 92
        2
 72
         0
 73
         1
 93
        3
 10
54.689233999999999
 20
47.250025000000001
 10
55.272984999999998
 20
46.117004999999999
 10
54.133068999999999
 20
46.103211999999999
 97
        1
330
C3
 75
         0
 76
         1
 98
        1
 10
0.0
 20
0.0
  0
LWPOLYLINE
  5
C5
100
AcDbEntity
  8
DIMENSION
100
AcDbPolyline
 90
        2
 70
         0
 43
0.2
 10
61.21
 20
49.1
 10
73.76
 20
49.1
  0
LWPOLYLINE
  5
C6
100
AcDbEntity
  8
DIMENSION
100
AcDbPolyline
 90
        2
 70
         0
 43
0.2
 10
56.995
 20
47.6
 10
73.76
 20
47.6
  0
LWPOLYLINE
  5
C7
100
AcDbEntity
  8
DIMENSION
100
AcDbPolyline
 90
        2
 70
         0
 43
0.2
 10
73.25
 20
49.67
 10
73.25
 20
51.95
  0
LWPOLYLINE
  5
C8
100
AcDbEntity
  8
DIMENSION
100
AcDbPolyline
 90
        2
 70
         0
 43
0.2
 10
73.25
 20
47.03
 10
73.25
 20
44.75
  0
LWPOLYLINE
  5
C9
100
AcDbEntity
  8
DIMENSION
100
AcDbPolyline
 90
        3
 70
         1
 10
73.25
 20
49.1
 10
72.68
 20
50.24
 10
73.82
 20
50.24
  0
HATCH
  5
CA
100
AcDbEntity
  8
DIMENSION
100
AcDbHatch
 10
0.0
 20
0.0
 30
0.0
210
0.0
220
0.0
230
1.0
  2
SOLID
 70
         1
 71
         1
 91
        1
 92
        2
 72
         0
 73
         1
 93
        3
 10
73.25
 20
49.100000000000001
 10
72.680000000000007
 20
50.240000000000002
 10
73.819999999999993
 20
50.240000000000002
 97
        1
330
C9
 75
         0
 76
         1
 98
        1
 10
0.0
 20
0.0
  0
LWPOLYLINE
  5
CB
100
AcDbEntity
  8
DIMENSION
100
AcDbPolyline
 90
        3
 70
         1
 10
73.25
 20
47.6
 10
73.819999
 20
46.46
 10
72.68
 20
46.46
  0
HATCH
  5
CC
100
AcDbEntity
  8
DIMENSION
100
AcDbHatch
 10
0.0
 20
0.0
 30
0.0
210
0.0
220
0.0
230
1.0
  2
SOLID
 70
         1
 71
         1
 91
        1
 92
        2
 72
         0
 73
         1
 93
        3
 10
73.25
 20
47.600000000000001
 10
73.819998999999996
 20
46.460000000000001
 10
72.680000000000007
 20
46.460000000000001
 97
        1
330
CB
 75
         0
 76
         1
 98
        1
 10
0.0
 20
0.0
  0
LWPOLYLINE
  5
CD
100
AcDbEntity
  8
DIMENSION
100
AcDbPolyline
 90
        2
 70
         0
 43
0.2
 10
2.7575
 20
2.2
 10
1.617529
 20
2.2
  0
LWPOLYLINE
  5
CE
100
AcDbEntity
  8
DIMENSION
100
AcDbPolyline
 90
        2
 70
         0
 43
0.2
 10
2.7575
 20
-2.2
 10
1.617529
 20
-2.2
  0
LWPOLYLINE
  5
CF
100
AcDbEntity
  8
DIMENSION
100
AcDbPolyline
 90
        2
 70
         0
 43
0.2
 10
2.127529
 20
2.77
 10
2.127529
 20
5.05
  0
LWPOLYLINE
  5
D0
100
AcDbEntity
  8
DIMENSION
100
AcDbPolyline
 90
        2
 70
         0
 43
0.2
 10
2.127529
 20
-2.77
 10
2.127529
 20
-5.05
  0
LWPOLYLINE
  5
D1
100
AcDbEntity
  8
DIMENSION
100
AcDbPolyline
 90
        3
 70
         1
 10
2.127529
 20
2.2
 10
1.557529
 20
3.34
 10
2.697529
 20
3.34
  0
HATCH
  5
D2
100
AcDbEntity
  8
DIMENSION
100
AcDbHatch
 10
0.0
 20
0.0
 30
0.0
210
0.0
220
0.0
230
1.0
  2
SOLID
 70
         1
 71
         1
 91
        1
 92
        2
 72
         0
 73
         1
 93
        3
 10
2.127529
 20
2.2000000000000002
 10
1.5575289999999999
 20
3.3399999999999999
 10
2.6975289999999998
 20
3.3399999999999999
 97
        1
330
D1
 75
         0
 76
         1
 98
        1
 10
0.0
 20
0.0
  0
LWPOLYLINE
  5
D3
100
AcDbEntity
  8
DIMENSION
100
AcDbPolyline
 90
        3
 70
         1
 10
2.127529
 20
-2.2
 10
2.697528
 20
-3.34
 10
1.557529
 20
-3.34
  0
HATCH
  5
D4
100
AcDbEntity
  8
DIMENSION
100
AcDbHatch
 10
0.0
 20
0.0
 30
0.0
210
0.0
220
0.0
230
1.0
  2
SOLID
 70
         1
 71
         1
 91
        1
 92
        2
 72
         0
 73
         1
 93
        3
 10
2.127529
 20
-2.2000000000000002
 10
2.6975280000000001
 20
-3.3399999999999999
 10
1.5575289999999999
 20
-3.3399999999999999
 97
        1
330
D3
 75
         0
 76
         1
 98
        1
 10
0.0
 20
0.0
  0
LWPOLYLINE
  5
D5
100
AcDbEntity
  8
DIMENSION
100
AcDbPolyline
 90
        2
 70
         0
 43
0.2
 10
53.9425
 20
2.2
 10
55.009361
 20
2.2
  0
LWPOLYLINE
  5
D6
100
AcDbEntity
  8
DIMENSION
100
AcDbPolyline
 90
        2
 70
         0
 43
0.2
 10
55.97
 20
0.0
 10
53.989361
 20
0.0
  0
LWPOLYLINE
  5
D7
100
AcDbEntity
  8
DIMENSION
100
AcDbPolyline
 90
        2
 70
         0
 43
0.2
 10
54.499361
 20
2.77
 10
54.499361
 20
5.05
  0
LWPOLYLINE
  5
D8
100
AcDbEntity
  8
DIMENSION
100
AcDbPolyline
 90
        2
 70
         0
 43
0.2
 10
54.499361
 20
-0.57
 10
54.499361
 20
-2.85
  0
LWPOLYLINE
  5
D9
100
AcDbEntity
  8
DIMENSION
100
AcDbPolyline
 90
        3
 70
         1
 10
54.499361
 20
2.2
 10
53.929361
 20
3.34
 10
55.069361
 20
3.34
  0
HATCH
  5
DA
100
AcDbEntity
  8
DIMENSION
100
AcDbHatch
 10
0.0
 20
0.0
 30
0.0
210
0.0
220
0.0
230
1.0
  2
SOLID
 70
         1
 71
         1
 91
        1
 92
        2
 72
         0
 73
         1
 93
        3
 10
54.499361
 20
2.2000000000000002
 10
53.929361
 20
3.3399999999999999
 10
55.069361000000001
 20
3.3399999999999999
 97
        1
330
D9
 75
         0
 76
         1
 98
        1
 10
0.0
 20
0.0
  0
LWPOLYLINE
  5
DB
100
AcDbEntity
  8
DIMENSION
100
AcDbPolyline
 90
        3
 70
         1
 10
54.499361
 20
0.0
 10
55.06936
 20
-1.14
 10
53.929361
 20
-1.14
  0
HATCH
  5
DC
100
AcDbEntity
  8
DIMENSION
100
AcDbHatch
 10
0.0
 20
0.0
 30
0.0
210
0.0
220
0.0
230
1.0
  2
SOLID
 70
         1
 71
         1
 91
        1
 92
        2
 72
         0
 73
         1
 93
        3
 10
54.499361
 20
0.0
 10
55.069360000000003
 20
-1.1399999999999999
 10
53.929361
 20
-1.1399999999999999
 97
        1
330
DB
 75
         0
 76
         1
 98
        1
 10
0.0
 20
0.0
  0
LWPOLYLINE
  5
DD
100
AcDbEntity
  8
DIMENSION
100
AcDbPolyline
 90
        2
 70
         0
 43
0.2
 10
56.995
 20
47.6
 10
73.76
 20
47.6
  0
LWPOLYLINE
  5
DE
100
AcDbEntity
  8
DIMENSION
100
AcDbPolyline
 90
        2
 70
         0
 43
0.2
 10
56.99
 20
0.0
 10
73.76
 20
0.0
  0
LWPOLYLINE
  5
DF
100
AcDbEntity
  8
DIMENSION
100
AcDbPolyline
 90
        2
 70
         0
 43
0.2
 10
73.25
 20
47.03
 10
73.25
 20
27.473013
  0
LWPOLYLINE
  5
E0
100
AcDbEntity
  8
DIMENSION
100
AcDbPolyline
 90
        2
 70
         0
 43
0.2
 10
73.25
 20
20.126987
 10
73.25
 20
0.57
  0
LWPOLYLINE
  5
E1
100
AcDbEntity
  8
DIMENSION
100
AcDbPolyline
 90
        3
 70
         1
 10
73.25
 20
47.6
 10
73.819999
 20
46.46
 10
72.68
 20
46.46
  0
HATCH
  5
E2
100
AcDbEntity
  8
DIMENSION
100
AcDbHatch
 10
0.0
 20
0.0
 30
0.0
210
0.0
220
0.0
230
1.0
  2
SOLID
 70
         1
 71
         1
 91
        1
 92
        2
 72
         0
 73
         1
 93
        3
 10
73.25
 20
47.600000000000001
 10
73.819998999999996
 20
46.460000000000001
 10
72.680000000000007
 20
46.460000000000001
 97
        1
330
E1
 75
         0
 76
         1
 98
        1
 10
0.0
 20
0.0
  0
LWPOLYLINE
  5
E3
100
AcDbEntity
  8
DIMENSION
100
AcDbPolyline
 90
        3
 70
         1
 10
73.25
 20
0.0
 10
72.68
 20
1.14
 10
73.82
 20
1.14
  0
HATCH
  5
E4
100
AcDbEntity
  8
DIMENSION
100
AcDbHatch
 10
0.0
 20
0.0
 30
0.0
210
0.0
220
0.0
230
1.0
  2
SOLID
 70
         1
 71
         1
 91
        1
 92
        2
 72
         0
 73
         1
 93
        3
 10
73.25
 20
0.0
 10
72.680000000000007
 20
1.1399999999999999
 10
73.819999999999993
 20
1.1399999999999999
 97
        1
330
E3
 75
         0
 76
         1
 98
        1
 10
0.0
 20
0.0
  0
LWPOLYLINE
  5
E5
100
AcDbEntity
  8
DIMENSION
100
AcDbPolyline
 90
        2
 70
         0
 43
0.2
 10
56.99
 20
0.0
 10
73.54
 20
0.0
  0
LWPOLYLINE
  5
E6
100
AcDbEntity
  8
DIMENSION
100
AcDbPolyline
 90
        2
 70
         0
 43
0.2
 10
61.21
 20
-1.5
 10
73.54
 20
-1.5
  0
LWPOLYLINE
  5
E7
100
AcDbEntity
  8
DIMENSION
100
AcDbPolyline
 90
        2
 70
         0
 43
0.2
 10
73.03
 20
0.57
 10
73.03
 20
2.85
  0
LWPOLYLINE
  5
E8
100
AcDbEntity
  8
DIMENSION
100
AcDbPolyline
 90
        2
 70
         0
 43
0.2
 10
73.03
 20
-2.07
 10
73.03
 20
-4.35
  0
LWPOLYLINE
  5
E9
100
AcDbEntity
  8
DIMENSION
100
AcDbPolyline
 90
        3
 70
         1
 10
73.03
 20
0.0
 10
72.46
 20
1.14
 10
73.6
 20
1.14
  0
HATCH
  5
EA
100
AcDbEntity
  8
DIMENSION
100
AcDbHatch
 10
0.0
 20
0.0
 30
0.0
210
0.0
220
0.0
230
1.0
  2
SOLID
 70
         1
 71
         1
 91
        1
 92
        2
 72
         0
 73
         1
 93
        3
 10
73.030000000000001
 20
0.0
 10
72.459999999999994
 20
1.1399999999999999
 10
73.599999999999994
 20
1.1399999999999999
 97
        1
330
E9
 75
         0
 76
         1
 98
        1
 10
0.0
 20
0.0
  0
LWPOLYLINE
  5
EB
100
AcDbEntity
  8
DIMENSION
100
AcDbPolyline
 90
        3
 70
         1
 10
73.03
 20
-1.5
 10
73.599999
 20
-2.64
 10
72.46
 20
-2.64
  0
HATCH
  5
EC
100
AcDbEntity
  8
DIMENSION
100
AcDbHatch
 10
0.0
 20
0.0
 30
0.0
210
0.0
220
0.0
230
1.0
  2
SOLID
 70
         1
 71
         1
 91
        1
 92
        2
 72
         0
 73
         1
 93
        3
 10
73.030000000000001
 20
-1.5
 10
73.599998999999997
 20
-2.6400000000000001
 10
72.459999999999994
 20
-2.6400000000000001
 97
        1
330
EB
 75
         0
 76
         1
 98
        1
 10
0.0
 20
0.0
  0
LWPOLYLINE
  5
ED
100
AcDbEntity
  8
MOUNTING_HOLES_LAYER_TOP
100
AcDbPolyline
 90
        2
 70
         1
 43
0.35
 10
54.515
 20
0.0
 42
-1.0
 10
54.865
 20
0.0
 42
-1.0
  0
LWPOLYLINE
  5
EE
100
AcDbEntity
  8
MOUNTING_HOLES_LAYER_TOP
100
AcDbPolyline
 90
        2
 70
         1
 43
0.45
 10
1.795
 20
0.0
 42
-1.0
 10
2.245
 20
0.0
 42
-1.0
  0
LWPOLYLINE
  5
EF
100
AcDbEntity
  8
MOUNTING_HOLES_LAYER_TOP
100
AcDbPolyline
 90
        2
 70
         1
 43
0.45
 10
1.79
 20
47.6
 42
-1.0
 10
2.24
 20
47.6
 42
-1.0
  0
LWPOLYLINE
  5
F0
100
AcDbEntity
  8
MOUNTING_HOLES_LAYER_TOP
100
AcDbPolyline
 90
        2
 70
         1
 43
0.35
 10
54.51
 20
47.6
 42
-1.0
 10
54.86
 20
47.6
 42
-1.0
  0
LWPOLYLINE
  5
F1
100
AcDbEntity
  8
MOUNTING_HOLES_LAYER_BOTT6
100
AcDbPolyline
 90
        2
 70
         1
 43
0.35
 10
54.515
 20
0.0
 42
-1.0
 10
54.865
 20
0.0
 42
-1.0
  0
LWPOLYLINE
  5
F2
100
AcDbEntity
  8
MOUNTING_HOLES_LAYER_BOTT6
100
AcDbPolyline
 90
        2
 70
         1
 43
0.45
 10
1.795
 20
0.0
 42
-1.0
 10
2.245
 20
0.0
 42
-1.0
  0
LWPOLYLINE
  5
F3
100
AcDbEntity
  8
MOUNTING_HOLES_LAYER_BOTT6
100
AcDbPolyline
 90
        2
 70
         1
 43
0.45
 10
1.79
 20
47.6
 42
-1.0
 10
2.24
 20
47.6
 42
-1.0
  0
LWPOLYLINE
  5
F4
100
AcDbEntity
  8
MOUNTING_HOLES_LAYER_BOTT6
100
AcDbPolyline
 90
        2
 70
         1
 43
0.35
 10
54.51
 20
47.6
 42
-1.0
 10
54.86
 20
47.6
 42
-1.0
  0
LWPOLYLINE
  5
F5
100
AcDbEntity
  8
NC_DRILL_ORIGIN
100
AcDbPolyline
 90
        2
 70
         0
 43
0.127
 10
-1.905
 20
0.0
 10
1.905
 20
0.0
  0
LWPOLYLINE
  5
F6
100
AcDbEntity
  8
NC_DRILL_ORIGIN
100
AcDbPolyline
 90
        2
 70
         0
 43
0.127
 10
0.0
 20
-1.905
 10
0.0
 20
1.905
  0
LWPOLYLINE
  5
F7
100
AcDbEntity
  8
NC_DRILL_ORIGIN
100
AcDbPolyline
 90
        4
 70
         1
 43
0.127
 10
-1.0
 20
-1.0
 10
-1.0
 20
1.0
 10
1.0
 20
1.0
 10
1.0
 20
-1.0
  0
TEXT
  5
F8
100
AcDbEntity
  8
NC_DRILL_ORIGIN
100
AcDbText
 10
0.127
 20
0.127
 30
0.0
 40
1.0
  1
D
  7
ARIAL
 11
0.127
 21
0.127
 31
0.0
100
AcDbText
 73
         1
  0
LWPOLYLINE
  5
F9
100
AcDbEntity
  8
PART_HOLES_LAYER_TOP
100
AcDbPolyline
 90
        2
 70
         1
 43
1.35
 10
-4.675
 20
49.1
 42
-1.0
 10
-3.325
 20
49.1
 42
-1.0
  0
LWPOLYLINE
  5
FA
100
AcDbEntity
  8
PART_HOLES_LAYER_TOP
100
AcDbPolyline
 90
        2
 70
         1
 43
1.35
 10
-4.675
 20
-1.5
 42
-1.0
 10
-3.325
 20
-1.5
 42
-1.0
  0
LWPOLYLINE
  5
FB
100
AcDbEntity
  8
PART_HOLES_LAYER_TOP
100
AcDbPolyline
 90
        2
 70
         1
 43
1.35
 10
60.025
 20
-1.5
 42
-1.0
 10
61.375
 20
-1.5
 42
-1.0
  0
LWPOLYLINE
  5
FC
100
AcDbEntity
  8
PART_HOLES_LAYER_TOP
100
AcDbPolyline
 90
        2
 70
         1
 43
1.35
 10
60.025
 20
49.1
 42
-1.0
 10
61.375
 20
49.1
 42
-1.0
  0
LWPOLYLINE
  5
FD
100
AcDbEntity
  8
PART_HOLES_LAYER_BOTTOM
100
AcDbPolyline
 90
        2
 70
         1
 43
1.35
 10
-4.675
 20
49.1
 42
-1.0
 10
-3.325
 20
49.1
 42
-1.0
  0
LWPOLYLINE
  5
FE
100
AcDbEntity
  8
PART_HOLES_LAYER_BOTTOM
100
AcDbPolyline
 90
        2
 70
         1
 43
1.35
 10
-4.675
 20
-1.5
 42
-1.0
 10
-3.325
 20
-1.5
 42
-1.0
  0
LWPOLYLINE
  5
FF
100
AcDbEntity
  8
PART_HOLES_LAYER_BOTTOM
100
AcDbPolyline
 90
        2
 70
         1
 43
1.35
 10
60.025
 20
-1.5
 42
-1.0
 10
61.375
 20
-1.5
 42
-1.0
  0
LWPOLYLINE
  5
100
100
AcDbEntity
  8
PART_HOLES_LAYER_BOTTOM
100
AcDbPolyline
 90
        2
 70
         1
 43
1.35
 10
60.025
 20
49.1
 42
-1.0
 10
61.375
 20
49.1
 42
-1.0
  0
LWPOLYLINE
  5
101
100
AcDbEntity
  8
PART_PADS_LAYER_TOP
100
AcDbPolyline
 90
        2
 70
         1
 43
2.25
 10
-5.125
 20
49.1
 42
-1.0
 10
-2.875
 20
49.1
 42
-1.0
  0
LWPOLYLINE
  5
102
100
AcDbEntity
  8
PART_PADS_LAYER_TOP
100
AcDbPolyline
 90
        2
 70
         1
 43
2.25
 10
-5.125
 20
-1.5
 42
-1.0
 10
-2.875
 20
-1.5
 42
-1.0
  0
LWPOLYLINE
  5
103
100
AcDbEntity
  8
PART_PADS_LAYER_TOP
100
AcDbPolyline
 90
        2
 70
         1
 43
2.25
 10
59.575
 20
-1.5
 42
-1.0
 10
61.825
 20
-1.5
 42
-1.0
  0
LWPOLYLINE
  5
104
100
AcDbEntity
  8
PART_PADS_LAYER_TOP
100
AcDbPolyline
 90
        2
 70
         1
 43
2.25
 10
59.575
 20
49.1
 42
-1.0
 10
61.825
 20
49.1
 42
-1.0
  0
LWPOLYLINE
  5
105
100
AcDbEntity
  8
PART_PADS_LAYER_BOTTOM
100
AcDbPolyline
 90
        2
 70
         1
 43
2.25
 10
-5.125
 20
49.1
 42
-1.0
 10
-2.875
 20
49.1
 42
-1.0
  0
LWPOLYLINE
  5
106
100
AcDbEntity
  8
PART_PADS_LAYER_BOTTOM
100
AcDbPolyline
 90
        2
 70
         1
 43
2.25
 10
-5.125
 20
-1.5
 42
-1.0
 10
-2.875
 20
-1.5
 42
-1.0
  0
LWPOLYLINE
  5
107
100
AcDbEntity
  8
PART_PADS_LAYER_BOTTOM
100
AcDbPolyline
 90
        2
 70
         1
 43
2.25
 10
59.575
 20
-1.5
 42
-1.0
 10
61.825
 20
-1.5
 42
-1.0
  0
LWPOLYLINE
  5
108
100
AcDbEntity
  8
PART_PADS_LAYER_BOTTOM
100
AcDbPolyline
 90
        2
 70
         1
 43
2.25
 10
59.575
 20
49.1
 42
-1.0
 10
61.825
 20
49.1
 42
-1.0
  0
SOLID
  5
109
100
AcDbEntity
  8
PART_PADS_SMD_TOP
100
AcDbTrace
 10
3.0925
 20
-3.45
 30
0.0
 11
3.4425
 21
-3.45
 31
0.0
 12
3.0925
 22
-0.95
 32
0.0
 13
3.4425
 23
-0.95
 33
0.0
  0
SOLID
  5
10A
100
AcDbEntity
  8
PART_PADS_SMD_TOP
100
AcDbTrace
 10
3.7275
 20
-3.45
 30
0.0
 11
4.0775
 21
-3.45
 31
0.0
 12
3.7275
 22
-0.95
 32
0.0
 13
4.0775
 23
-0.95
 33
0.0
  0
SOLID
  5
10B
100
AcDbEntity
  8
PART_PADS_SMD_TOP
100
AcDbTrace
 10
4.3625
 20
-3.45
 30
0.0
 11
4.7125
 21
-3.45
 31
0.0
 12
4.3625
 22
-0.95
 32
0.0
 13
4.7125
 23
-0.95
 33
0.0
  0
SOLID
  5
10C
100
AcDbEntity
  8
PART_PADS_SMD_TOP
100
AcDbTrace
 10
4.9975
 20
-3.45
 30
0.0
 11
5.3475
 21
-3.45
 31
0.0
 12
4.9975
 22
-0.95
 32
0.0
 13
5.3475
 23
-0.95
 33
0.0
  0
SOLID
  5
10D
100
AcDbEntity
  8
PART_PADS_SMD_TOP
100
AcDbTrace
 10
5.6325
 20
-3.45
 30
0.0
 11
5.9825
 21
-3.45
 31
0.0
 12
5.6325
 22
-0.95
 32
0.0
 13
5.9825
 23
-0.95
 33
0.0
  0
SOLID
  5
10E
100
AcDbEntity
  8
PART_PADS_SMD_TOP
100
AcDbTrace
 10
6.2675
 20
-3.45
 30
0.0
 11
6.6175
 21
-3.45
 31
0.0
 12
6.2675
 22
-0.95
 32
0.0
 13
6.6175
 23
-0.95
 33
0.0
  0
SOLID
  5
10F
100
AcDbEntity
  8
PART_PADS_SMD_TOP
100
AcDbTrace
 10
6.9025
 20
-3.45
 30
0.0
 11
7.2525
 21
-3.45
 31
0.0
 12
6.9025
 22
-0.95
 32
0.0
 13
7.2525
 23
-0.95
 33
0.0
  0
SOLID
  5
110
100
AcDbEntity
  8
PART_PADS_SMD_TOP
100
AcDbTrace
 10
7.5375
 20
-3.45
 30
0.0
 11
7.8875
 21
-3.45
 31
0.0
 12
7.5375
 22
-0.95
 32
0.0
 13
7.8875
 23
-0.95
 33
0.0
  0
SOLID
  5
111
100
AcDbEntity
  8
PART_PADS_SMD_TOP
100
AcDbTrace
 10
8.1725
 20
-3.45
 30
0.0
 11
8.5225
 21
-3.45
 31
0.0
 12
8.1725
 22
-0.95
 32
0.0
 13
8.5225
 23
-0.95
 33
0.0
  0
SOLID
  5
112
100
AcDbEntity
  8
PART_PADS_SMD_TOP
100
AcDbTrace
 10
8.8075
 20
-3.45
 30
0.0
 11
9.1575
 21
-3.45
 31
0.0
 12
8.8075
 22
-0.95
 32
0.0
 13
9.1575
 23
-0.95
 33
0.0
  0
SOLID
  5
113
100
AcDbEntity
  8
PART_PADS_SMD_TOP
100
AcDbTrace
 10
9.4425
 20
-3.45
 30
0.0
 11
9.7925
 21
-3.45
 31
0.0
 12
9.4425
 22
-0.95
 32
0.0
 13
9.7925
 23
-0.95
 33
0.0
  0
SOLID
  5
114
100
AcDbEntity
  8
PART_PADS_SMD_TOP
100
AcDbTrace
 10
10.0775
 20
-3.45
 30
0.0
 11
10.4275
 21
-3.45
 31
0.0
 12
10.0775
 22
-0.95
 32
0.0
 13
10.4275
 23
-0.95
 33
0.0
  0
SOLID
  5
115
100
AcDbEntity
  8
PART_PADS_SMD_TOP
100
AcDbTrace
 10
10.7125
 20
-3.45
 30
0.0
 11
11.0625
 21
-3.45
 31
0.0
 12
10.7125
 22
-0.95
 32
0.0
 13
11.0625
 23
-0.95
 33
0.0
  0
SOLID
  5
116
100
AcDbEntity
  8
PART_PADS_SMD_TOP
100
AcDbTrace
 10
11.3475
 20
-3.45
 30
0.0
 11
11.6975
 21
-3.45
 31
0.0
 12
11.3475
 22
-0.95
 32
0.0
 13
11.6975
 23
-0.95
 33
0.0
  0
SOLID
  5
117
100
AcDbEntity
  8
PART_PADS_SMD_TOP
100
AcDbTrace
 10
11.9825
 20
-3.45
 30
0.0
 11
12.3325
 21
-3.45
 31
0.0
 12
11.9825
 22
-0.95
 32
0.0
 13
12.3325
 23
-0.95
 33
0.0
  0
SOLID
  5
118
100
AcDbEntity
  8
PART_PADS_SMD_TOP
100
AcDbTrace
 10
12.6175
 20
-3.45
 30
0.0
 11
12.9675
 21
-3.45
 31
0.0
 12
12.6175
 22
-0.95
 32
0.0
 13
12.9675
 23
-0.95
 33
0.0
  0
SOLID
  5
119
100
AcDbEntity
  8
PART_PADS_SMD_TOP
100
AcDbTrace
 10
13.2525
 20
-3.45
 30
0.0
 11
13.6025
 21
-3.45
 31
0.0
 12
13.2525
 22
-0.95
 32
0.0
 13
13.6025
 23
-0.95
 33
0.0
  0
SOLID
  5
11A
100
AcDbEntity
  8
PART_PADS_SMD_TOP
100
AcDbTrace
 10
13.8875
 20
-3.45
 30
0.0
 11
14.2375
 21
-3.45
 31
0.0
 12
13.8875
 22
-0.95
 32
0.0
 13
14.2375
 23
-0.95
 33
0.0
  0
SOLID
  5
11B
100
AcDbEntity
  8
PART_PADS_SMD_TOP
100
AcDbTrace
 10
14.5225
 20
-3.45
 30
0.0
 11
14.8725
 21
-3.45
 31
0.0
 12
14.5225
 22
-0.95
 32
0.0
 13
14.8725
 23
-0.95
 33
0.0
  0
SOLID
  5
11C
100
AcDbEntity
  8
PART_PADS_SMD_TOP
100
AcDbTrace
 10
15.1575
 20
-3.45
 30
0.0
 11
15.5075
 21
-3.45
 31
0.0
 12
15.1575
 22
-0.95
 32
0.0
 13
15.5075
 23
-0.95
 33
0.0
  0
SOLID
  5
11D
100
AcDbEntity
  8
PART_PADS_SMD_TOP
100
AcDbTrace
 10
15.7925
 20
-3.45
 30
0.0
 11
16.1425
 21
-3.45
 31
0.0
 12
15.7925
 22
-0.95
 32
0.0
 13
16.1425
 23
-0.95
 33
0.0
  0
SOLID
  5
11E
100
AcDbEntity
  8
PART_PADS_SMD_TOP
100
AcDbTrace
 10
16.4275
 20
-3.45
 30
0.0
 11
16.7775
 21
-3.45
 31
0.0
 12
16.4275
 22
-0.95
 32
0.0
 13
16.7775
 23
-0.95
 33
0.0
  0
SOLID
  5
11F
100
AcDbEntity
  8
PART_PADS_SMD_TOP
100
AcDbTrace
 10
17.0625
 20
-3.45
 30
0.0
 11
17.4125
 21
-3.45
 31
0.0
 12
17.0625
 22
-0.95
 32
0.0
 13
17.4125
 23
-0.95
 33
0.0
  0
SOLID
  5
120
100
AcDbEntity
  8
PART_PADS_SMD_TOP
100
AcDbTrace
 10
17.6975
 20
-3.45
 30
0.0
 11
18.0475
 21
-3.45
 31
0.0
 12
17.6975
 22
-0.95
 32
0.0
 13
18.0475
 23
-0.95
 33
0.0
  0
SOLID
  5
121
100
AcDbEntity
  8
PART_PADS_SMD_TOP
100
AcDbTrace
 10
18.3325
 20
-3.45
 30
0.0
 11
18.6825
 21
-3.45
 31
0.0
 12
18.3325
 22
-0.95
 32
0.0
 13
18.6825
 23
-0.95
 33
0.0
  0
SOLID
  5
122
100
AcDbEntity
  8
PART_PADS_SMD_TOP
100
AcDbTrace
 10
18.9675
 20
-3.45
 30
0.0
 11
19.3175
 21
-3.45
 31
0.0
 12
18.9675
 22
-0.95
 32
0.0
 13
19.3175
 23
-0.95
 33
0.0
  0
SOLID
  5
123
100
AcDbEntity
  8
PART_PADS_SMD_TOP
100
AcDbTrace
 10
19.6025
 20
-3.45
 30
0.0
 11
19.9525
 21
-3.45
 31
0.0
 12
19.6025
 22
-0.95
 32
0.0
 13
19.9525
 23
-0.95
 33
0.0
  0
SOLID
  5
124
100
AcDbEntity
  8
PART_PADS_SMD_TOP
100
AcDbTrace
 10
20.2375
 20
-3.45
 30
0.0
 11
20.5875
 21
-3.45
 31
0.0
 12
20.2375
 22
-0.95
 32
0.0
 13
20.5875
 23
-0.95
 33
0.0
  0
SOLID
  5
125
100
AcDbEntity
  8
PART_PADS_SMD_TOP
100
AcDbTrace
 10
20.8725
 20
-3.45
 30
0.0
 11
21.2225
 21
-3.45
 31
0.0
 12
20.8725
 22
-0.95
 32
0.0
 13
21.2225
 23
-0.95
 33
0.0
  0
SOLID
  5
126
100
AcDbEntity
  8
PART_PADS_SMD_TOP
100
AcDbTrace
 10
21.5075
 20
-3.45
 30
0.0
 11
21.8575
 21
-3.45
 31
0.0
 12
21.5075
 22
-0.95
 32
0.0
 13
21.8575
 23
-0.95
 33
0.0
  0
SOLID
  5
127
100
AcDbEntity
  8
PART_PADS_SMD_TOP
100
AcDbTrace
 10
22.1425
 20
-3.45
 30
0.0
 11
22.4925
 21
-3.45
 31
0.0
 12
22.1425
 22
-0.95
 32
0.0
 13
22.4925
 23
-0.95
 33
0.0
  0
SOLID
  5
128
100
AcDbEntity
  8
PART_PADS_SMD_TOP
100
AcDbTrace
 10
22.7775
 20
-3.45
 30
0.0
 11
23.1275
 21
-3.45
 31
0.0
 12
22.7775
 22
-0.95
 32
0.0
 13
23.1275
 23
-0.95
 33
0.0
  0
SOLID
  5
129
100
AcDbEntity
  8
PART_PADS_SMD_TOP
100
AcDbTrace
 10
23.4125
 20
-3.45
 30
0.0
 11
23.7625
 21
-3.45
 31
0.0
 12
23.4125
 22
-0.95
 32
0.0
 13
23.7625
 23
-0.95
 33
0.0
  0
SOLID
  5
12A
100
AcDbEntity
  8
PART_PADS_SMD_TOP
100
AcDbTrace
 10
24.0475
 20
-3.45
 30
0.0
 11
24.3975
 21
-3.45
 31
0.0
 12
24.0475
 22
-0.95
 32
0.0
 13
24.3975
 23
-0.95
 33
0.0
  0
SOLID
  5
12B
100
AcDbEntity
  8
PART_PADS_SMD_TOP
100
AcDbTrace
 10
24.6825
 20
-3.45
 30
0.0
 11
25.0325
 21
-3.45
 31
0.0
 12
24.6825
 22
-0.95
 32
0.0
 13
25.0325
 23
-0.95
 33
0.0
  0
SOLID
  5
12C
100
AcDbEntity
  8
PART_PADS_SMD_TOP
100
AcDbTrace
 10
25.3175
 20
-3.45
 30
0.0
 11
25.6675
 21
-3.45
 31
0.0
 12
25.3175
 22
-0.95
 32
0.0
 13
25.6675
 23
-0.95
 33
0.0
  0
SOLID
  5
12D
100
AcDbEntity
  8
PART_PADS_SMD_TOP
100
AcDbTrace
 10
25.9525
 20
-3.45
 30
0.0
 11
26.3025
 21
-3.45
 31
0.0
 12
25.9525
 22
-0.95
 32
0.0
 13
26.3025
 23
-0.95
 33
0.0
  0
SOLID
  5
12E
100
AcDbEntity
  8
PART_PADS_SMD_TOP
100
AcDbTrace
 10
26.5875
 20
-3.45
 30
0.0
 11
26.9375
 21
-3.45
 31
0.0
 12
26.5875
 22
-0.95
 32
0.0
 13
26.9375
 23
-0.95
 33
0.0
  0
SOLID
  5
12F
100
AcDbEntity
  8
PART_PADS_SMD_TOP
100
AcDbTrace
 10
27.2225
 20
-3.45
 30
0.0
 11
27.5725
 21
-3.45
 31
0.0
 12
27.2225
 22
-0.95
 32
0.0
 13
27.5725
 23
-0.95
 33
0.0
  0
SOLID
  5
130
100
AcDbEntity
  8
PART_PADS_SMD_TOP
100
AcDbTrace
 10
27.8575
 20
-3.45
 30
0.0
 11
28.2075
 21
-3.45
 31
0.0
 12
27.8575
 22
-0.95
 32
0.0
 13
28.2075
 23
-0.95
 33
0.0
  0
SOLID
  5
131
100
AcDbEntity
  8
PART_PADS_SMD_TOP
100
AcDbTrace
 10
28.4925
 20
-3.45
 30
0.0
 11
28.8425
 21
-3.45
 31
0.0
 12
28.4925
 22
-0.95
 32
0.0
 13
28.8425
 23
-0.95
 33
0.0
  0
SOLID
  5
132
100
AcDbEntity
  8
PART_PADS_SMD_TOP
100
AcDbTrace
 10
29.1275
 20
-3.45
 30
0.0
 11
29.4775
 21
-3.45
 31
0.0
 12
29.1275
 22
-0.95
 32
0.0
 13
29.4775
 23
-0.95
 33
0.0
  0
SOLID
  5
133
100
AcDbEntity
  8
PART_PADS_SMD_TOP
100
AcDbTrace
 10
29.7625
 20
-3.45
 30
0.0
 11
30.1125
 21
-3.45
 31
0.0
 12
29.7625
 22
-0.95
 32
0.0
 13
30.1125
 23
-0.95
 33
0.0
  0
SOLID
  5
134
100
AcDbEntity
  8
PART_PADS_SMD_TOP
100
AcDbTrace
 10
30.3975
 20
-3.45
 30
0.0
 11
30.7475
 21
-3.45
 31
0.0
 12
30.3975
 22
-0.95
 32
0.0
 13
30.7475
 23
-0.95
 33
0.0
  0
SOLID
  5
135
100
AcDbEntity
  8
PART_PADS_SMD_TOP
100
AcDbTrace
 10
31.0325
 20
-3.45
 30
0.0
 11
31.3825
 21
-3.45
 31
0.0
 12
31.0325
 22
-0.95
 32
0.0
 13
31.3825
 23
-0.95
 33
0.0
  0
SOLID
  5
136
100
AcDbEntity
  8
PART_PADS_SMD_TOP
100
AcDbTrace
 10
31.6675
 20
-3.45
 30
0.0
 11
32.0175
 21
-3.45
 31
0.0
 12
31.6675
 22
-0.95
 32
0.0
 13
32.0175
 23
-0.95
 33
0.0
  0
SOLID
  5
137
100
AcDbEntity
  8
PART_PADS_SMD_TOP
100
AcDbTrace
 10
32.3025
 20
-3.45
 30
0.0
 11
32.6525
 21
-3.45
 31
0.0
 12
32.3025
 22
-0.95
 32
0.0
 13
32.6525
 23
-0.95
 33
0.0
  0
SOLID
  5
138
100
AcDbEntity
  8
PART_PADS_SMD_TOP
100
AcDbTrace
 10
32.9375
 20
-3.45
 30
0.0
 11
33.2875
 21
-3.45
 31
0.0
 12
32.9375
 22
-0.95
 32
0.0
 13
33.2875
 23
-0.95
 33
0.0
  0
SOLID
  5
139
100
AcDbEntity
  8
PART_PADS_SMD_TOP
100
AcDbTrace
 10
33.5725
 20
-3.45
 30
0.0
 11
33.9225
 21
-3.45
 31
0.0
 12
33.5725
 22
-0.95
 32
0.0
 13
33.9225
 23
-0.95
 33
0.0
  0
SOLID
  5
13A
100
AcDbEntity
  8
PART_PADS_SMD_TOP
100
AcDbTrace
 10
34.2075
 20
-3.45
 30
0.0
 11
34.5575
 21
-3.45
 31
0.0
 12
34.2075
 22
-0.95
 32
0.0
 13
34.5575
 23
-0.95
 33
0.0
  0
SOLID
  5
13B
100
AcDbEntity
  8
PART_PADS_SMD_TOP
100
AcDbTrace
 10
34.8425
 20
-3.45
 30
0.0
 11
35.1925
 21
-3.45
 31
0.0
 12
34.8425
 22
-0.95
 32
0.0
 13
35.1925
 23
-0.95
 33
0.0
  0
SOLID
  5
13C
100
AcDbEntity
  8
PART_PADS_SMD_TOP
100
AcDbTrace
 10
35.4775
 20
-3.45
 30
0.0
 11
35.8275
 21
-3.45
 31
0.0
 12
35.4775
 22
-0.95
 32
0.0
 13
35.8275
 23
-0.95
 33
0.0
  0
SOLID
  5
13D
100
AcDbEntity
  8
PART_PADS_SMD_TOP
100
AcDbTrace
 10
36.1125
 20
-3.45
 30
0.0
 11
36.4625
 21
-3.45
 31
0.0
 12
36.1125
 22
-0.95
 32
0.0
 13
36.4625
 23
-0.95
 33
0.0
  0
SOLID
  5
13E
100
AcDbEntity
  8
PART_PADS_SMD_TOP
100
AcDbTrace
 10
36.7475
 20
-3.45
 30
0.0
 11
37.0975
 21
-3.45
 31
0.0
 12
36.7475
 22
-0.95
 32
0.0
 13
37.0975
 23
-0.95
 33
0.0
  0
SOLID
  5
13F
100
AcDbEntity
  8
PART_PADS_SMD_TOP
100
AcDbTrace
 10
37.3825
 20
-3.45
 30
0.0
 11
37.7325
 21
-3.45
 31
0.0
 12
37.3825
 22
-0.95
 32
0.0
 13
37.7325
 23
-0.95
 33
0.0
  0
SOLID
  5
140
100
AcDbEntity
  8
PART_PADS_SMD_TOP
100
AcDbTrace
 10
38.0175
 20
-3.45
 30
0.0
 11
38.3675
 21
-3.45
 31
0.0
 12
38.0175
 22
-0.95
 32
0.0
 13
38.3675
 23
-0.95
 33
0.0
  0
SOLID
  5
141
100
AcDbEntity
  8
PART_PADS_SMD_TOP
100
AcDbTrace
 10
38.6525
 20
-3.45
 30
0.0
 11
39.0025
 21
-3.45
 31
0.0
 12
38.6525
 22
-0.95
 32
0.0
 13
39.0025
 23
-0.95
 33
0.0
  0
SOLID
  5
142
100
AcDbEntity
  8
PART_PADS_SMD_TOP
100
AcDbTrace
 10
39.2875
 20
-3.45
 30
0.0
 11
39.6375
 21
-3.45
 31
0.0
 12
39.2875
 22
-0.95
 32
0.0
 13
39.6375
 23
-0.95
 33
0.0
  0
SOLID
  5
143
100
AcDbEntity
  8
PART_PADS_SMD_TOP
100
AcDbTrace
 10
39.9225
 20
-3.45
 30
0.0
 11
40.2725
 21
-3.45
 31
0.0
 12
39.9225
 22
-0.95
 32
0.0
 13
40.2725
 23
-0.95
 33
0.0
  0
SOLID
  5
144
100
AcDbEntity
  8
PART_PADS_SMD_TOP
100
AcDbTrace
 10
40.5575
 20
-3.45
 30
0.0
 11
40.9075
 21
-3.45
 31
0.0
 12
40.5575
 22
-0.95
 32
0.0
 13
40.9075
 23
-0.95
 33
0.0
  0
SOLID
  5
145
100
AcDbEntity
  8
PART_PADS_SMD_TOP
100
AcDbTrace
 10
41.1925
 20
-3.45
 30
0.0
 11
41.5425
 21
-3.45
 31
0.0
 12
41.1925
 22
-0.95
 32
0.0
 13
41.5425
 23
-0.95
 33
0.0
  0
SOLID
  5
146
100
AcDbEntity
  8
PART_PADS_SMD_TOP
100
AcDbTrace
 10
41.8275
 20
-3.45
 30
0.0
 11
42.1775
 21
-3.45
 31
0.0
 12
41.8275
 22
-0.95
 32
0.0
 13
42.1775
 23
-0.95
 33
0.0
  0
SOLID
  5
147
100
AcDbEntity
  8
PART_PADS_SMD_TOP
100
AcDbTrace
 10
42.4625
 20
-3.45
 30
0.0
 11
42.8125
 21
-3.45
 31
0.0
 12
42.4625
 22
-0.95
 32
0.0
 13
42.8125
 23
-0.95
 33
0.0
  0
SOLID
  5
148
100
AcDbEntity
  8
PART_PADS_SMD_TOP
100
AcDbTrace
 10
43.0975
 20
-3.45
 30
0.0
 11
43.4475
 21
-3.45
 31
0.0
 12
43.0975
 22
-0.95
 32
0.0
 13
43.4475
 23
-0.95
 33
0.0
  0
SOLID
  5
149
100
AcDbEntity
  8
PART_PADS_SMD_TOP
100
AcDbTrace
 10
43.7325
 20
-3.45
 30
0.0
 11
44.0825
 21
-3.45
 31
0.0
 12
43.7325
 22
-0.95
 32
0.0
 13
44.0825
 23
-0.95
 33
0.0
  0
SOLID
  5
14A
100
AcDbEntity
  8
PART_PADS_SMD_TOP
100
AcDbTrace
 10
44.3675
 20
-3.45
 30
0.0
 11
44.7175
 21
-3.45
 31
0.0
 12
44.3675
 22
-0.95
 32
0.0
 13
44.7175
 23
-0.95
 33
0.0
  0
SOLID
  5
14B
100
AcDbEntity
  8
PART_PADS_SMD_TOP
100
AcDbTrace
 10
45.0025
 20
-3.45
 30
0.0
 11
45.3525
 21
-3.45
 31
0.0
 12
45.0025
 22
-0.95
 32
0.0
 13
45.3525
 23
-0.95
 33
0.0
  0
SOLID
  5
14C
100
AcDbEntity
  8
PART_PADS_SMD_TOP
100
AcDbTrace
 10
45.6375
 20
-3.45
 30
0.0
 11
45.9875
 21
-3.45
 31
0.0
 12
45.6375
 22
-0.95
 32
0.0
 13
45.9875
 23
-0.95
 33
0.0
  0
SOLID
  5
14D
100
AcDbEntity
  8
PART_PADS_SMD_TOP
100
AcDbTrace
 10
46.2725
 20
-3.45
 30
0.0
 11
46.6225
 21
-3.45
 31
0.0
 12
46.2725
 22
-0.95
 32
0.0
 13
46.6225
 23
-0.95
 33
0.0
  0
SOLID
  5
14E
100
AcDbEntity
  8
PART_PADS_SMD_TOP
100
AcDbTrace
 10
46.9075
 20
-3.45
 30
0.0
 11
47.2575
 21
-3.45
 31
0.0
 12
46.9075
 22
-0.95
 32
0.0
 13
47.2575
 23
-0.95
 33
0.0
  0
SOLID
  5
14F
100
AcDbEntity
  8
PART_PADS_SMD_TOP
100
AcDbTrace
 10
47.5425
 20
-3.45
 30
0.0
 11
47.8925
 21
-3.45
 31
0.0
 12
47.5425
 22
-0.95
 32
0.0
 13
47.8925
 23
-0.95
 33
0.0
  0
SOLID
  5
150
100
AcDbEntity
  8
PART_PADS_SMD_TOP
100
AcDbTrace
 10
48.1775
 20
-3.45
 30
0.0
 11
48.5275
 21
-3.45
 31
0.0
 12
48.1775
 22
-0.95
 32
0.0
 13
48.5275
 23
-0.95
 33
0.0
  0
SOLID
  5
151
100
AcDbEntity
  8
PART_PADS_SMD_TOP
100
AcDbTrace
 10
48.8125
 20
-3.45
 30
0.0
 11
49.1625
 21
-3.45
 31
0.0
 12
48.8125
 22
-0.95
 32
0.0
 13
49.1625
 23
-0.95
 33
0.0
  0
SOLID
  5
152
100
AcDbEntity
  8
PART_PADS_SMD_TOP
100
AcDbTrace
 10
49.4475
 20
-3.45
 30
0.0
 11
49.7975
 21
-3.45
 31
0.0
 12
49.4475
 22
-0.95
 32
0.0
 13
49.7975
 23
-0.95
 33
0.0
  0
SOLID
  5
153
100
AcDbEntity
  8
PART_PADS_SMD_TOP
100
AcDbTrace
 10
50.0825
 20
-3.45
 30
0.0
 11
50.4325
 21
-3.45
 31
0.0
 12
50.0825
 22
-0.95
 32
0.0
 13
50.4325
 23
-0.95
 33
0.0
  0
SOLID
  5
154
100
AcDbEntity
  8
PART_PADS_SMD_TOP
100
AcDbTrace
 10
50.7175
 20
-3.45
 30
0.0
 11
51.0675
 21
-3.45
 31
0.0
 12
50.7175
 22
-0.95
 32
0.0
 13
51.0675
 23
-0.95
 33
0.0
  0
SOLID
  5
155
100
AcDbEntity
  8
PART_PADS_SMD_TOP
100
AcDbTrace
 10
51.3525
 20
-3.45
 30
0.0
 11
51.7025
 21
-3.45
 31
0.0
 12
51.3525
 22
-0.95
 32
0.0
 13
51.7025
 23
-0.95
 33
0.0
  0
SOLID
  5
156
100
AcDbEntity
  8
PART_PADS_SMD_TOP
100
AcDbTrace
 10
51.9875
 20
-3.45
 30
0.0
 11
52.3375
 21
-3.45
 31
0.0
 12
51.9875
 22
-0.95
 32
0.0
 13
52.3375
 23
-0.95
 33
0.0
  0
SOLID
  5
157
100
AcDbEntity
  8
PART_PADS_SMD_TOP
100
AcDbTrace
 10
52.6225
 20
-3.45
 30
0.0
 11
52.9725
 21
-3.45
 31
0.0
 12
52.6225
 22
-0.95
 32
0.0
 13
52.9725
 23
-0.95
 33
0.0
  0
SOLID
  5
158
100
AcDbEntity
  8
PART_PADS_SMD_TOP
100
AcDbTrace
 10
53.2575
 20
-3.45
 30
0.0
 11
53.6075
 21
-3.45
 31
0.0
 12
53.2575
 22
-0.95
 32
0.0
 13
53.6075
 23
-0.95
 33
0.0
  0
SOLID
  5
159
100
AcDbEntity
  8
PART_PADS_SMD_TOP
100
AcDbTrace
 10
3.0925
 20
0.95
 30
0.0
 11
3.4425
 21
0.95
 31
0.0
 12
3.0925
 22
3.45
 32
0.0
 13
3.4425
 23
3.45
 33
0.0
  0
SOLID
  5
15A
100
AcDbEntity
  8
PART_PADS_SMD_TOP
100
AcDbTrace
 10
3.7275
 20
0.95
 30
0.0
 11
4.0775
 21
0.95
 31
0.0
 12
3.7275
 22
3.45
 32
0.0
 13
4.0775
 23
3.45
 33
0.0
  0
SOLID
  5
15B
100
AcDbEntity
  8
PART_PADS_SMD_TOP
100
AcDbTrace
 10
4.3625
 20
0.95
 30
0.0
 11
4.7125
 21
0.95
 31
0.0
 12
4.3625
 22
3.45
 32
0.0
 13
4.7125
 23
3.45
 33
0.0
  0
SOLID
  5
15C
100
AcDbEntity
  8
PART_PADS_SMD_TOP
100
AcDbTrace
 10
4.9975
 20
0.95
 30
0.0
 11
5.3475
 21
0.95
 31
0.0
 12
4.9975
 22
3.45
 32
0.0
 13
5.3475
 23
3.45
 33
0.0
  0
SOLID
  5
15D
100
AcDbEntity
  8
PART_PADS_SMD_TOP
100
AcDbTrace
 10
5.6325
 20
0.95
 30
0.0
 11
5.9825
 21
0.95
 31
0.0
 12
5.6325
 22
3.45
 32
0.0
 13
5.9825
 23
3.45
 33
0.0
  0
SOLID
  5
15E
100
AcDbEntity
  8
PART_PADS_SMD_TOP
100
AcDbTrace
 10
6.2675
 20
0.95
 30
0.0
 11
6.6175
 21
0.95
 31
0.0
 12
6.2675
 22
3.45
 32
0.0
 13
6.6175
 23
3.45
 33
0.0
  0
SOLID
  5
15F
100
AcDbEntity
  8
PART_PADS_SMD_TOP
100
AcDbTrace
 10
6.9025
 20
0.95
 30
0.0
 11
7.2525
 21
0.95
 31
0.0
 12
6.9025
 22
3.45
 32
0.0
 13
7.2525
 23
3.45
 33
0.0
  0
SOLID
  5
160
100
AcDbEntity
  8
PART_PADS_SMD_TOP
100
AcDbTrace
 10
7.5375
 20
0.95
 30
0.0
 11
7.8875
 21
0.95
 31
0.0
 12
7.5375
 22
3.45
 32
0.0
 13
7.8875
 23
3.45
 33
0.0
  0
SOLID
  5
161
100
AcDbEntity
  8
PART_PADS_SMD_TOP
100
AcDbTrace
 10
8.1725
 20
0.95
 30
0.0
 11
8.5225
 21
0.95
 31
0.0
 12
8.1725
 22
3.45
 32
0.0
 13
8.5225
 23
3.45
 33
0.0
  0
SOLID
  5
162
100
AcDbEntity
  8
PART_PADS_SMD_TOP
100
AcDbTrace
 10
8.8075
 20
0.95
 30
0.0
 11
9.1575
 21
0.95
 31
0.0
 12
8.8075
 22
3.45
 32
0.0
 13
9.1575
 23
3.45
 33
0.0
  0
SOLID
  5
163
100
AcDbEntity
  8
PART_PADS_SMD_TOP
100
AcDbTrace
 10
9.4425
 20
0.95
 30
0.0
 11
9.7925
 21
0.95
 31
0.0
 12
9.4425
 22
3.45
 32
0.0
 13
9.7925
 23
3.45
 33
0.0
  0
SOLID
  5
164
100
AcDbEntity
  8
PART_PADS_SMD_TOP
100
AcDbTrace
 10
10.0775
 20
0.95
 30
0.0
 11
10.4275
 21
0.95
 31
0.0
 12
10.0775
 22
3.45
 32
0.0
 13
10.4275
 23
3.45
 33
0.0
  0
SOLID
  5
165
100
AcDbEntity
  8
PART_PADS_SMD_TOP
100
AcDbTrace
 10
10.7125
 20
0.95
 30
0.0
 11
11.0625
 21
0.95
 31
0.0
 12
10.7125
 22
3.45
 32
0.0
 13
11.0625
 23
3.45
 33
0.0
  0
SOLID
  5
166
100
AcDbEntity
  8
PART_PADS_SMD_TOP
100
AcDbTrace
 10
11.3475
 20
0.95
 30
0.0
 11
11.6975
 21
0.95
 31
0.0
 12
11.3475
 22
3.45
 32
0.0
 13
11.6975
 23
3.45
 33
0.0
  0
SOLID
  5
167
100
AcDbEntity
  8
PART_PADS_SMD_TOP
100
AcDbTrace
 10
11.9825
 20
0.95
 30
0.0
 11
12.3325
 21
0.95
 31
0.0
 12
11.9825
 22
3.45
 32
0.0
 13
12.3325
 23
3.45
 33
0.0
  0
SOLID
  5
168
100
AcDbEntity
  8
PART_PADS_SMD_TOP
100
AcDbTrace
 10
12.6175
 20
0.95
 30
0.0
 11
12.9675
 21
0.95
 31
0.0
 12
12.6175
 22
3.45
 32
0.0
 13
12.9675
 23
3.45
 33
0.0
  0
SOLID
  5
169
100
AcDbEntity
  8
PART_PADS_SMD_TOP
100
AcDbTrace
 10
13.2525
 20
0.95
 30
0.0
 11
13.6025
 21
0.95
 31
0.0
 12
13.2525
 22
3.45
 32
0.0
 13
13.6025
 23
3.45
 33
0.0
  0
SOLID
  5
16A
100
AcDbEntity
  8
PART_PADS_SMD_TOP
100
AcDbTrace
 10
13.8875
 20
0.95
 30
0.0
 11
14.2375
 21
0.95
 31
0.0
 12
13.8875
 22
3.45
 32
0.0
 13
14.2375
 23
3.45
 33
0.0
  0
SOLID
  5
16B
100
AcDbEntity
  8
PART_PADS_SMD_TOP
100
AcDbTrace
 10
14.5225
 20
0.95
 30
0.0
 11
14.8725
 21
0.95
 31
0.0
 12
14.5225
 22
3.45
 32
0.0
 13
14.8725
 23
3.45
 33
0.0
  0
SOLID
  5
16C
100
AcDbEntity
  8
PART_PADS_SMD_TOP
100
AcDbTrace
 10
15.1575
 20
0.95
 30
0.0
 11
15.5075
 21
0.95
 31
0.0
 12
15.1575
 22
3.45
 32
0.0
 13
15.5075
 23
3.45
 33
0.0
  0
SOLID
  5
16D
100
AcDbEntity
  8
PART_PADS_SMD_TOP
100
AcDbTrace
 10
15.7925
 20
0.95
 30
0.0
 11
16.1425
 21
0.95
 31
0.0
 12
15.7925
 22
3.45
 32
0.0
 13
16.1425
 23
3.45
 33
0.0
  0
SOLID
  5
16E
100
AcDbEntity
  8
PART_PADS_SMD_TOP
100
AcDbTrace
 10
16.4275
 20
0.95
 30
0.0
 11
16.7775
 21
0.95
 31
0.0
 12
16.4275
 22
3.45
 32
0.0
 13
16.7775
 23
3.45
 33
0.0
  0
SOLID
  5
16F
100
AcDbEntity
  8
PART_PADS_SMD_TOP
100
AcDbTrace
 10
17.0625
 20
0.95
 30
0.0
 11
17.4125
 21
0.95
 31
0.0
 12
17.0625
 22
3.45
 32
0.0
 13
17.4125
 23
3.45
 33
0.0
  0
SOLID
  5
170
100
AcDbEntity
  8
PART_PADS_SMD_TOP
100
AcDbTrace
 10
17.6975
 20
0.95
 30
0.0
 11
18.0475
 21
0.95
 31
0.0
 12
17.6975
 22
3.45
 32
0.0
 13
18.0475
 23
3.45
 33
0.0
  0
SOLID
  5
171
100
AcDbEntity
  8
PART_PADS_SMD_TOP
100
AcDbTrace
 10
18.3325
 20
0.95
 30
0.0
 11
18.6825
 21
0.95
 31
0.0
 12
18.3325
 22
3.45
 32
0.0
 13
18.6825
 23
3.45
 33
0.0
  0
SOLID
  5
172
100
AcDbEntity
  8
PART_PADS_SMD_TOP
100
AcDbTrace
 10
18.9675
 20
0.95
 30
0.0
 11
19.3175
 21
0.95
 31
0.0
 12
18.9675
 22
3.45
 32
0.0
 13
19.3175
 23
3.45
 33
0.0
  0
SOLID
  5
173
100
AcDbEntity
  8
PART_PADS_SMD_TOP
100
AcDbTrace
 10
19.6025
 20
0.95
 30
0.0
 11
19.9525
 21
0.95
 31
0.0
 12
19.6025
 22
3.45
 32
0.0
 13
19.9525
 23
3.45
 33
0.0
  0
SOLID
  5
174
100
AcDbEntity
  8
PART_PADS_SMD_TOP
100
AcDbTrace
 10
20.2375
 20
0.95
 30
0.0
 11
20.5875
 21
0.95
 31
0.0
 12
20.2375
 22
3.45
 32
0.0
 13
20.5875
 23
3.45
 33
0.0
  0
SOLID
  5
175
100
AcDbEntity
  8
PART_PADS_SMD_TOP
100
AcDbTrace
 10
20.8725
 20
0.95
 30
0.0
 11
21.2225
 21
0.95
 31
0.0
 12
20.8725
 22
3.45
 32
0.0
 13
21.2225
 23
3.45
 33
0.0
  0
SOLID
  5
176
100
AcDbEntity
  8
PART_PADS_SMD_TOP
100
AcDbTrace
 10
21.5075
 20
0.95
 30
0.0
 11
21.8575
 21
0.95
 31
0.0
 12
21.5075
 22
3.45
 32
0.0
 13
21.8575
 23
3.45
 33
0.0
  0
SOLID
  5
177
100
AcDbEntity
  8
PART_PADS_SMD_TOP
100
AcDbTrace
 10
22.1425
 20
0.95
 30
0.0
 11
22.4925
 21
0.95
 31
0.0
 12
22.1425
 22
3.45
 32
0.0
 13
22.4925
 23
3.45
 33
0.0
  0
SOLID
  5
178
100
AcDbEntity
  8
PART_PADS_SMD_TOP
100
AcDbTrace
 10
22.7775
 20
0.95
 30
0.0
 11
23.1275
 21
0.95
 31
0.0
 12
22.7775
 22
3.45
 32
0.0
 13
23.1275
 23
3.45
 33
0.0
  0
SOLID
  5
179
100
AcDbEntity
  8
PART_PADS_SMD_TOP
100
AcDbTrace
 10
23.4125
 20
0.95
 30
0.0
 11
23.7625
 21
0.95
 31
0.0
 12
23.4125
 22
3.45
 32
0.0
 13
23.7625
 23
3.45
 33
0.0
  0
SOLID
  5
17A
100
AcDbEntity
  8
PART_PADS_SMD_TOP
100
AcDbTrace
 10
24.0475
 20
0.95
 30
0.0
 11
24.3975
 21
0.95
 31
0.0
 12
24.0475
 22
3.45
 32
0.0
 13
24.3975
 23
3.45
 33
0.0
  0
SOLID
  5
17B
100
AcDbEntity
  8
PART_PADS_SMD_TOP
100
AcDbTrace
 10
24.6825
 20
0.95
 30
0.0
 11
25.0325
 21
0.95
 31
0.0
 12
24.6825
 22
3.45
 32
0.0
 13
25.0325
 23
3.45
 33
0.0
  0
SOLID
  5
17C
100
AcDbEntity
  8
PART_PADS_SMD_TOP
100
AcDbTrace
 10
25.3175
 20
0.95
 30
0.0
 11
25.6675
 21
0.95
 31
0.0
 12
25.3175
 22
3.45
 32
0.0
 13
25.6675
 23
3.45
 33
0.0
  0
SOLID
  5
17D
100
AcDbEntity
  8
PART_PADS_SMD_TOP
100
AcDbTrace
 10
25.9525
 20
0.95
 30
0.0
 11
26.3025
 21
0.95
 31
0.0
 12
25.9525
 22
3.45
 32
0.0
 13
26.3025
 23
3.45
 33
0.0
  0
SOLID
  5
17E
100
AcDbEntity
  8
PART_PADS_SMD_TOP
100
AcDbTrace
 10
26.5875
 20
0.95
 30
0.0
 11
26.9375
 21
0.95
 31
0.0
 12
26.5875
 22
3.45
 32
0.0
 13
26.9375
 23
3.45
 33
0.0
  0
SOLID
  5
17F
100
AcDbEntity
  8
PART_PADS_SMD_TOP
100
AcDbTrace
 10
27.2225
 20
0.95
 30
0.0
 11
27.5725
 21
0.95
 31
0.0
 12
27.2225
 22
3.45
 32
0.0
 13
27.5725
 23
3.45
 33
0.0
  0
SOLID
  5
180
100
AcDbEntity
  8
PART_PADS_SMD_TOP
100
AcDbTrace
 10
27.8575
 20
0.95
 30
0.0
 11
28.2075
 21
0.95
 31
0.0
 12
27.8575
 22
3.45
 32
0.0
 13
28.2075
 23
3.45
 33
0.0
  0
SOLID
  5
181
100
AcDbEntity
  8
PART_PADS_SMD_TOP
100
AcDbTrace
 10
28.4925
 20
0.95
 30
0.0
 11
28.8425
 21
0.95
 31
0.0
 12
28.4925
 22
3.45
 32
0.0
 13
28.8425
 23
3.45
 33
0.0
  0
SOLID
  5
182
100
AcDbEntity
  8
PART_PADS_SMD_TOP
100
AcDbTrace
 10
29.1275
 20
0.95
 30
0.0
 11
29.4775
 21
0.95
 31
0.0
 12
29.1275
 22
3.45
 32
0.0
 13
29.4775
 23
3.45
 33
0.0
  0
SOLID
  5
183
100
AcDbEntity
  8
PART_PADS_SMD_TOP
100
AcDbTrace
 10
29.7625
 20
0.95
 30
0.0
 11
30.1125
 21
0.95
 31
0.0
 12
29.7625
 22
3.45
 32
0.0
 13
30.1125
 23
3.45
 33
0.0
  0
SOLID
  5
184
100
AcDbEntity
  8
PART_PADS_SMD_TOP
100
AcDbTrace
 10
30.3975
 20
0.95
 30
0.0
 11
30.7475
 21
0.95
 31
0.0
 12
30.3975
 22
3.45
 32
0.0
 13
30.7475
 23
3.45
 33
0.0
  0
SOLID
  5
185
100
AcDbEntity
  8
PART_PADS_SMD_TOP
100
AcDbTrace
 10
31.0325
 20
0.95
 30
0.0
 11
31.3825
 21
0.95
 31
0.0
 12
31.0325
 22
3.45
 32
0.0
 13
31.3825
 23
3.45
 33
0.0
  0
SOLID
  5
186
100
AcDbEntity
  8
PART_PADS_SMD_TOP
100
AcDbTrace
 10
31.6675
 20
0.95
 30
0.0
 11
32.0175
 21
0.95
 31
0.0
 12
31.6675
 22
3.45
 32
0.0
 13
32.0175
 23
3.45
 33
0.0
  0
SOLID
  5
187
100
AcDbEntity
  8
PART_PADS_SMD_TOP
100
AcDbTrace
 10
32.3025
 20
0.95
 30
0.0
 11
32.6525
 21
0.95
 31
0.0
 12
32.3025
 22
3.45
 32
0.0
 13
32.6525
 23
3.45
 33
0.0
  0
SOLID
  5
188
100
AcDbEntity
  8
PART_PADS_SMD_TOP
100
AcDbTrace
 10
32.9375
 20
0.95
 30
0.0
 11
33.2875
 21
0.95
 31
0.0
 12
32.9375
 22
3.45
 32
0.0
 13
33.2875
 23
3.45
 33
0.0
  0
SOLID
  5
189
100
AcDbEntity
  8
PART_PADS_SMD_TOP
100
AcDbTrace
 10
33.5725
 20
0.95
 30
0.0
 11
33.9225
 21
0.95
 31
0.0
 12
33.5725
 22
3.45
 32
0.0
 13
33.9225
 23
3.45
 33
0.0
  0
SOLID
  5
18A
100
AcDbEntity
  8
PART_PADS_SMD_TOP
100
AcDbTrace
 10
34.2075
 20
0.95
 30
0.0
 11
34.5575
 21
0.95
 31
0.0
 12
34.2075
 22
3.45
 32
0.0
 13
34.5575
 23
3.45
 33
0.0
  0
SOLID
  5
18B
100
AcDbEntity
  8
PART_PADS_SMD_TOP
100
AcDbTrace
 10
34.8425
 20
0.95
 30
0.0
 11
35.1925
 21
0.95
 31
0.0
 12
34.8425
 22
3.45
 32
0.0
 13
35.1925
 23
3.45
 33
0.0
  0
SOLID
  5
18C
100
AcDbEntity
  8
PART_PADS_SMD_TOP
100
AcDbTrace
 10
35.4775
 20
0.95
 30
0.0
 11
35.8275
 21
0.95
 31
0.0
 12
35.4775
 22
3.45
 32
0.0
 13
35.8275
 23
3.45
 33
0.0
  0
SOLID
  5
18D
100
AcDbEntity
  8
PART_PADS_SMD_TOP
100
AcDbTrace
 10
36.1125
 20
0.95
 30
0.0
 11
36.4625
 21
0.95
 31
0.0
 12
36.1125
 22
3.45
 32
0.0
 13
36.4625
 23
3.45
 33
0.0
  0
SOLID
  5
18E
100
AcDbEntity
  8
PART_PADS_SMD_TOP
100
AcDbTrace
 10
36.7475
 20
0.95
 30
0.0
 11
37.0975
 21
0.95
 31
0.0
 12
36.7475
 22
3.45
 32
0.0
 13
37.0975
 23
3.45
 33
0.0
  0
SOLID
  5
18F
100
AcDbEntity
  8
PART_PADS_SMD_TOP
100
AcDbTrace
 10
37.3825
 20
0.95
 30
0.0
 11
37.7325
 21
0.95
 31
0.0
 12
37.3825
 22
3.45
 32
0.0
 13
37.7325
 23
3.45
 33
0.0
  0
SOLID
  5
190
100
AcDbEntity
  8
PART_PADS_SMD_TOP
100
AcDbTrace
 10
38.0175
 20
0.95
 30
0.0
 11
38.3675
 21
0.95
 31
0.0
 12
38.0175
 22
3.45
 32
0.0
 13
38.3675
 23
3.45
 33
0.0
  0
SOLID
  5
191
100
AcDbEntity
  8
PART_PADS_SMD_TOP
100
AcDbTrace
 10
38.6525
 20
0.95
 30
0.0
 11
39.0025
 21
0.95
 31
0.0
 12
38.6525
 22
3.45
 32
0.0
 13
39.0025
 23
3.45
 33
0.0
  0
SOLID
  5
192
100
AcDbEntity
  8
PART_PADS_SMD_TOP
100
AcDbTrace
 10
39.2875
 20
0.95
 30
0.0
 11
39.6375
 21
0.95
 31
0.0
 12
39.2875
 22
3.45
 32
0.0
 13
39.6375
 23
3.45
 33
0.0
  0
SOLID
  5
193
100
AcDbEntity
  8
PART_PADS_SMD_TOP
100
AcDbTrace
 10
39.9225
 20
0.95
 30
0.0
 11
40.2725
 21
0.95
 31
0.0
 12
39.9225
 22
3.45
 32
0.0
 13
40.2725
 23
3.45
 33
0.0
  0
SOLID
  5
194
100
AcDbEntity
  8
PART_PADS_SMD_TOP
100
AcDbTrace
 10
40.5575
 20
0.95
 30
0.0
 11
40.9075
 21
0.95
 31
0.0
 12
40.5575
 22
3.45
 32
0.0
 13
40.9075
 23
3.45
 33
0.0
  0
SOLID
  5
195
100
AcDbEntity
  8
PART_PADS_SMD_TOP
100
AcDbTrace
 10
41.1925
 20
0.95
 30
0.0
 11
41.5425
 21
0.95
 31
0.0
 12
41.1925
 22
3.45
 32
0.0
 13
41.5425
 23
3.45
 33
0.0
  0
SOLID
  5
196
100
AcDbEntity
  8
PART_PADS_SMD_TOP
100
AcDbTrace
 10
41.8275
 20
0.95
 30
0.0
 11
42.1775
 21
0.95
 31
0.0
 12
41.8275
 22
3.45
 32
0.0
 13
42.1775
 23
3.45
 33
0.0
  0
SOLID
  5
197
100
AcDbEntity
  8
PART_PADS_SMD_TOP
100
AcDbTrace
 10
42.4625
 20
0.95
 30
0.0
 11
42.8125
 21
0.95
 31
0.0
 12
42.4625
 22
3.45
 32
0.0
 13
42.8125
 23
3.45
 33
0.0
  0
SOLID
  5
198
100
AcDbEntity
  8
PART_PADS_SMD_TOP
100
AcDbTrace
 10
43.0975
 20
0.95
 30
0.0
 11
43.4475
 21
0.95
 31
0.0
 12
43.0975
 22
3.45
 32
0.0
 13
43.4475
 23
3.45
 33
0.0
  0
SOLID
  5
199
100
AcDbEntity
  8
PART_PADS_SMD_TOP
100
AcDbTrace
 10
43.7325
 20
0.95
 30
0.0
 11
44.0825
 21
0.95
 31
0.0
 12
43.7325
 22
3.45
 32
0.0
 13
44.0825
 23
3.45
 33
0.0
  0
SOLID
  5
19A
100
AcDbEntity
  8
PART_PADS_SMD_TOP
100
AcDbTrace
 10
44.3675
 20
0.95
 30
0.0
 11
44.7175
 21
0.95
 31
0.0
 12
44.3675
 22
3.45
 32
0.0
 13
44.7175
 23
3.45
 33
0.0
  0
SOLID
  5
19B
100
AcDbEntity
  8
PART_PADS_SMD_TOP
100
AcDbTrace
 10
45.0025
 20
0.95
 30
0.0
 11
45.3525
 21
0.95
 31
0.0
 12
45.0025
 22
3.45
 32
0.0
 13
45.3525
 23
3.45
 33
0.0
  0
SOLID
  5
19C
100
AcDbEntity
  8
PART_PADS_SMD_TOP
100
AcDbTrace
 10
45.6375
 20
0.95
 30
0.0
 11
45.9875
 21
0.95
 31
0.0
 12
45.6375
 22
3.45
 32
0.0
 13
45.9875
 23
3.45
 33
0.0
  0
SOLID
  5
19D
100
AcDbEntity
  8
PART_PADS_SMD_TOP
100
AcDbTrace
 10
46.2725
 20
0.95
 30
0.0
 11
46.6225
 21
0.95
 31
0.0
 12
46.2725
 22
3.45
 32
0.0
 13
46.6225
 23
3.45
 33
0.0
  0
SOLID
  5
19E
100
AcDbEntity
  8
PART_PADS_SMD_TOP
100
AcDbTrace
 10
46.9075
 20
0.95
 30
0.0
 11
47.2575
 21
0.95
 31
0.0
 12
46.9075
 22
3.45
 32
0.0
 13
47.2575
 23
3.45
 33
0.0
  0
SOLID
  5
19F
100
AcDbEntity
  8
PART_PADS_SMD_TOP
100
AcDbTrace
 10
47.5425
 20
0.95
 30
0.0
 11
47.8925
 21
0.95
 31
0.0
 12
47.5425
 22
3.45
 32
0.0
 13
47.8925
 23
3.45
 33
0.0
  0
SOLID
  5
1A0
100
AcDbEntity
  8
PART_PADS_SMD_TOP
100
AcDbTrace
 10
48.1775
 20
0.95
 30
0.0
 11
48.5275
 21
0.95
 31
0.0
 12
48.1775
 22
3.45
 32
0.0
 13
48.5275
 23
3.45
 33
0.0
  0
SOLID
  5
1A1
100
AcDbEntity
  8
PART_PADS_SMD_TOP
100
AcDbTrace
 10
48.8125
 20
0.95
 30
0.0
 11
49.1625
 21
0.95
 31
0.0
 12
48.8125
 22
3.45
 32
0.0
 13
49.1625
 23
3.45
 33
0.0
  0
SOLID
  5
1A2
100
AcDbEntity
  8
PART_PADS_SMD_TOP
100
AcDbTrace
 10
49.4475
 20
0.95
 30
0.0
 11
49.7975
 21
0.95
 31
0.0
 12
49.4475
 22
3.45
 32
0.0
 13
49.7975
 23
3.45
 33
0.0
  0
SOLID
  5
1A3
100
AcDbEntity
  8
PART_PADS_SMD_TOP
100
AcDbTrace
 10
50.0825
 20
0.95
 30
0.0
 11
50.4325
 21
0.95
 31
0.0
 12
50.0825
 22
3.45
 32
0.0
 13
50.4325
 23
3.45
 33
0.0
  0
SOLID
  5
1A4
100
AcDbEntity
  8
PART_PADS_SMD_TOP
100
AcDbTrace
 10
50.7175
 20
0.95
 30
0.0
 11
51.0675
 21
0.95
 31
0.0
 12
50.7175
 22
3.45
 32
0.0
 13
51.0675
 23
3.45
 33
0.0
  0
SOLID
  5
1A5
100
AcDbEntity
  8
PART_PADS_SMD_TOP
100
AcDbTrace
 10
51.3525
 20
0.95
 30
0.0
 11
51.7025
 21
0.95
 31
0.0
 12
51.3525
 22
3.45
 32
0.0
 13
51.7025
 23
3.45
 33
0.0
  0
SOLID
  5
1A6
100
AcDbEntity
  8
PART_PADS_SMD_TOP
100
AcDbTrace
 10
51.9875
 20
0.95
 30
0.0
 11
52.3375
 21
0.95
 31
0.0
 12
51.9875
 22
3.45
 32
0.0
 13
52.3375
 23
3.45
 33
0.0
  0
SOLID
  5
1A7
100
AcDbEntity
  8
PART_PADS_SMD_TOP
100
AcDbTrace
 10
52.6225
 20
0.95
 30
0.0
 11
52.9725
 21
0.95
 31
0.0
 12
52.6225
 22
3.45
 32
0.0
 13
52.9725
 23
3.45
 33
0.0
  0
SOLID
  5
1A8
100
AcDbEntity
  8
PART_PADS_SMD_TOP
100
AcDbTrace
 10
53.2575
 20
0.95
 30
0.0
 11
53.6075
 21
0.95
 31
0.0
 12
53.2575
 22
3.45
 32
0.0
 13
53.6075
 23
3.45
 33
0.0
  0
SOLID
  5
1A9
100
AcDbEntity
  8
PART_PADS_SMD_TOP
100
AcDbTrace
 10
3.0925
 20
44.15
 30
0.0
 11
3.4425
 21
44.15
 31
0.0
 12
3.0925
 22
46.65
 32
0.0
 13
3.4425
 23
46.65
 33
0.0
  0
SOLID
  5
1AA
100
AcDbEntity
  8
PART_PADS_SMD_TOP
100
AcDbTrace
 10
3.7275
 20
44.15
 30
0.0
 11
4.0775
 21
44.15
 31
0.0
 12
3.7275
 22
46.65
 32
0.0
 13
4.0775
 23
46.65
 33
0.0
  0
SOLID
  5
1AB
100
AcDbEntity
  8
PART_PADS_SMD_TOP
100
AcDbTrace
 10
4.3625
 20
44.15
 30
0.0
 11
4.7125
 21
44.15
 31
0.0
 12
4.3625
 22
46.65
 32
0.0
 13
4.7125
 23
46.65
 33
0.0
  0
SOLID
  5
1AC
100
AcDbEntity
  8
PART_PADS_SMD_TOP
100
AcDbTrace
 10
4.9975
 20
44.15
 30
0.0
 11
5.3475
 21
44.15
 31
0.0
 12
4.9975
 22
46.65
 32
0.0
 13
5.3475
 23
46.65
 33
0.0
  0
SOLID
  5
1AD
100
AcDbEntity
  8
PART_PADS_SMD_TOP
100
AcDbTrace
 10
5.6325
 20
44.15
 30
0.0
 11
5.9825
 21
44.15
 31
0.0
 12
5.6325
 22
46.65
 32
0.0
 13
5.9825
 23
46.65
 33
0.0
  0
SOLID
  5
1AE
100
AcDbEntity
  8
PART_PADS_SMD_TOP
100
AcDbTrace
 10
6.2675
 20
44.15
 30
0.0
 11
6.6175
 21
44.15
 31
0.0
 12
6.2675
 22
46.65
 32
0.0
 13
6.6175
 23
46.65
 33
0.0
  0
SOLID
  5
1AF
100
AcDbEntity
  8
PART_PADS_SMD_TOP
100
AcDbTrace
 10
6.9025
 20
44.15
 30
0.0
 11
7.2525
 21
44.15
 31
0.0
 12
6.9025
 22
46.65
 32
0.0
 13
7.2525
 23
46.65
 33
0.0
  0
SOLID
  5
1B0
100
AcDbEntity
  8
PART_PADS_SMD_TOP
100
AcDbTrace
 10
7.5375
 20
44.15
 30
0.0
 11
7.8875
 21
44.15
 31
0.0
 12
7.5375
 22
46.65
 32
0.0
 13
7.8875
 23
46.65
 33
0.0
  0
SOLID
  5
1B1
100
AcDbEntity
  8
PART_PADS_SMD_TOP
100
AcDbTrace
 10
8.1725
 20
44.15
 30
0.0
 11
8.5225
 21
44.15
 31
0.0
 12
8.1725
 22
46.65
 32
0.0
 13
8.5225
 23
46.65
 33
0.0
  0
SOLID
  5
1B2
100
AcDbEntity
  8
PART_PADS_SMD_TOP
100
AcDbTrace
 10
8.8075
 20
44.15
 30
0.0
 11
9.1575
 21
44.15
 31
0.0
 12
8.8075
 22
46.65
 32
0.0
 13
9.1575
 23
46.65
 33
0.0
  0
SOLID
  5
1B3
100
AcDbEntity
  8
PART_PADS_SMD_TOP
100
AcDbTrace
 10
9.4425
 20
44.15
 30
0.0
 11
9.7925
 21
44.15
 31
0.0
 12
9.4425
 22
46.65
 32
0.0
 13
9.7925
 23
46.65
 33
0.0
  0
SOLID
  5
1B4
100
AcDbEntity
  8
PART_PADS_SMD_TOP
100
AcDbTrace
 10
10.0775
 20
44.15
 30
0.0
 11
10.4275
 21
44.15
 31
0.0
 12
10.0775
 22
46.65
 32
0.0
 13
10.4275
 23
46.65
 33
0.0
  0
SOLID
  5
1B5
100
AcDbEntity
  8
PART_PADS_SMD_TOP
100
AcDbTrace
 10
10.7125
 20
44.15
 30
0.0
 11
11.0625
 21
44.15
 31
0.0
 12
10.7125
 22
46.65
 32
0.0
 13
11.0625
 23
46.65
 33
0.0
  0
SOLID
  5
1B6
100
AcDbEntity
  8
PART_PADS_SMD_TOP
100
AcDbTrace
 10
11.3475
 20
44.15
 30
0.0
 11
11.6975
 21
44.15
 31
0.0
 12
11.3475
 22
46.65
 32
0.0
 13
11.6975
 23
46.65
 33
0.0
  0
SOLID
  5
1B7
100
AcDbEntity
  8
PART_PADS_SMD_TOP
100
AcDbTrace
 10
11.9825
 20
44.15
 30
0.0
 11
12.3325
 21
44.15
 31
0.0
 12
11.9825
 22
46.65
 32
0.0
 13
12.3325
 23
46.65
 33
0.0
  0
SOLID
  5
1B8
100
AcDbEntity
  8
PART_PADS_SMD_TOP
100
AcDbTrace
 10
12.6175
 20
44.15
 30
0.0
 11
12.9675
 21
44.15
 31
0.0
 12
12.6175
 22
46.65
 32
0.0
 13
12.9675
 23
46.65
 33
0.0
  0
SOLID
  5
1B9
100
AcDbEntity
  8
PART_PADS_SMD_TOP
100
AcDbTrace
 10
13.2525
 20
44.15
 30
0.0
 11
13.6025
 21
44.15
 31
0.0
 12
13.2525
 22
46.65
 32
0.0
 13
13.6025
 23
46.65
 33
0.0
  0
SOLID
  5
1BA
100
AcDbEntity
  8
PART_PADS_SMD_TOP
100
AcDbTrace
 10
13.8875
 20
44.15
 30
0.0
 11
14.2375
 21
44.15
 31
0.0
 12
13.8875
 22
46.65
 32
0.0
 13
14.2375
 23
46.65
 33
0.0
  0
SOLID
  5
1BB
100
AcDbEntity
  8
PART_PADS_SMD_TOP
100
AcDbTrace
 10
14.5225
 20
44.15
 30
0.0
 11
14.8725
 21
44.15
 31
0.0
 12
14.5225
 22
46.65
 32
0.0
 13
14.8725
 23
46.65
 33
0.0
  0
SOLID
  5
1BC
100
AcDbEntity
  8
PART_PADS_SMD_TOP
100
AcDbTrace
 10
15.1575
 20
44.15
 30
0.0
 11
15.5075
 21
44.15
 31
0.0
 12
15.1575
 22
46.65
 32
0.0
 13
15.5075
 23
46.65
 33
0.0
  0
SOLID
  5
1BD
100
AcDbEntity
  8
PART_PADS_SMD_TOP
100
AcDbTrace
 10
15.7925
 20
44.15
 30
0.0
 11
16.1425
 21
44.15
 31
0.0
 12
15.7925
 22
46.65
 32
0.0
 13
16.1425
 23
46.65
 33
0.0
  0
SOLID
  5
1BE
100
AcDbEntity
  8
PART_PADS_SMD_TOP
100
AcDbTrace
 10
16.4275
 20
44.15
 30
0.0
 11
16.7775
 21
44.15
 31
0.0
 12
16.4275
 22
46.65
 32
0.0
 13
16.7775
 23
46.65
 33
0.0
  0
SOLID
  5
1BF
100
AcDbEntity
  8
PART_PADS_SMD_TOP
100
AcDbTrace
 10
17.0625
 20
44.15
 30
0.0
 11
17.4125
 21
44.15
 31
0.0
 12
17.0625
 22
46.65
 32
0.0
 13
17.4125
 23
46.65
 33
0.0
  0
SOLID
  5
1C0
100
AcDbEntity
  8
PART_PADS_SMD_TOP
100
AcDbTrace
 10
17.6975
 20
44.15
 30
0.0
 11
18.0475
 21
44.15
 31
0.0
 12
17.6975
 22
46.65
 32
0.0
 13
18.0475
 23
46.65
 33
0.0
  0
SOLID
  5
1C1
100
AcDbEntity
  8
PART_PADS_SMD_TOP
100
AcDbTrace
 10
18.3325
 20
44.15
 30
0.0
 11
18.6825
 21
44.15
 31
0.0
 12
18.3325
 22
46.65
 32
0.0
 13
18.6825
 23
46.65
 33
0.0
  0
SOLID
  5
1C2
100
AcDbEntity
  8
PART_PADS_SMD_TOP
100
AcDbTrace
 10
18.9675
 20
44.15
 30
0.0
 11
19.3175
 21
44.15
 31
0.0
 12
18.9675
 22
46.65
 32
0.0
 13
19.3175
 23
46.65
 33
0.0
  0
SOLID
  5
1C3
100
AcDbEntity
  8
PART_PADS_SMD_TOP
100
AcDbTrace
 10
19.6025
 20
44.15
 30
0.0
 11
19.9525
 21
44.15
 31
0.0
 12
19.6025
 22
46.65
 32
0.0
 13
19.9525
 23
46.65
 33
0.0
  0
SOLID
  5
1C4
100
AcDbEntity
  8
PART_PADS_SMD_TOP
100
AcDbTrace
 10
20.2375
 20
44.15
 30
0.0
 11
20.5875
 21
44.15
 31
0.0
 12
20.2375
 22
46.65
 32
0.0
 13
20.5875
 23
46.65
 33
0.0
  0
SOLID
  5
1C5
100
AcDbEntity
  8
PART_PADS_SMD_TOP
100
AcDbTrace
 10
20.8725
 20
44.15
 30
0.0
 11
21.2225
 21
44.15
 31
0.0
 12
20.8725
 22
46.65
 32
0.0
 13
21.2225
 23
46.65
 33
0.0
  0
SOLID
  5
1C6
100
AcDbEntity
  8
PART_PADS_SMD_TOP
100
AcDbTrace
 10
21.5075
 20
44.15
 30
0.0
 11
21.8575
 21
44.15
 31
0.0
 12
21.5075
 22
46.65
 32
0.0
 13
21.8575
 23
46.65
 33
0.0
  0
SOLID
  5
1C7
100
AcDbEntity
  8
PART_PADS_SMD_TOP
100
AcDbTrace
 10
22.1425
 20
44.15
 30
0.0
 11
22.4925
 21
44.15
 31
0.0
 12
22.1425
 22
46.65
 32
0.0
 13
22.4925
 23
46.65
 33
0.0
  0
SOLID
  5
1C8
100
AcDbEntity
  8
PART_PADS_SMD_TOP
100
AcDbTrace
 10
22.7775
 20
44.15
 30
0.0
 11
23.1275
 21
44.15
 31
0.0
 12
22.7775
 22
46.65
 32
0.0
 13
23.1275
 23
46.65
 33
0.0
  0
SOLID
  5
1C9
100
AcDbEntity
  8
PART_PADS_SMD_TOP
100
AcDbTrace
 10
23.4125
 20
44.15
 30
0.0
 11
23.7625
 21
44.15
 31
0.0
 12
23.4125
 22
46.65
 32
0.0
 13
23.7625
 23
46.65
 33
0.0
  0
SOLID
  5
1CA
100
AcDbEntity
  8
PART_PADS_SMD_TOP
100
AcDbTrace
 10
24.0475
 20
44.15
 30
0.0
 11
24.3975
 21
44.15
 31
0.0
 12
24.0475
 22
46.65
 32
0.0
 13
24.3975
 23
46.65
 33
0.0
  0
SOLID
  5
1CB
100
AcDbEntity
  8
PART_PADS_SMD_TOP
100
AcDbTrace
 10
24.6825
 20
44.15
 30
0.0
 11
25.0325
 21
44.15
 31
0.0
 12
24.6825
 22
46.65
 32
0.0
 13
25.0325
 23
46.65
 33
0.0
  0
SOLID
  5
1CC
100
AcDbEntity
  8
PART_PADS_SMD_TOP
100
AcDbTrace
 10
25.3175
 20
44.15
 30
0.0
 11
25.6675
 21
44.15
 31
0.0
 12
25.3175
 22
46.65
 32
0.0
 13
25.6675
 23
46.65
 33
0.0
  0
SOLID
  5
1CD
100
AcDbEntity
  8
PART_PADS_SMD_TOP
100
AcDbTrace
 10
25.9525
 20
44.15
 30
0.0
 11
26.3025
 21
44.15
 31
0.0
 12
25.9525
 22
46.65
 32
0.0
 13
26.3025
 23
46.65
 33
0.0
  0
SOLID
  5
1CE
100
AcDbEntity
  8
PART_PADS_SMD_TOP
100
AcDbTrace
 10
26.5875
 20
44.15
 30
0.0
 11
26.9375
 21
44.15
 31
0.0
 12
26.5875
 22
46.65
 32
0.0
 13
26.9375
 23
46.65
 33
0.0
  0
SOLID
  5
1CF
100
AcDbEntity
  8
PART_PADS_SMD_TOP
100
AcDbTrace
 10
27.2225
 20
44.15
 30
0.0
 11
27.5725
 21
44.15
 31
0.0
 12
27.2225
 22
46.65
 32
0.0
 13
27.5725
 23
46.65
 33
0.0
  0
SOLID
  5
1D0
100
AcDbEntity
  8
PART_PADS_SMD_TOP
100
AcDbTrace
 10
27.8575
 20
44.15
 30
0.0
 11
28.2075
 21
44.15
 31
0.0
 12
27.8575
 22
46.65
 32
0.0
 13
28.2075
 23
46.65
 33
0.0
  0
SOLID
  5
1D1
100
AcDbEntity
  8
PART_PADS_SMD_TOP
100
AcDbTrace
 10
28.4925
 20
44.15
 30
0.0
 11
28.8425
 21
44.15
 31
0.0
 12
28.4925
 22
46.65
 32
0.0
 13
28.8425
 23
46.65
 33
0.0
  0
SOLID
  5
1D2
100
AcDbEntity
  8
PART_PADS_SMD_TOP
100
AcDbTrace
 10
29.1275
 20
44.15
 30
0.0
 11
29.4775
 21
44.15
 31
0.0
 12
29.1275
 22
46.65
 32
0.0
 13
29.4775
 23
46.65
 33
0.0
  0
SOLID
  5
1D3
100
AcDbEntity
  8
PART_PADS_SMD_TOP
100
AcDbTrace
 10
29.7625
 20
44.15
 30
0.0
 11
30.1125
 21
44.15
 31
0.0
 12
29.7625
 22
46.65
 32
0.0
 13
30.1125
 23
46.65
 33
0.0
  0
SOLID
  5
1D4
100
AcDbEntity
  8
PART_PADS_SMD_TOP
100
AcDbTrace
 10
30.3975
 20
44.15
 30
0.0
 11
30.7475
 21
44.15
 31
0.0
 12
30.3975
 22
46.65
 32
0.0
 13
30.7475
 23
46.65
 33
0.0
  0
SOLID
  5
1D5
100
AcDbEntity
  8
PART_PADS_SMD_TOP
100
AcDbTrace
 10
31.0325
 20
44.15
 30
0.0
 11
31.3825
 21
44.15
 31
0.0
 12
31.0325
 22
46.65
 32
0.0
 13
31.3825
 23
46.65
 33
0.0
  0
SOLID
  5
1D6
100
AcDbEntity
  8
PART_PADS_SMD_TOP
100
AcDbTrace
 10
31.6675
 20
44.15
 30
0.0
 11
32.0175
 21
44.15
 31
0.0
 12
31.6675
 22
46.65
 32
0.0
 13
32.0175
 23
46.65
 33
0.0
  0
SOLID
  5
1D7
100
AcDbEntity
  8
PART_PADS_SMD_TOP
100
AcDbTrace
 10
32.3025
 20
44.15
 30
0.0
 11
32.6525
 21
44.15
 31
0.0
 12
32.3025
 22
46.65
 32
0.0
 13
32.6525
 23
46.65
 33
0.0
  0
SOLID
  5
1D8
100
AcDbEntity
  8
PART_PADS_SMD_TOP
100
AcDbTrace
 10
32.9375
 20
44.15
 30
0.0
 11
33.2875
 21
44.15
 31
0.0
 12
32.9375
 22
46.65
 32
0.0
 13
33.2875
 23
46.65
 33
0.0
  0
SOLID
  5
1D9
100
AcDbEntity
  8
PART_PADS_SMD_TOP
100
AcDbTrace
 10
33.5725
 20
44.15
 30
0.0
 11
33.9225
 21
44.15
 31
0.0
 12
33.5725
 22
46.65
 32
0.0
 13
33.9225
 23
46.65
 33
0.0
  0
SOLID
  5
1DA
100
AcDbEntity
  8
PART_PADS_SMD_TOP
100
AcDbTrace
 10
34.2075
 20
44.15
 30
0.0
 11
34.5575
 21
44.15
 31
0.0
 12
34.2075
 22
46.65
 32
0.0
 13
34.5575
 23
46.65
 33
0.0
  0
SOLID
  5
1DB
100
AcDbEntity
  8
PART_PADS_SMD_TOP
100
AcDbTrace
 10
34.8425
 20
44.15
 30
0.0
 11
35.1925
 21
44.15
 31
0.0
 12
34.8425
 22
46.65
 32
0.0
 13
35.1925
 23
46.65
 33
0.0
  0
SOLID
  5
1DC
100
AcDbEntity
  8
PART_PADS_SMD_TOP
100
AcDbTrace
 10
35.4775
 20
44.15
 30
0.0
 11
35.8275
 21
44.15
 31
0.0
 12
35.4775
 22
46.65
 32
0.0
 13
35.8275
 23
46.65
 33
0.0
  0
SOLID
  5
1DD
100
AcDbEntity
  8
PART_PADS_SMD_TOP
100
AcDbTrace
 10
36.1125
 20
44.15
 30
0.0
 11
36.4625
 21
44.15
 31
0.0
 12
36.1125
 22
46.65
 32
0.0
 13
36.4625
 23
46.65
 33
0.0
  0
SOLID
  5
1DE
100
AcDbEntity
  8
PART_PADS_SMD_TOP
100
AcDbTrace
 10
36.7475
 20
44.15
 30
0.0
 11
37.0975
 21
44.15
 31
0.0
 12
36.7475
 22
46.65
 32
0.0
 13
37.0975
 23
46.65
 33
0.0
  0
SOLID
  5
1DF
100
AcDbEntity
  8
PART_PADS_SMD_TOP
100
AcDbTrace
 10
37.3825
 20
44.15
 30
0.0
 11
37.7325
 21
44.15
 31
0.0
 12
37.3825
 22
46.65
 32
0.0
 13
37.7325
 23
46.65
 33
0.0
  0
SOLID
  5
1E0
100
AcDbEntity
  8
PART_PADS_SMD_TOP
100
AcDbTrace
 10
38.0175
 20
44.15
 30
0.0
 11
38.3675
 21
44.15
 31
0.0
 12
38.0175
 22
46.65
 32
0.0
 13
38.3675
 23
46.65
 33
0.0
  0
SOLID
  5
1E1
100
AcDbEntity
  8
PART_PADS_SMD_TOP
100
AcDbTrace
 10
38.6525
 20
44.15
 30
0.0
 11
39.0025
 21
44.15
 31
0.0
 12
38.6525
 22
46.65
 32
0.0
 13
39.0025
 23
46.65
 33
0.0
  0
SOLID
  5
1E2
100
AcDbEntity
  8
PART_PADS_SMD_TOP
100
AcDbTrace
 10
39.2875
 20
44.15
 30
0.0
 11
39.6375
 21
44.15
 31
0.0
 12
39.2875
 22
46.65
 32
0.0
 13
39.6375
 23
46.65
 33
0.0
  0
SOLID
  5
1E3
100
AcDbEntity
  8
PART_PADS_SMD_TOP
100
AcDbTrace
 10
39.9225
 20
44.15
 30
0.0
 11
40.2725
 21
44.15
 31
0.0
 12
39.9225
 22
46.65
 32
0.0
 13
40.2725
 23
46.65
 33
0.0
  0
SOLID
  5
1E4
100
AcDbEntity
  8
PART_PADS_SMD_TOP
100
AcDbTrace
 10
40.5575
 20
44.15
 30
0.0
 11
40.9075
 21
44.15
 31
0.0
 12
40.5575
 22
46.65
 32
0.0
 13
40.9075
 23
46.65
 33
0.0
  0
SOLID
  5
1E5
100
AcDbEntity
  8
PART_PADS_SMD_TOP
100
AcDbTrace
 10
41.1925
 20
44.15
 30
0.0
 11
41.5425
 21
44.15
 31
0.0
 12
41.1925
 22
46.65
 32
0.0
 13
41.5425
 23
46.65
 33
0.0
  0
SOLID
  5
1E6
100
AcDbEntity
  8
PART_PADS_SMD_TOP
100
AcDbTrace
 10
41.8275
 20
44.15
 30
0.0
 11
42.1775
 21
44.15
 31
0.0
 12
41.8275
 22
46.65
 32
0.0
 13
42.1775
 23
46.65
 33
0.0
  0
SOLID
  5
1E7
100
AcDbEntity
  8
PART_PADS_SMD_TOP
100
AcDbTrace
 10
42.4625
 20
44.15
 30
0.0
 11
42.8125
 21
44.15
 31
0.0
 12
42.4625
 22
46.65
 32
0.0
 13
42.8125
 23
46.65
 33
0.0
  0
SOLID
  5
1E8
100
AcDbEntity
  8
PART_PADS_SMD_TOP
100
AcDbTrace
 10
43.0975
 20
44.15
 30
0.0
 11
43.4475
 21
44.15
 31
0.0
 12
43.0975
 22
46.65
 32
0.0
 13
43.4475
 23
46.65
 33
0.0
  0
SOLID
  5
1E9
100
AcDbEntity
  8
PART_PADS_SMD_TOP
100
AcDbTrace
 10
43.7325
 20
44.15
 30
0.0
 11
44.0825
 21
44.15
 31
0.0
 12
43.7325
 22
46.65
 32
0.0
 13
44.0825
 23
46.65
 33
0.0
  0
SOLID
  5
1EA
100
AcDbEntity
  8
PART_PADS_SMD_TOP
100
AcDbTrace
 10
44.3675
 20
44.15
 30
0.0
 11
44.7175
 21
44.15
 31
0.0
 12
44.3675
 22
46.65
 32
0.0
 13
44.7175
 23
46.65
 33
0.0
  0
SOLID
  5
1EB
100
AcDbEntity
  8
PART_PADS_SMD_TOP
100
AcDbTrace
 10
45.0025
 20
44.15
 30
0.0
 11
45.3525
 21
44.15
 31
0.0
 12
45.0025
 22
46.65
 32
0.0
 13
45.3525
 23
46.65
 33
0.0
  0
SOLID
  5
1EC
100
AcDbEntity
  8
PART_PADS_SMD_TOP
100
AcDbTrace
 10
45.6375
 20
44.15
 30
0.0
 11
45.9875
 21
44.15
 31
0.0
 12
45.6375
 22
46.65
 32
0.0
 13
45.9875
 23
46.65
 33
0.0
  0
SOLID
  5
1ED
100
AcDbEntity
  8
PART_PADS_SMD_TOP
100
AcDbTrace
 10
46.2725
 20
44.15
 30
0.0
 11
46.6225
 21
44.15
 31
0.0
 12
46.2725
 22
46.65
 32
0.0
 13
46.6225
 23
46.65
 33
0.0
  0
SOLID
  5
1EE
100
AcDbEntity
  8
PART_PADS_SMD_TOP
100
AcDbTrace
 10
46.9075
 20
44.15
 30
0.0
 11
47.2575
 21
44.15
 31
0.0
 12
46.9075
 22
46.65
 32
0.0
 13
47.2575
 23
46.65
 33
0.0
  0
SOLID
  5
1EF
100
AcDbEntity
  8
PART_PADS_SMD_TOP
100
AcDbTrace
 10
47.5425
 20
44.15
 30
0.0
 11
47.8925
 21
44.15
 31
0.0
 12
47.5425
 22
46.65
 32
0.0
 13
47.8925
 23
46.65
 33
0.0
  0
SOLID
  5
1F0
100
AcDbEntity
  8
PART_PADS_SMD_TOP
100
AcDbTrace
 10
48.1775
 20
44.15
 30
0.0
 11
48.5275
 21
44.15
 31
0.0
 12
48.1775
 22
46.65
 32
0.0
 13
48.5275
 23
46.65
 33
0.0
  0
SOLID
  5
1F1
100
AcDbEntity
  8
PART_PADS_SMD_TOP
100
AcDbTrace
 10
48.8125
 20
44.15
 30
0.0
 11
49.1625
 21
44.15
 31
0.0
 12
48.8125
 22
46.65
 32
0.0
 13
49.1625
 23
46.65
 33
0.0
  0
SOLID
  5
1F2
100
AcDbEntity
  8
PART_PADS_SMD_TOP
100
AcDbTrace
 10
49.4475
 20
44.15
 30
0.0
 11
49.7975
 21
44.15
 31
0.0
 12
49.4475
 22
46.65
 32
0.0
 13
49.7975
 23
46.65
 33
0.0
  0
SOLID
  5
1F3
100
AcDbEntity
  8
PART_PADS_SMD_TOP
100
AcDbTrace
 10
50.0825
 20
44.15
 30
0.0
 11
50.4325
 21
44.15
 31
0.0
 12
50.0825
 22
46.65
 32
0.0
 13
50.4325
 23
46.65
 33
0.0
  0
SOLID
  5
1F4
100
AcDbEntity
  8
PART_PADS_SMD_TOP
100
AcDbTrace
 10
50.7175
 20
44.15
 30
0.0
 11
51.0675
 21
44.15
 31
0.0
 12
50.7175
 22
46.65
 32
0.0
 13
51.0675
 23
46.65
 33
0.0
  0
SOLID
  5
1F5
100
AcDbEntity
  8
PART_PADS_SMD_TOP
100
AcDbTrace
 10
51.3525
 20
44.15
 30
0.0
 11
51.7025
 21
44.15
 31
0.0
 12
51.3525
 22
46.65
 32
0.0
 13
51.7025
 23
46.65
 33
0.0
  0
SOLID
  5
1F6
100
AcDbEntity
  8
PART_PADS_SMD_TOP
100
AcDbTrace
 10
51.9875
 20
44.15
 30
0.0
 11
52.3375
 21
44.15
 31
0.0
 12
51.9875
 22
46.65
 32
0.0
 13
52.3375
 23
46.65
 33
0.0
  0
SOLID
  5
1F7
100
AcDbEntity
  8
PART_PADS_SMD_TOP
100
AcDbTrace
 10
52.6225
 20
44.15
 30
0.0
 11
52.9725
 21
44.15
 31
0.0
 12
52.6225
 22
46.65
 32
0.0
 13
52.9725
 23
46.65
 33
0.0
  0
SOLID
  5
1F8
100
AcDbEntity
  8
PART_PADS_SMD_TOP
100
AcDbTrace
 10
53.2575
 20
44.15
 30
0.0
 11
53.6075
 21
44.15
 31
0.0
 12
53.2575
 22
46.65
 32
0.0
 13
53.6075
 23
46.65
 33
0.0
  0
SOLID
  5
1F9
100
AcDbEntity
  8
PART_PADS_SMD_TOP
100
AcDbTrace
 10
3.0925
 20
48.55
 30
0.0
 11
3.4425
 21
48.55
 31
0.0
 12
3.0925
 22
51.05
 32
0.0
 13
3.4425
 23
51.05
 33
0.0
  0
SOLID
  5
1FA
100
AcDbEntity
  8
PART_PADS_SMD_TOP
100
AcDbTrace
 10
3.7275
 20
48.55
 30
0.0
 11
4.0775
 21
48.55
 31
0.0
 12
3.7275
 22
51.05
 32
0.0
 13
4.0775
 23
51.05
 33
0.0
  0
SOLID
  5
1FB
100
AcDbEntity
  8
PART_PADS_SMD_TOP
100
AcDbTrace
 10
4.3625
 20
48.55
 30
0.0
 11
4.7125
 21
48.55
 31
0.0
 12
4.3625
 22
51.05
 32
0.0
 13
4.7125
 23
51.05
 33
0.0
  0
SOLID
  5
1FC
100
AcDbEntity
  8
PART_PADS_SMD_TOP
100
AcDbTrace
 10
4.9975
 20
48.55
 30
0.0
 11
5.3475
 21
48.55
 31
0.0
 12
4.9975
 22
51.05
 32
0.0
 13
5.3475
 23
51.05
 33
0.0
  0
SOLID
  5
1FD
100
AcDbEntity
  8
PART_PADS_SMD_TOP
100
AcDbTrace
 10
5.6325
 20
48.55
 30
0.0
 11
5.9825
 21
48.55
 31
0.0
 12
5.6325
 22
51.05
 32
0.0
 13
5.9825
 23
51.05
 33
0.0
  0
SOLID
  5
1FE
100
AcDbEntity
  8
PART_PADS_SMD_TOP
100
AcDbTrace
 10
6.2675
 20
48.55
 30
0.0
 11
6.6175
 21
48.55
 31
0.0
 12
6.2675
 22
51.05
 32
0.0
 13
6.6175
 23
51.05
 33
0.0
  0
SOLID
  5
1FF
100
AcDbEntity
  8
PART_PADS_SMD_TOP
100
AcDbTrace
 10
6.9025
 20
48.55
 30
0.0
 11
7.2525
 21
48.55
 31
0.0
 12
6.9025
 22
51.05
 32
0.0
 13
7.2525
 23
51.05
 33
0.0
  0
SOLID
  5
200
100
AcDbEntity
  8
PART_PADS_SMD_TOP
100
AcDbTrace
 10
7.5375
 20
48.55
 30
0.0
 11
7.8875
 21
48.55
 31
0.0
 12
7.5375
 22
51.05
 32
0.0
 13
7.8875
 23
51.05
 33
0.0
  0
SOLID
  5
201
100
AcDbEntity
  8
PART_PADS_SMD_TOP
100
AcDbTrace
 10
8.1725
 20
48.55
 30
0.0
 11
8.5225
 21
48.55
 31
0.0
 12
8.1725
 22
51.05
 32
0.0
 13
8.5225
 23
51.05
 33
0.0
  0
SOLID
  5
202
100
AcDbEntity
  8
PART_PADS_SMD_TOP
100
AcDbTrace
 10
8.8075
 20
48.55
 30
0.0
 11
9.1575
 21
48.55
 31
0.0
 12
8.8075
 22
51.05
 32
0.0
 13
9.1575
 23
51.05
 33
0.0
  0
SOLID
  5
203
100
AcDbEntity
  8
PART_PADS_SMD_TOP
100
AcDbTrace
 10
9.4425
 20
48.55
 30
0.0
 11
9.7925
 21
48.55
 31
0.0
 12
9.4425
 22
51.05
 32
0.0
 13
9.7925
 23
51.05
 33
0.0
  0
SOLID
  5
204
100
AcDbEntity
  8
PART_PADS_SMD_TOP
100
AcDbTrace
 10
10.0775
 20
48.55
 30
0.0
 11
10.4275
 21
48.55
 31
0.0
 12
10.0775
 22
51.05
 32
0.0
 13
10.4275
 23
51.05
 33
0.0
  0
SOLID
  5
205
100
AcDbEntity
  8
PART_PADS_SMD_TOP
100
AcDbTrace
 10
10.7125
 20
48.55
 30
0.0
 11
11.0625
 21
48.55
 31
0.0
 12
10.7125
 22
51.05
 32
0.0
 13
11.0625
 23
51.05
 33
0.0
  0
SOLID
  5
206
100
AcDbEntity
  8
PART_PADS_SMD_TOP
100
AcDbTrace
 10
11.3475
 20
48.55
 30
0.0
 11
11.6975
 21
48.55
 31
0.0
 12
11.3475
 22
51.05
 32
0.0
 13
11.6975
 23
51.05
 33
0.0
  0
SOLID
  5
207
100
AcDbEntity
  8
PART_PADS_SMD_TOP
100
AcDbTrace
 10
11.9825
 20
48.55
 30
0.0
 11
12.3325
 21
48.55
 31
0.0
 12
11.9825
 22
51.05
 32
0.0
 13
12.3325
 23
51.05
 33
0.0
  0
SOLID
  5
208
100
AcDbEntity
  8
PART_PADS_SMD_TOP
100
AcDbTrace
 10
12.6175
 20
48.55
 30
0.0
 11
12.9675
 21
48.55
 31
0.0
 12
12.6175
 22
51.05
 32
0.0
 13
12.9675
 23
51.05
 33
0.0
  0
SOLID
  5
209
100
AcDbEntity
  8
PART_PADS_SMD_TOP
100
AcDbTrace
 10
13.2525
 20
48.55
 30
0.0
 11
13.6025
 21
48.55
 31
0.0
 12
13.2525
 22
51.05
 32
0.0
 13
13.6025
 23
51.05
 33
0.0
  0
SOLID
  5
20A
100
AcDbEntity
  8
PART_PADS_SMD_TOP
100
AcDbTrace
 10
13.8875
 20
48.55
 30
0.0
 11
14.2375
 21
48.55
 31
0.0
 12
13.8875
 22
51.05
 32
0.0
 13
14.2375
 23
51.05
 33
0.0
  0
SOLID
  5
20B
100
AcDbEntity
  8
PART_PADS_SMD_TOP
100
AcDbTrace
 10
14.5225
 20
48.55
 30
0.0
 11
14.8725
 21
48.55
 31
0.0
 12
14.5225
 22
51.05
 32
0.0
 13
14.8725
 23
51.05
 33
0.0
  0
SOLID
  5
20C
100
AcDbEntity
  8
PART_PADS_SMD_TOP
100
AcDbTrace
 10
15.1575
 20
48.55
 30
0.0
 11
15.5075
 21
48.55
 31
0.0
 12
15.1575
 22
51.05
 32
0.0
 13
15.5075
 23
51.05
 33
0.0
  0
SOLID
  5
20D
100
AcDbEntity
  8
PART_PADS_SMD_TOP
100
AcDbTrace
 10
15.7925
 20
48.55
 30
0.0
 11
16.1425
 21
48.55
 31
0.0
 12
15.7925
 22
51.05
 32
0.0
 13
16.1425
 23
51.05
 33
0.0
  0
SOLID
  5
20E
100
AcDbEntity
  8
PART_PADS_SMD_TOP
100
AcDbTrace
 10
16.4275
 20
48.55
 30
0.0
 11
16.7775
 21
48.55
 31
0.0
 12
16.4275
 22
51.05
 32
0.0
 13
16.7775
 23
51.05
 33
0.0
  0
SOLID
  5
20F
100
AcDbEntity
  8
PART_PADS_SMD_TOP
100
AcDbTrace
 10
17.0625
 20
48.55
 30
0.0
 11
17.4125
 21
48.55
 31
0.0
 12
17.0625
 22
51.05
 32
0.0
 13
17.4125
 23
51.05
 33
0.0
  0
SOLID
  5
210
100
AcDbEntity
  8
PART_PADS_SMD_TOP
100
AcDbTrace
 10
17.6975
 20
48.55
 30
0.0
 11
18.0475
 21
48.55
 31
0.0
 12
17.6975
 22
51.05
 32
0.0
 13
18.0475
 23
51.05
 33
0.0
  0
SOLID
  5
211
100
AcDbEntity
  8
PART_PADS_SMD_TOP
100
AcDbTrace
 10
18.3325
 20
48.55
 30
0.0
 11
18.6825
 21
48.55
 31
0.0
 12
18.3325
 22
51.05
 32
0.0
 13
18.6825
 23
51.05
 33
0.0
  0
SOLID
  5
212
100
AcDbEntity
  8
PART_PADS_SMD_TOP
100
AcDbTrace
 10
18.9675
 20
48.55
 30
0.0
 11
19.3175
 21
48.55
 31
0.0
 12
18.9675
 22
51.05
 32
0.0
 13
19.3175
 23
51.05
 33
0.0
  0
SOLID
  5
213
100
AcDbEntity
  8
PART_PADS_SMD_TOP
100
AcDbTrace
 10
19.6025
 20
48.55
 30
0.0
 11
19.9525
 21
48.55
 31
0.0
 12
19.6025
 22
51.05
 32
0.0
 13
19.9525
 23
51.05
 33
0.0
  0
SOLID
  5
214
100
AcDbEntity
  8
PART_PADS_SMD_TOP
100
AcDbTrace
 10
20.2375
 20
48.55
 30
0.0
 11
20.5875
 21
48.55
 31
0.0
 12
20.2375
 22
51.05
 32
0.0
 13
20.5875
 23
51.05
 33
0.0
  0
SOLID
  5
215
100
AcDbEntity
  8
PART_PADS_SMD_TOP
100
AcDbTrace
 10
20.8725
 20
48.55
 30
0.0
 11
21.2225
 21
48.55
 31
0.0
 12
20.8725
 22
51.05
 32
0.0
 13
21.2225
 23
51.05
 33
0.0
  0
SOLID
  5
216
100
AcDbEntity
  8
PART_PADS_SMD_TOP
100
AcDbTrace
 10
21.5075
 20
48.55
 30
0.0
 11
21.8575
 21
48.55
 31
0.0
 12
21.5075
 22
51.05
 32
0.0
 13
21.8575
 23
51.05
 33
0.0
  0
SOLID
  5
217
100
AcDbEntity
  8
PART_PADS_SMD_TOP
100
AcDbTrace
 10
22.1425
 20
48.55
 30
0.0
 11
22.4925
 21
48.55
 31
0.0
 12
22.1425
 22
51.05
 32
0.0
 13
22.4925
 23
51.05
 33
0.0
  0
SOLID
  5
218
100
AcDbEntity
  8
PART_PADS_SMD_TOP
100
AcDbTrace
 10
22.7775
 20
48.55
 30
0.0
 11
23.1275
 21
48.55
 31
0.0
 12
22.7775
 22
51.05
 32
0.0
 13
23.1275
 23
51.05
 33
0.0
  0
SOLID
  5
219
100
AcDbEntity
  8
PART_PADS_SMD_TOP
100
AcDbTrace
 10
23.4125
 20
48.55
 30
0.0
 11
23.7625
 21
48.55
 31
0.0
 12
23.4125
 22
51.05
 32
0.0
 13
23.7625
 23
51.05
 33
0.0
  0
SOLID
  5
21A
100
AcDbEntity
  8
PART_PADS_SMD_TOP
100
AcDbTrace
 10
24.0475
 20
48.55
 30
0.0
 11
24.3975
 21
48.55
 31
0.0
 12
24.0475
 22
51.05
 32
0.0
 13
24.3975
 23
51.05
 33
0.0
  0
SOLID
  5
21B
100
AcDbEntity
  8
PART_PADS_SMD_TOP
100
AcDbTrace
 10
24.6825
 20
48.55
 30
0.0
 11
25.0325
 21
48.55
 31
0.0
 12
24.6825
 22
51.05
 32
0.0
 13
25.0325
 23
51.05
 33
0.0
  0
SOLID
  5
21C
100
AcDbEntity
  8
PART_PADS_SMD_TOP
100
AcDbTrace
 10
25.3175
 20
48.55
 30
0.0
 11
25.6675
 21
48.55
 31
0.0
 12
25.3175
 22
51.05
 32
0.0
 13
25.6675
 23
51.05
 33
0.0
  0
SOLID
  5
21D
100
AcDbEntity
  8
PART_PADS_SMD_TOP
100
AcDbTrace
 10
25.9525
 20
48.55
 30
0.0
 11
26.3025
 21
48.55
 31
0.0
 12
25.9525
 22
51.05
 32
0.0
 13
26.3025
 23
51.05
 33
0.0
  0
SOLID
  5
21E
100
AcDbEntity
  8
PART_PADS_SMD_TOP
100
AcDbTrace
 10
26.5875
 20
48.55
 30
0.0
 11
26.9375
 21
48.55
 31
0.0
 12
26.5875
 22
51.05
 32
0.0
 13
26.9375
 23
51.05
 33
0.0
  0
SOLID
  5
21F
100
AcDbEntity
  8
PART_PADS_SMD_TOP
100
AcDbTrace
 10
27.2225
 20
48.55
 30
0.0
 11
27.5725
 21
48.55
 31
0.0
 12
27.2225
 22
51.05
 32
0.0
 13
27.5725
 23
51.05
 33
0.0
  0
SOLID
  5
220
100
AcDbEntity
  8
PART_PADS_SMD_TOP
100
AcDbTrace
 10
27.8575
 20
48.55
 30
0.0
 11
28.2075
 21
48.55
 31
0.0
 12
27.8575
 22
51.05
 32
0.0
 13
28.2075
 23
51.05
 33
0.0
  0
SOLID
  5
221
100
AcDbEntity
  8
PART_PADS_SMD_TOP
100
AcDbTrace
 10
28.4925
 20
48.55
 30
0.0
 11
28.8425
 21
48.55
 31
0.0
 12
28.4925
 22
51.05
 32
0.0
 13
28.8425
 23
51.05
 33
0.0
  0
SOLID
  5
222
100
AcDbEntity
  8
PART_PADS_SMD_TOP
100
AcDbTrace
 10
29.1275
 20
48.55
 30
0.0
 11
29.4775
 21
48.55
 31
0.0
 12
29.1275
 22
51.05
 32
0.0
 13
29.4775
 23
51.05
 33
0.0
  0
SOLID
  5
223
100
AcDbEntity
  8
PART_PADS_SMD_TOP
100
AcDbTrace
 10
29.7625
 20
48.55
 30
0.0
 11
30.1125
 21
48.55
 31
0.0
 12
29.7625
 22
51.05
 32
0.0
 13
30.1125
 23
51.05
 33
0.0
  0
SOLID
  5
224
100
AcDbEntity
  8
PART_PADS_SMD_TOP
100
AcDbTrace
 10
30.3975
 20
48.55
 30
0.0
 11
30.7475
 21
48.55
 31
0.0
 12
30.3975
 22
51.05
 32
0.0
 13
30.7475
 23
51.05
 33
0.0
  0
SOLID
  5
225
100
AcDbEntity
  8
PART_PADS_SMD_TOP
100
AcDbTrace
 10
31.0325
 20
48.55
 30
0.0
 11
31.3825
 21
48.55
 31
0.0
 12
31.0325
 22
51.05
 32
0.0
 13
31.3825
 23
51.05
 33
0.0
  0
SOLID
  5
226
100
AcDbEntity
  8
PART_PADS_SMD_TOP
100
AcDbTrace
 10
31.6675
 20
48.55
 30
0.0
 11
32.0175
 21
48.55
 31
0.0
 12
31.6675
 22
51.05
 32
0.0
 13
32.0175
 23
51.05
 33
0.0
  0
SOLID
  5
227
100
AcDbEntity
  8
PART_PADS_SMD_TOP
100
AcDbTrace
 10
32.3025
 20
48.55
 30
0.0
 11
32.6525
 21
48.55
 31
0.0
 12
32.3025
 22
51.05
 32
0.0
 13
32.6525
 23
51.05
 33
0.0
  0
SOLID
  5
228
100
AcDbEntity
  8
PART_PADS_SMD_TOP
100
AcDbTrace
 10
32.9375
 20
48.55
 30
0.0
 11
33.2875
 21
48.55
 31
0.0
 12
32.9375
 22
51.05
 32
0.0
 13
33.2875
 23
51.05
 33
0.0
  0
SOLID
  5
229
100
AcDbEntity
  8
PART_PADS_SMD_TOP
100
AcDbTrace
 10
33.5725
 20
48.55
 30
0.0
 11
33.9225
 21
48.55
 31
0.0
 12
33.5725
 22
51.05
 32
0.0
 13
33.9225
 23
51.05
 33
0.0
  0
SOLID
  5
22A
100
AcDbEntity
  8
PART_PADS_SMD_TOP
100
AcDbTrace
 10
34.2075
 20
48.55
 30
0.0
 11
34.5575
 21
48.55
 31
0.0
 12
34.2075
 22
51.05
 32
0.0
 13
34.5575
 23
51.05
 33
0.0
  0
SOLID
  5
22B
100
AcDbEntity
  8
PART_PADS_SMD_TOP
100
AcDbTrace
 10
34.8425
 20
48.55
 30
0.0
 11
35.1925
 21
48.55
 31
0.0
 12
34.8425
 22
51.05
 32
0.0
 13
35.1925
 23
51.05
 33
0.0
  0
SOLID
  5
22C
100
AcDbEntity
  8
PART_PADS_SMD_TOP
100
AcDbTrace
 10
35.4775
 20
48.55
 30
0.0
 11
35.8275
 21
48.55
 31
0.0
 12
35.4775
 22
51.05
 32
0.0
 13
35.8275
 23
51.05
 33
0.0
  0
SOLID
  5
22D
100
AcDbEntity
  8
PART_PADS_SMD_TOP
100
AcDbTrace
 10
36.1125
 20
48.55
 30
0.0
 11
36.4625
 21
48.55
 31
0.0
 12
36.1125
 22
51.05
 32
0.0
 13
36.4625
 23
51.05
 33
0.0
  0
SOLID
  5
22E
100
AcDbEntity
  8
PART_PADS_SMD_TOP
100
AcDbTrace
 10
36.7475
 20
48.55
 30
0.0
 11
37.0975
 21
48.55
 31
0.0
 12
36.7475
 22
51.05
 32
0.0
 13
37.0975
 23
51.05
 33
0.0
  0
SOLID
  5
22F
100
AcDbEntity
  8
PART_PADS_SMD_TOP
100
AcDbTrace
 10
37.3825
 20
48.55
 30
0.0
 11
37.7325
 21
48.55
 31
0.0
 12
37.3825
 22
51.05
 32
0.0
 13
37.7325
 23
51.05
 33
0.0
  0
SOLID
  5
230
100
AcDbEntity
  8
PART_PADS_SMD_TOP
100
AcDbTrace
 10
38.0175
 20
48.55
 30
0.0
 11
38.3675
 21
48.55
 31
0.0
 12
38.0175
 22
51.05
 32
0.0
 13
38.3675
 23
51.05
 33
0.0
  0
SOLID
  5
231
100
AcDbEntity
  8
PART_PADS_SMD_TOP
100
AcDbTrace
 10
38.6525
 20
48.55
 30
0.0
 11
39.0025
 21
48.55
 31
0.0
 12
38.6525
 22
51.05
 32
0.0
 13
39.0025
 23
51.05
 33
0.0
  0
SOLID
  5
232
100
AcDbEntity
  8
PART_PADS_SMD_TOP
100
AcDbTrace
 10
39.2875
 20
48.55
 30
0.0
 11
39.6375
 21
48.55
 31
0.0
 12
39.2875
 22
51.05
 32
0.0
 13
39.6375
 23
51.05
 33
0.0
  0
SOLID
  5
233
100
AcDbEntity
  8
PART_PADS_SMD_TOP
100
AcDbTrace
 10
39.9225
 20
48.55
 30
0.0
 11
40.2725
 21
48.55
 31
0.0
 12
39.9225
 22
51.05
 32
0.0
 13
40.2725
 23
51.05
 33
0.0
  0
SOLID
  5
234
100
AcDbEntity
  8
PART_PADS_SMD_TOP
100
AcDbTrace
 10
40.5575
 20
48.55
 30
0.0
 11
40.9075
 21
48.55
 31
0.0
 12
40.5575
 22
51.05
 32
0.0
 13
40.9075
 23
51.05
 33
0.0
  0
SOLID
  5
235
100
AcDbEntity
  8
PART_PADS_SMD_TOP
100
AcDbTrace
 10
41.1925
 20
48.55
 30
0.0
 11
41.5425
 21
48.55
 31
0.0
 12
41.1925
 22
51.05
 32
0.0
 13
41.5425
 23
51.05
 33
0.0
  0
SOLID
  5
236
100
AcDbEntity
  8
PART_PADS_SMD_TOP
100
AcDbTrace
 10
41.8275
 20
48.55
 30
0.0
 11
42.1775
 21
48.55
 31
0.0
 12
41.8275
 22
51.05
 32
0.0
 13
42.1775
 23
51.05
 33
0.0
  0
SOLID
  5
237
100
AcDbEntity
  8
PART_PADS_SMD_TOP
100
AcDbTrace
 10
42.4625
 20
48.55
 30
0.0
 11
42.8125
 21
48.55
 31
0.0
 12
42.4625
 22
51.05
 32
0.0
 13
42.8125
 23
51.05
 33
0.0
  0
SOLID
  5
238
100
AcDbEntity
  8
PART_PADS_SMD_TOP
100
AcDbTrace
 10
43.0975
 20
48.55
 30
0.0
 11
43.4475
 21
48.55
 31
0.0
 12
43.0975
 22
51.05
 32
0.0
 13
43.4475
 23
51.05
 33
0.0
  0
SOLID
  5
239
100
AcDbEntity
  8
PART_PADS_SMD_TOP
100
AcDbTrace
 10
43.7325
 20
48.55
 30
0.0
 11
44.0825
 21
48.55
 31
0.0
 12
43.7325
 22
51.05
 32
0.0
 13
44.0825
 23
51.05
 33
0.0
  0
SOLID
  5
23A
100
AcDbEntity
  8
PART_PADS_SMD_TOP
100
AcDbTrace
 10
44.3675
 20
48.55
 30
0.0
 11
44.7175
 21
48.55
 31
0.0
 12
44.3675
 22
51.05
 32
0.0
 13
44.7175
 23
51.05
 33
0.0
  0
SOLID
  5
23B
100
AcDbEntity
  8
PART_PADS_SMD_TOP
100
AcDbTrace
 10
45.0025
 20
48.55
 30
0.0
 11
45.3525
 21
48.55
 31
0.0
 12
45.0025
 22
51.05
 32
0.0
 13
45.3525
 23
51.05
 33
0.0
  0
SOLID
  5
23C
100
AcDbEntity
  8
PART_PADS_SMD_TOP
100
AcDbTrace
 10
45.6375
 20
48.55
 30
0.0
 11
45.9875
 21
48.55
 31
0.0
 12
45.6375
 22
51.05
 32
0.0
 13
45.9875
 23
51.05
 33
0.0
  0
SOLID
  5
23D
100
AcDbEntity
  8
PART_PADS_SMD_TOP
100
AcDbTrace
 10
46.2725
 20
48.55
 30
0.0
 11
46.6225
 21
48.55
 31
0.0
 12
46.2725
 22
51.05
 32
0.0
 13
46.6225
 23
51.05
 33
0.0
  0
SOLID
  5
23E
100
AcDbEntity
  8
PART_PADS_SMD_TOP
100
AcDbTrace
 10
46.9075
 20
48.55
 30
0.0
 11
47.2575
 21
48.55
 31
0.0
 12
46.9075
 22
51.05
 32
0.0
 13
47.2575
 23
51.05
 33
0.0
  0
SOLID
  5
23F
100
AcDbEntity
  8
PART_PADS_SMD_TOP
100
AcDbTrace
 10
47.5425
 20
48.55
 30
0.0
 11
47.8925
 21
48.55
 31
0.0
 12
47.5425
 22
51.05
 32
0.0
 13
47.8925
 23
51.05
 33
0.0
  0
SOLID
  5
240
100
AcDbEntity
  8
PART_PADS_SMD_TOP
100
AcDbTrace
 10
48.1775
 20
48.55
 30
0.0
 11
48.5275
 21
48.55
 31
0.0
 12
48.1775
 22
51.05
 32
0.0
 13
48.5275
 23
51.05
 33
0.0
  0
SOLID
  5
241
100
AcDbEntity
  8
PART_PADS_SMD_TOP
100
AcDbTrace
 10
48.8125
 20
48.55
 30
0.0
 11
49.1625
 21
48.55
 31
0.0
 12
48.8125
 22
51.05
 32
0.0
 13
49.1625
 23
51.05
 33
0.0
  0
SOLID
  5
242
100
AcDbEntity
  8
PART_PADS_SMD_TOP
100
AcDbTrace
 10
49.4475
 20
48.55
 30
0.0
 11
49.7975
 21
48.55
 31
0.0
 12
49.4475
 22
51.05
 32
0.0
 13
49.7975
 23
51.05
 33
0.0
  0
SOLID
  5
243
100
AcDbEntity
  8
PART_PADS_SMD_TOP
100
AcDbTrace
 10
50.0825
 20
48.55
 30
0.0
 11
50.4325
 21
48.55
 31
0.0
 12
50.0825
 22
51.05
 32
0.0
 13
50.4325
 23
51.05
 33
0.0
  0
SOLID
  5
244
100
AcDbEntity
  8
PART_PADS_SMD_TOP
100
AcDbTrace
 10
50.7175
 20
48.55
 30
0.0
 11
51.0675
 21
48.55
 31
0.0
 12
50.7175
 22
51.05
 32
0.0
 13
51.0675
 23
51.05
 33
0.0
  0
SOLID
  5
245
100
AcDbEntity
  8
PART_PADS_SMD_TOP
100
AcDbTrace
 10
51.3525
 20
48.55
 30
0.0
 11
51.7025
 21
48.55
 31
0.0
 12
51.3525
 22
51.05
 32
0.0
 13
51.7025
 23
51.05
 33
0.0
  0
SOLID
  5
246
100
AcDbEntity
  8
PART_PADS_SMD_TOP
100
AcDbTrace
 10
51.9875
 20
48.55
 30
0.0
 11
52.3375
 21
48.55
 31
0.0
 12
51.9875
 22
51.05
 32
0.0
 13
52.3375
 23
51.05
 33
0.0
  0
SOLID
  5
247
100
AcDbEntity
  8
PART_PADS_SMD_TOP
100
AcDbTrace
 10
52.6225
 20
48.55
 30
0.0
 11
52.9725
 21
48.55
 31
0.0
 12
52.6225
 22
51.05
 32
0.0
 13
52.9725
 23
51.05
 33
0.0
  0
SOLID
  5
248
100
AcDbEntity
  8
PART_PADS_SMD_TOP
100
AcDbTrace
 10
53.2575
 20
48.55
 30
0.0
 11
53.6075
 21
48.55
 31
0.0
 12
53.2575
 22
51.05
 32
0.0
 13
53.6075
 23
51.05
 33
0.0
  0
SOLID
  5
249
100
AcDbEntity
  8
PART_PADS_SMD_TOP
100
AcDbTrace
 10
55.235
 20
46.6
 30
0.0
 11
57.735
 21
46.6
 31
0.0
 12
55.235
 22
48.6
 32
0.0
 13
57.735
 23
48.6
 33
0.0
  0
SOLID
  5
24A
100
AcDbEntity
  8
PART_PADS_SMD_TOP
100
AcDbTrace
 10
-1.035
 20
46.6
 30
0.0
 11
1.465
 21
46.6
 31
0.0
 12
-1.035
 22
48.6
 32
0.0
 13
1.465
 23
48.6
 33
0.0
  0
SOLID
  5
24B
100
AcDbEntity
  8
PART_PADS_SMD_TOP
100
AcDbTrace
 10
-1.03
 20
-1.0
 30
0.0
 11
1.47
 21
-1.0
 31
0.0
 12
-1.03
 22
1.0
 32
0.0
 13
1.47
 23
1.0
 33
0.0
  0
SOLID
  5
24C
100
AcDbEntity
  8
PART_PADS_SMD_TOP
100
AcDbTrace
 10
55.23
 20
-1.0
 30
0.0
 11
57.73
 21
-1.0
 31
0.0
 12
55.23
 22
1.0
 32
0.0
 13
57.73
 23
1.0
 33
0.0
  0
TEXT
  5
24E
100
AcDbEntity
  8
PIN_NUMBERS_TOP
100
AcDbText
 10
-4.653796
 20
48.877496
 30
0.0
 40
0.508
  1
325
  7
COURIER_NEW
 72
         1
 11
-4.0
 21
49.1
 31
0.0
100
AcDbText
 73
         2
  0
TEXT
  5
24F
100
AcDbEntity
  8
PIN_NUMBERS_TOP
100
AcDbText
 10
-4.653796
 20
-1.722504
 30
0.0
 40
0.508
  1
326
  7
COURIER_NEW
 72
         1
 11
-4.0
 21
-1.5
 31
0.0
100
AcDbText
 73
         2
  0
TEXT
  5
250
100
AcDbEntity
  8
PIN_NUMBERS_TOP
100
AcDbText
 10
60.046204
 20
-1.722504
 30
0.0
 40
0.508
  1
327
  7
COURIER_NEW
 72
         1
 11
60.7
 21
-1.5
 31
0.0
100
AcDbText
 73
         2
  0
TEXT
  5
251
100
AcDbEntity
  8
PIN_NUMBERS_TOP
100
AcDbText
 10
60.046204
 20
48.877496
 30
0.0
 40
0.508
  1
328
  7
COURIER_NEW
 72
         1
 11
60.7
 21
49.1
 31
0.0
100
AcDbText
 73
         2
  0
TEXT
  5
252
100
AcDbEntity
  8
PIN_NUMBERS_TOP
100
AcDbText
 10
3.049568
 20
-2.422504
 30
0.0
 40
0.508
  1
1
  7
COURIER_NEW
 72
         1
 11
3.2675
 21
-2.2
 31
0.0
100
AcDbText
 73
         2
  0
TEXT
  5
253
100
AcDbEntity
  8
PIN_NUMBERS_TOP
100
AcDbText
 10
3.684568
 20
-2.422504
 30
0.0
 40
0.508
  1
2
  7
COURIER_NEW
 72
         1
 11
3.9025
 21
-2.2
 31
0.0
100
AcDbText
 73
         2
  0
TEXT
  5
254
100
AcDbEntity
  8
PIN_NUMBERS_TOP
100
AcDbText
 10
4.319568
 20
-2.422504
 30
0.0
 40
0.508
  1
3
  7
COURIER_NEW
 72
         1
 11
4.5375
 21
-2.2
 31
0.0
100
AcDbText
 73
         2
  0
TEXT
  5
255
100
AcDbEntity
  8
PIN_NUMBERS_TOP
100
AcDbText
 10
4.954568
 20
-2.422504
 30
0.0
 40
0.508
  1
4
  7
COURIER_NEW
 72
         1
 11
5.1725
 21
-2.2
 31
0.0
100
AcDbText
 73
         2
  0
TEXT
  5
256
100
AcDbEntity
  8
PIN_NUMBERS_TOP
100
AcDbText
 10
5.589568
 20
-2.422504
 30
0.0
 40
0.508
  1
5
  7
COURIER_NEW
 72
         1
 11
5.8075
 21
-2.2
 31
0.0
100
AcDbText
 73
         2
  0
TEXT
  5
257
100
AcDbEntity
  8
PIN_NUMBERS_TOP
100
AcDbText
 10
6.224568
 20
-2.422504
 30
0.0
 40
0.508
  1
6
  7
COURIER_NEW
 72
         1
 11
6.4425
 21
-2.2
 31
0.0
100
AcDbText
 73
         2
  0
TEXT
  5
258
100
AcDbEntity
  8
PIN_NUMBERS_TOP
100
AcDbText
 10
6.859568
 20
-2.422504
 30
0.0
 40
0.508
  1
7
  7
COURIER_NEW
 72
         1
 11
7.0775
 21
-2.2
 31
0.0
100
AcDbText
 73
         2
  0
TEXT
  5
259
100
AcDbEntity
  8
PIN_NUMBERS_TOP
100
AcDbText
 10
7.494568
 20
-2.422504
 30
0.0
 40
0.508
  1
8
  7
COURIER_NEW
 72
         1
 11
7.7125
 21
-2.2
 31
0.0
100
AcDbText
 73
         2
  0
TEXT
  5
25A
100
AcDbEntity
  8
PIN_NUMBERS_TOP
100
AcDbText
 10
8.129568
 20
-2.422504
 30
0.0
 40
0.508
  1
9
  7
COURIER_NEW
 72
         1
 11
8.3475
 21
-2.2
 31
0.0
100
AcDbText
 73
         2
  0
TEXT
  5
25B
100
AcDbEntity
  8
PIN_NUMBERS_TOP
100
AcDbText
 10
8.546636
 20
-2.422504
 30
0.0
 40
0.508
  1
10
  7
COURIER_NEW
 72
         1
 11
8.9825
 21
-2.2
 31
0.0
100
AcDbText
 73
         2
  0
TEXT
  5
25C
100
AcDbEntity
  8
PIN_NUMBERS_TOP
100
AcDbText
 10
9.181636
 20
-2.422504
 30
0.0
 40
0.508
  1
11
  7
COURIER_NEW
 72
         1
 11
9.6175
 21
-2.2
 31
0.0
100
AcDbText
 73
         2
  0
TEXT
  5
25D
100
AcDbEntity
  8
PIN_NUMBERS_TOP
100
AcDbText
 10
9.816636
 20
-2.422504
 30
0.0
 40
0.508
  1
12
  7
COURIER_NEW
 72
         1
 11
10.2525
 21
-2.2
 31
0.0
100
AcDbText
 73
         2
  0
TEXT
  5
25E
100
AcDbEntity
  8
PIN_NUMBERS_TOP
100
AcDbText
 10
10.451636
 20
-2.422504
 30
0.0
 40
0.508
  1
13
  7
COURIER_NEW
 72
         1
 11
10.8875
 21
-2.2
 31
0.0
100
AcDbText
 73
         2
  0
TEXT
  5
25F
100
AcDbEntity
  8
PIN_NUMBERS_TOP
100
AcDbText
 10
11.086636
 20
-2.422504
 30
0.0
 40
0.508
  1
14
  7
COURIER_NEW
 72
         1
 11
11.5225
 21
-2.2
 31
0.0
100
AcDbText
 73
         2
  0
TEXT
  5
260
100
AcDbEntity
  8
PIN_NUMBERS_TOP
100
AcDbText
 10
11.721636
 20
-2.422504
 30
0.0
 40
0.508
  1
15
  7
COURIER_NEW
 72
         1
 11
12.1575
 21
-2.2
 31
0.0
100
AcDbText
 73
         2
  0
TEXT
  5
261
100
AcDbEntity
  8
PIN_NUMBERS_TOP
100
AcDbText
 10
12.356636
 20
-2.422504
 30
0.0
 40
0.508
  1
16
  7
COURIER_NEW
 72
         1
 11
12.7925
 21
-2.2
 31
0.0
100
AcDbText
 73
         2
  0
TEXT
  5
262
100
AcDbEntity
  8
PIN_NUMBERS_TOP
100
AcDbText
 10
12.991636
 20
-2.422504
 30
0.0
 40
0.508
  1
17
  7
COURIER_NEW
 72
         1
 11
13.4275
 21
-2.2
 31
0.0
100
AcDbText
 73
         2
  0
TEXT
  5
263
100
AcDbEntity
  8
PIN_NUMBERS_TOP
100
AcDbText
 10
13.626636
 20
-2.422504
 30
0.0
 40
0.508
  1
18
  7
COURIER_NEW
 72
         1
 11
14.0625
 21
-2.2
 31
0.0
100
AcDbText
 73
         2
  0
TEXT
  5
264
100
AcDbEntity
  8
PIN_NUMBERS_TOP
100
AcDbText
 10
14.261636
 20
-2.422504
 30
0.0
 40
0.508
  1
19
  7
COURIER_NEW
 72
         1
 11
14.6975
 21
-2.2
 31
0.0
100
AcDbText
 73
         2
  0
TEXT
  5
265
100
AcDbEntity
  8
PIN_NUMBERS_TOP
100
AcDbText
 10
14.896636
 20
-2.422504
 30
0.0
 40
0.508
  1
20
  7
COURIER_NEW
 72
         1
 11
15.3325
 21
-2.2
 31
0.0
100
AcDbText
 73
         2
  0
TEXT
  5
266
100
AcDbEntity
  8
PIN_NUMBERS_TOP
100
AcDbText
 10
15.531636
 20
-2.422504
 30
0.0
 40
0.508
  1
21
  7
COURIER_NEW
 72
         1
 11
15.9675
 21
-2.2
 31
0.0
100
AcDbText
 73
         2
  0
TEXT
  5
267
100
AcDbEntity
  8
PIN_NUMBERS_TOP
100
AcDbText
 10
16.166636
 20
-2.422504
 30
0.0
 40
0.508
  1
22
  7
COURIER_NEW
 72
         1
 11
16.6025
 21
-2.2
 31
0.0
100
AcDbText
 73
         2
  0
TEXT
  5
268
100
AcDbEntity
  8
PIN_NUMBERS_TOP
100
AcDbText
 10
16.801636
 20
-2.422504
 30
0.0
 40
0.508
  1
23
  7
COURIER_NEW
 72
         1
 11
17.2375
 21
-2.2
 31
0.0
100
AcDbText
 73
         2
  0
TEXT
  5
269
100
AcDbEntity
  8
PIN_NUMBERS_TOP
100
AcDbText
 10
17.436636
 20
-2.422504
 30
0.0
 40
0.508
  1
24
  7
COURIER_NEW
 72
         1
 11
17.8725
 21
-2.2
 31
0.0
100
AcDbText
 73
         2
  0
TEXT
  5
26A
100
AcDbEntity
  8
PIN_NUMBERS_TOP
100
AcDbText
 10
18.071636
 20
-2.422504
 30
0.0
 40
0.508
  1
25
  7
COURIER_NEW
 72
         1
 11
18.5075
 21
-2.2
 31
0.0
100
AcDbText
 73
         2
  0
TEXT
  5
26B
100
AcDbEntity
  8
PIN_NUMBERS_TOP
100
AcDbText
 10
18.706636
 20
-2.422504
 30
0.0
 40
0.508
  1
26
  7
COURIER_NEW
 72
         1
 11
19.1425
 21
-2.2
 31
0.0
100
AcDbText
 73
         2
  0
TEXT
  5
26C
100
AcDbEntity
  8
PIN_NUMBERS_TOP
100
AcDbText
 10
19.341636
 20
-2.422504
 30
0.0
 40
0.508
  1
27
  7
COURIER_NEW
 72
         1
 11
19.7775
 21
-2.2
 31
0.0
100
AcDbText
 73
         2
  0
TEXT
  5
26D
100
AcDbEntity
  8
PIN_NUMBERS_TOP
100
AcDbText
 10
19.976636
 20
-2.422504
 30
0.0
 40
0.508
  1
28
  7
COURIER_NEW
 72
         1
 11
20.4125
 21
-2.2
 31
0.0
100
AcDbText
 73
         2
  0
TEXT
  5
26E
100
AcDbEntity
  8
PIN_NUMBERS_TOP
100
AcDbText
 10
20.611636
 20
-2.422504
 30
0.0
 40
0.508
  1
29
  7
COURIER_NEW
 72
         1
 11
21.0475
 21
-2.2
 31
0.0
100
AcDbText
 73
         2
  0
TEXT
  5
26F
100
AcDbEntity
  8
PIN_NUMBERS_TOP
100
AcDbText
 10
21.246636
 20
-2.422504
 30
0.0
 40
0.508
  1
30
  7
COURIER_NEW
 72
         1
 11
21.6825
 21
-2.2
 31
0.0
100
AcDbText
 73
         2
  0
TEXT
  5
270
100
AcDbEntity
  8
PIN_NUMBERS_TOP
100
AcDbText
 10
21.881636
 20
-2.422504
 30
0.0
 40
0.508
  1
31
  7
COURIER_NEW
 72
         1
 11
22.3175
 21
-2.2
 31
0.0
100
AcDbText
 73
         2
  0
TEXT
  5
271
100
AcDbEntity
  8
PIN_NUMBERS_TOP
100
AcDbText
 10
22.516636
 20
-2.422504
 30
0.0
 40
0.508
  1
32
  7
COURIER_NEW
 72
         1
 11
22.9525
 21
-2.2
 31
0.0
100
AcDbText
 73
         2
  0
TEXT
  5
272
100
AcDbEntity
  8
PIN_NUMBERS_TOP
100
AcDbText
 10
23.151636
 20
-2.422504
 30
0.0
 40
0.508
  1
33
  7
COURIER_NEW
 72
         1
 11
23.5875
 21
-2.2
 31
0.0
100
AcDbText
 73
         2
  0
TEXT
  5
273
100
AcDbEntity
  8
PIN_NUMBERS_TOP
100
AcDbText
 10
23.786636
 20
-2.422504
 30
0.0
 40
0.508
  1
34
  7
COURIER_NEW
 72
         1
 11
24.2225
 21
-2.2
 31
0.0
100
AcDbText
 73
         2
  0
TEXT
  5
274
100
AcDbEntity
  8
PIN_NUMBERS_TOP
100
AcDbText
 10
24.421636
 20
-2.422504
 30
0.0
 40
0.508
  1
35
  7
COURIER_NEW
 72
         1
 11
24.8575
 21
-2.2
 31
0.0
100
AcDbText
 73
         2
  0
TEXT
  5
275
100
AcDbEntity
  8
PIN_NUMBERS_TOP
100
AcDbText
 10
25.056636
 20
-2.422504
 30
0.0
 40
0.508
  1
36
  7
COURIER_NEW
 72
         1
 11
25.4925
 21
-2.2
 31
0.0
100
AcDbText
 73
         2
  0
TEXT
  5
276
100
AcDbEntity
  8
PIN_NUMBERS_TOP
100
AcDbText
 10
25.691636
 20
-2.422504
 30
0.0
 40
0.508
  1
37
  7
COURIER_NEW
 72
         1
 11
26.1275
 21
-2.2
 31
0.0
100
AcDbText
 73
         2
  0
TEXT
  5
277
100
AcDbEntity
  8
PIN_NUMBERS_TOP
100
AcDbText
 10
26.326636
 20
-2.422504
 30
0.0
 40
0.508
  1
38
  7
COURIER_NEW
 72
         1
 11
26.7625
 21
-2.2
 31
0.0
100
AcDbText
 73
         2
  0
TEXT
  5
278
100
AcDbEntity
  8
PIN_NUMBERS_TOP
100
AcDbText
 10
26.961636
 20
-2.422504
 30
0.0
 40
0.508
  1
39
  7
COURIER_NEW
 72
         1
 11
27.3975
 21
-2.2
 31
0.0
100
AcDbText
 73
         2
  0
TEXT
  5
279
100
AcDbEntity
  8
PIN_NUMBERS_TOP
100
AcDbText
 10
27.596636
 20
-2.422504
 30
0.0
 40
0.508
  1
40
  7
COURIER_NEW
 72
         1
 11
28.0325
 21
-2.2
 31
0.0
100
AcDbText
 73
         2
  0
TEXT
  5
27A
100
AcDbEntity
  8
PIN_NUMBERS_TOP
100
AcDbText
 10
28.231636
 20
-2.422504
 30
0.0
 40
0.508
  1
41
  7
COURIER_NEW
 72
         1
 11
28.6675
 21
-2.2
 31
0.0
100
AcDbText
 73
         2
  0
TEXT
  5
27B
100
AcDbEntity
  8
PIN_NUMBERS_TOP
100
AcDbText
 10
28.866636
 20
-2.422504
 30
0.0
 40
0.508
  1
42
  7
COURIER_NEW
 72
         1
 11
29.3025
 21
-2.2
 31
0.0
100
AcDbText
 73
         2
  0
TEXT
  5
27C
100
AcDbEntity
  8
PIN_NUMBERS_TOP
100
AcDbText
 10
29.501636
 20
-2.422504
 30
0.0
 40
0.508
  1
43
  7
COURIER_NEW
 72
         1
 11
29.9375
 21
-2.2
 31
0.0
100
AcDbText
 73
         2
  0
TEXT
  5
27D
100
AcDbEntity
  8
PIN_NUMBERS_TOP
100
AcDbText
 10
30.136636
 20
-2.422504
 30
0.0
 40
0.508
  1
44
  7
COURIER_NEW
 72
         1
 11
30.5725
 21
-2.2
 31
0.0
100
AcDbText
 73
         2
  0
TEXT
  5
27E
100
AcDbEntity
  8
PIN_NUMBERS_TOP
100
AcDbText
 10
30.771636
 20
-2.422504
 30
0.0
 40
0.508
  1
45
  7
COURIER_NEW
 72
         1
 11
31.2075
 21
-2.2
 31
0.0
100
AcDbText
 73
         2
  0
TEXT
  5
27F
100
AcDbEntity
  8
PIN_NUMBERS_TOP
100
AcDbText
 10
31.406636
 20
-2.422504
 30
0.0
 40
0.508
  1
46
  7
COURIER_NEW
 72
         1
 11
31.8425
 21
-2.2
 31
0.0
100
AcDbText
 73
         2
  0
TEXT
  5
280
100
AcDbEntity
  8
PIN_NUMBERS_TOP
100
AcDbText
 10
32.041636
 20
-2.422504
 30
0.0
 40
0.508
  1
47
  7
COURIER_NEW
 72
         1
 11
32.4775
 21
-2.2
 31
0.0
100
AcDbText
 73
         2
  0
TEXT
  5
281
100
AcDbEntity
  8
PIN_NUMBERS_TOP
100
AcDbText
 10
32.676636
 20
-2.422504
 30
0.0
 40
0.508
  1
48
  7
COURIER_NEW
 72
         1
 11
33.1125
 21
-2.2
 31
0.0
100
AcDbText
 73
         2
  0
TEXT
  5
282
100
AcDbEntity
  8
PIN_NUMBERS_TOP
100
AcDbText
 10
33.311636
 20
-2.422504
 30
0.0
 40
0.508
  1
49
  7
COURIER_NEW
 72
         1
 11
33.7475
 21
-2.2
 31
0.0
100
AcDbText
 73
         2
  0
TEXT
  5
283
100
AcDbEntity
  8
PIN_NUMBERS_TOP
100
AcDbText
 10
33.946636
 20
-2.422504
 30
0.0
 40
0.508
  1
50
  7
COURIER_NEW
 72
         1
 11
34.3825
 21
-2.2
 31
0.0
100
AcDbText
 73
         2
  0
TEXT
  5
284
100
AcDbEntity
  8
PIN_NUMBERS_TOP
100
AcDbText
 10
34.581636
 20
-2.422504
 30
0.0
 40
0.508
  1
51
  7
COURIER_NEW
 72
         1
 11
35.0175
 21
-2.2
 31
0.0
100
AcDbText
 73
         2
  0
TEXT
  5
285
100
AcDbEntity
  8
PIN_NUMBERS_TOP
100
AcDbText
 10
35.216636
 20
-2.422504
 30
0.0
 40
0.508
  1
52
  7
COURIER_NEW
 72
         1
 11
35.6525
 21
-2.2
 31
0.0
100
AcDbText
 73
         2
  0
TEXT
  5
286
100
AcDbEntity
  8
PIN_NUMBERS_TOP
100
AcDbText
 10
35.851636
 20
-2.422504
 30
0.0
 40
0.508
  1
53
  7
COURIER_NEW
 72
         1
 11
36.2875
 21
-2.2
 31
0.0
100
AcDbText
 73
         2
  0
TEXT
  5
287
100
AcDbEntity
  8
PIN_NUMBERS_TOP
100
AcDbText
 10
36.486636
 20
-2.422504
 30
0.0
 40
0.508
  1
54
  7
COURIER_NEW
 72
         1
 11
36.9225
 21
-2.2
 31
0.0
100
AcDbText
 73
         2
  0
TEXT
  5
288
100
AcDbEntity
  8
PIN_NUMBERS_TOP
100
AcDbText
 10
37.121636
 20
-2.422504
 30
0.0
 40
0.508
  1
55
  7
COURIER_NEW
 72
         1
 11
37.5575
 21
-2.2
 31
0.0
100
AcDbText
 73
         2
  0
TEXT
  5
289
100
AcDbEntity
  8
PIN_NUMBERS_TOP
100
AcDbText
 10
37.756636
 20
-2.422504
 30
0.0
 40
0.508
  1
56
  7
COURIER_NEW
 72
         1
 11
38.1925
 21
-2.2
 31
0.0
100
AcDbText
 73
         2
  0
TEXT
  5
28A
100
AcDbEntity
  8
PIN_NUMBERS_TOP
100
AcDbText
 10
38.391636
 20
-2.422504
 30
0.0
 40
0.508
  1
57
  7
COURIER_NEW
 72
         1
 11
38.8275
 21
-2.2
 31
0.0
100
AcDbText
 73
         2
  0
TEXT
  5
28B
100
AcDbEntity
  8
PIN_NUMBERS_TOP
100
AcDbText
 10
39.026636
 20
-2.422504
 30
0.0
 40
0.508
  1
58
  7
COURIER_NEW
 72
         1
 11
39.4625
 21
-2.2
 31
0.0
100
AcDbText
 73
         2
  0
TEXT
  5
28C
100
AcDbEntity
  8
PIN_NUMBERS_TOP
100
AcDbText
 10
39.661636
 20
-2.422504
 30
0.0
 40
0.508
  1
59
  7
COURIER_NEW
 72
         1
 11
40.0975
 21
-2.2
 31
0.0
100
AcDbText
 73
         2
  0
TEXT
  5
28D
100
AcDbEntity
  8
PIN_NUMBERS_TOP
100
AcDbText
 10
40.296636
 20
-2.422504
 30
0.0
 40
0.508
  1
60
  7
COURIER_NEW
 72
         1
 11
40.7325
 21
-2.2
 31
0.0
100
AcDbText
 73
         2
  0
TEXT
  5
28E
100
AcDbEntity
  8
PIN_NUMBERS_TOP
100
AcDbText
 10
40.931636
 20
-2.422504
 30
0.0
 40
0.508
  1
61
  7
COURIER_NEW
 72
         1
 11
41.3675
 21
-2.2
 31
0.0
100
AcDbText
 73
         2
  0
TEXT
  5
28F
100
AcDbEntity
  8
PIN_NUMBERS_TOP
100
AcDbText
 10
41.566636
 20
-2.422504
 30
0.0
 40
0.508
  1
62
  7
COURIER_NEW
 72
         1
 11
42.0025
 21
-2.2
 31
0.0
100
AcDbText
 73
         2
  0
TEXT
  5
290
100
AcDbEntity
  8
PIN_NUMBERS_TOP
100
AcDbText
 10
42.201636
 20
-2.422504
 30
0.0
 40
0.508
  1
63
  7
COURIER_NEW
 72
         1
 11
42.6375
 21
-2.2
 31
0.0
100
AcDbText
 73
         2
  0
TEXT
  5
291
100
AcDbEntity
  8
PIN_NUMBERS_TOP
100
AcDbText
 10
42.836636
 20
-2.422504
 30
0.0
 40
0.508
  1
64
  7
COURIER_NEW
 72
         1
 11
43.2725
 21
-2.2
 31
0.0
100
AcDbText
 73
         2
  0
TEXT
  5
292
100
AcDbEntity
  8
PIN_NUMBERS_TOP
100
AcDbText
 10
43.471636
 20
-2.422504
 30
0.0
 40
0.508
  1
65
  7
COURIER_NEW
 72
         1
 11
43.9075
 21
-2.2
 31
0.0
100
AcDbText
 73
         2
  0
TEXT
  5
293
100
AcDbEntity
  8
PIN_NUMBERS_TOP
100
AcDbText
 10
44.106636
 20
-2.422504
 30
0.0
 40
0.508
  1
66
  7
COURIER_NEW
 72
         1
 11
44.5425
 21
-2.2
 31
0.0
100
AcDbText
 73
         2
  0
TEXT
  5
294
100
AcDbEntity
  8
PIN_NUMBERS_TOP
100
AcDbText
 10
44.741636
 20
-2.422504
 30
0.0
 40
0.508
  1
67
  7
COURIER_NEW
 72
         1
 11
45.1775
 21
-2.2
 31
0.0
100
AcDbText
 73
         2
  0
TEXT
  5
295
100
AcDbEntity
  8
PIN_NUMBERS_TOP
100
AcDbText
 10
45.376636
 20
-2.422504
 30
0.0
 40
0.508
  1
68
  7
COURIER_NEW
 72
         1
 11
45.8125
 21
-2.2
 31
0.0
100
AcDbText
 73
         2
  0
TEXT
  5
296
100
AcDbEntity
  8
PIN_NUMBERS_TOP
100
AcDbText
 10
46.011636
 20
-2.422504
 30
0.0
 40
0.508
  1
69
  7
COURIER_NEW
 72
         1
 11
46.4475
 21
-2.2
 31
0.0
100
AcDbText
 73
         2
  0
TEXT
  5
297
100
AcDbEntity
  8
PIN_NUMBERS_TOP
100
AcDbText
 10
46.646636
 20
-2.422504
 30
0.0
 40
0.508
  1
70
  7
COURIER_NEW
 72
         1
 11
47.0825
 21
-2.2
 31
0.0
100
AcDbText
 73
         2
  0
TEXT
  5
298
100
AcDbEntity
  8
PIN_NUMBERS_TOP
100
AcDbText
 10
47.281636
 20
-2.422504
 30
0.0
 40
0.508
  1
71
  7
COURIER_NEW
 72
         1
 11
47.7175
 21
-2.2
 31
0.0
100
AcDbText
 73
         2
  0
TEXT
  5
299
100
AcDbEntity
  8
PIN_NUMBERS_TOP
100
AcDbText
 10
47.916636
 20
-2.422504
 30
0.0
 40
0.508
  1
72
  7
COURIER_NEW
 72
         1
 11
48.3525
 21
-2.2
 31
0.0
100
AcDbText
 73
         2
  0
TEXT
  5
29A
100
AcDbEntity
  8
PIN_NUMBERS_TOP
100
AcDbText
 10
48.551636
 20
-2.422504
 30
0.0
 40
0.508
  1
73
  7
COURIER_NEW
 72
         1
 11
48.9875
 21
-2.2
 31
0.0
100
AcDbText
 73
         2
  0
TEXT
  5
29B
100
AcDbEntity
  8
PIN_NUMBERS_TOP
100
AcDbText
 10
49.186636
 20
-2.422504
 30
0.0
 40
0.508
  1
74
  7
COURIER_NEW
 72
         1
 11
49.6225
 21
-2.2
 31
0.0
100
AcDbText
 73
         2
  0
TEXT
  5
29C
100
AcDbEntity
  8
PIN_NUMBERS_TOP
100
AcDbText
 10
49.821636
 20
-2.422504
 30
0.0
 40
0.508
  1
75
  7
COURIER_NEW
 72
         1
 11
50.2575
 21
-2.2
 31
0.0
100
AcDbText
 73
         2
  0
TEXT
  5
29D
100
AcDbEntity
  8
PIN_NUMBERS_TOP
100
AcDbText
 10
50.456636
 20
-2.422504
 30
0.0
 40
0.508
  1
76
  7
COURIER_NEW
 72
         1
 11
50.8925
 21
-2.2
 31
0.0
100
AcDbText
 73
         2
  0
TEXT
  5
29E
100
AcDbEntity
  8
PIN_NUMBERS_TOP
100
AcDbText
 10
51.091636
 20
-2.422504
 30
0.0
 40
0.508
  1
77
  7
COURIER_NEW
 72
         1
 11
51.5275
 21
-2.2
 31
0.0
100
AcDbText
 73
         2
  0
TEXT
  5
29F
100
AcDbEntity
  8
PIN_NUMBERS_TOP
100
AcDbText
 10
51.726636
 20
-2.422504
 30
0.0
 40
0.508
  1
78
  7
COURIER_NEW
 72
         1
 11
52.1625
 21
-2.2
 31
0.0
100
AcDbText
 73
         2
  0
TEXT
  5
2A0
100
AcDbEntity
  8
PIN_NUMBERS_TOP
100
AcDbText
 10
52.361636
 20
-2.422504
 30
0.0
 40
0.508
  1
79
  7
COURIER_NEW
 72
         1
 11
52.7975
 21
-2.2
 31
0.0
100
AcDbText
 73
         2
  0
TEXT
  5
2A1
100
AcDbEntity
  8
PIN_NUMBERS_TOP
100
AcDbText
 10
52.996636
 20
-2.422504
 30
0.0
 40
0.508
  1
80
  7
COURIER_NEW
 72
         1
 11
53.4325
 21
-2.2
 31
0.0
100
AcDbText
 73
         2
  0
TEXT
  5
2A2
100
AcDbEntity
  8
PIN_NUMBERS_TOP
100
AcDbText
 10
2.831636
 20
1.977496
 30
0.0
 40
0.508
  1
81
  7
COURIER_NEW
 72
         1
 11
3.2675
 21
2.2
 31
0.0
100
AcDbText
 73
         2
  0
TEXT
  5
2A3
100
AcDbEntity
  8
PIN_NUMBERS_TOP
100
AcDbText
 10
3.466636
 20
1.977496
 30
0.0
 40
0.508
  1
82
  7
COURIER_NEW
 72
         1
 11
3.9025
 21
2.2
 31
0.0
100
AcDbText
 73
         2
  0
TEXT
  5
2A4
100
AcDbEntity
  8
PIN_NUMBERS_TOP
100
AcDbText
 10
4.101636
 20
1.977496
 30
0.0
 40
0.508
  1
83
  7
COURIER_NEW
 72
         1
 11
4.5375
 21
2.2
 31
0.0
100
AcDbText
 73
         2
  0
TEXT
  5
2A5
100
AcDbEntity
  8
PIN_NUMBERS_TOP
100
AcDbText
 10
4.736636
 20
1.977496
 30
0.0
 40
0.508
  1
84
  7
COURIER_NEW
 72
         1
 11
5.1725
 21
2.2
 31
0.0
100
AcDbText
 73
         2
  0
TEXT
  5
2A6
100
AcDbEntity
  8
PIN_NUMBERS_TOP
100
AcDbText
 10
5.371636
 20
1.977496
 30
0.0
 40
0.508
  1
85
  7
COURIER_NEW
 72
         1
 11
5.8075
 21
2.2
 31
0.0
100
AcDbText
 73
         2
  0
TEXT
  5
2A7
100
AcDbEntity
  8
PIN_NUMBERS_TOP
100
AcDbText
 10
6.006636
 20
1.977496
 30
0.0
 40
0.508
  1
86
  7
COURIER_NEW
 72
         1
 11
6.4425
 21
2.2
 31
0.0
100
AcDbText
 73
         2
  0
TEXT
  5
2A8
100
AcDbEntity
  8
PIN_NUMBERS_TOP
100
AcDbText
 10
6.641636
 20
1.977496
 30
0.0
 40
0.508
  1
87
  7
COURIER_NEW
 72
         1
 11
7.0775
 21
2.2
 31
0.0
100
AcDbText
 73
         2
  0
TEXT
  5
2A9
100
AcDbEntity
  8
PIN_NUMBERS_TOP
100
AcDbText
 10
7.276636
 20
1.977496
 30
0.0
 40
0.508
  1
88
  7
COURIER_NEW
 72
         1
 11
7.7125
 21
2.2
 31
0.0
100
AcDbText
 73
         2
  0
TEXT
  5
2AA
100
AcDbEntity
  8
PIN_NUMBERS_TOP
100
AcDbText
 10
7.911636
 20
1.977496
 30
0.0
 40
0.508
  1
89
  7
COURIER_NEW
 72
         1
 11
8.3475
 21
2.2
 31
0.0
100
AcDbText
 73
         2
  0
TEXT
  5
2AB
100
AcDbEntity
  8
PIN_NUMBERS_TOP
100
AcDbText
 10
8.546636
 20
1.977496
 30
0.0
 40
0.508
  1
90
  7
COURIER_NEW
 72
         1
 11
8.9825
 21
2.2
 31
0.0
100
AcDbText
 73
         2
  0
TEXT
  5
2AC
100
AcDbEntity
  8
PIN_NUMBERS_TOP
100
AcDbText
 10
9.181636
 20
1.977496
 30
0.0
 40
0.508
  1
91
  7
COURIER_NEW
 72
         1
 11
9.6175
 21
2.2
 31
0.0
100
AcDbText
 73
         2
  0
TEXT
  5
2AD
100
AcDbEntity
  8
PIN_NUMBERS_TOP
100
AcDbText
 10
9.816636
 20
1.977496
 30
0.0
 40
0.508
  1
92
  7
COURIER_NEW
 72
         1
 11
10.2525
 21
2.2
 31
0.0
100
AcDbText
 73
         2
  0
TEXT
  5
2AE
100
AcDbEntity
  8
PIN_NUMBERS_TOP
100
AcDbText
 10
10.451636
 20
1.977496
 30
0.0
 40
0.508
  1
93
  7
COURIER_NEW
 72
         1
 11
10.8875
 21
2.2
 31
0.0
100
AcDbText
 73
         2
  0
TEXT
  5
2AF
100
AcDbEntity
  8
PIN_NUMBERS_TOP
100
AcDbText
 10
11.086636
 20
1.977496
 30
0.0
 40
0.508
  1
94
  7
COURIER_NEW
 72
         1
 11
11.5225
 21
2.2
 31
0.0
100
AcDbText
 73
         2
  0
TEXT
  5
2B0
100
AcDbEntity
  8
PIN_NUMBERS_TOP
100
AcDbText
 10
11.721636
 20
1.977496
 30
0.0
 40
0.508
  1
95
  7
COURIER_NEW
 72
         1
 11
12.1575
 21
2.2
 31
0.0
100
AcDbText
 73
         2
  0
TEXT
  5
2B1
100
AcDbEntity
  8
PIN_NUMBERS_TOP
100
AcDbText
 10
12.356636
 20
1.977496
 30
0.0
 40
0.508
  1
96
  7
COURIER_NEW
 72
         1
 11
12.7925
 21
2.2
 31
0.0
100
AcDbText
 73
         2
  0
TEXT
  5
2B2
100
AcDbEntity
  8
PIN_NUMBERS_TOP
100
AcDbText
 10
12.991636
 20
1.977496
 30
0.0
 40
0.508
  1
97
  7
COURIER_NEW
 72
         1
 11
13.4275
 21
2.2
 31
0.0
100
AcDbText
 73
         2
  0
TEXT
  5
2B3
100
AcDbEntity
  8
PIN_NUMBERS_TOP
100
AcDbText
 10
13.626636
 20
1.977496
 30
0.0
 40
0.508
  1
98
  7
COURIER_NEW
 72
         1
 11
14.0625
 21
2.2
 31
0.0
100
AcDbText
 73
         2
  0
TEXT
  5
2B4
100
AcDbEntity
  8
PIN_NUMBERS_TOP
100
AcDbText
 10
14.261636
 20
1.977496
 30
0.0
 40
0.508
  1
99
  7
COURIER_NEW
 72
         1
 11
14.6975
 21
2.2
 31
0.0
100
AcDbText
 73
         2
  0
TEXT
  5
2B5
100
AcDbEntity
  8
PIN_NUMBERS_TOP
100
AcDbText
 10
14.678704
 20
1.977496
 30
0.0
 40
0.508
  1
100
  7
COURIER_NEW
 72
         1
 11
15.3325
 21
2.2
 31
0.0
100
AcDbText
 73
         2
  0
TEXT
  5
2B6
100
AcDbEntity
  8
PIN_NUMBERS_TOP
100
AcDbText
 10
15.313704
 20
1.977496
 30
0.0
 40
0.508
  1
101
  7
COURIER_NEW
 72
         1
 11
15.9675
 21
2.2
 31
0.0
100
AcDbText
 73
         2
  0
TEXT
  5
2B7
100
AcDbEntity
  8
PIN_NUMBERS_TOP
100
AcDbText
 10
15.948704
 20
1.977496
 30
0.0
 40
0.508
  1
102
  7
COURIER_NEW
 72
         1
 11
16.6025
 21
2.2
 31
0.0
100
AcDbText
 73
         2
  0
TEXT
  5
2B8
100
AcDbEntity
  8
PIN_NUMBERS_TOP
100
AcDbText
 10
16.583704
 20
1.977496
 30
0.0
 40
0.508
  1
103
  7
COURIER_NEW
 72
         1
 11
17.2375
 21
2.2
 31
0.0
100
AcDbText
 73
         2
  0
TEXT
  5
2B9
100
AcDbEntity
  8
PIN_NUMBERS_TOP
100
AcDbText
 10
17.218704
 20
1.977496
 30
0.0
 40
0.508
  1
104
  7
COURIER_NEW
 72
         1
 11
17.8725
 21
2.2
 31
0.0
100
AcDbText
 73
         2
  0
TEXT
  5
2BA
100
AcDbEntity
  8
PIN_NUMBERS_TOP
100
AcDbText
 10
17.853704
 20
1.977496
 30
0.0
 40
0.508
  1
105
  7
COURIER_NEW
 72
         1
 11
18.5075
 21
2.2
 31
0.0
100
AcDbText
 73
         2
  0
TEXT
  5
2BB
100
AcDbEntity
  8
PIN_NUMBERS_TOP
100
AcDbText
 10
18.488704
 20
1.977496
 30
0.0
 40
0.508
  1
106
  7
COURIER_NEW
 72
         1
 11
19.1425
 21
2.2
 31
0.0
100
AcDbText
 73
         2
  0
TEXT
  5
2BC
100
AcDbEntity
  8
PIN_NUMBERS_TOP
100
AcDbText
 10
19.123704
 20
1.977496
 30
0.0
 40
0.508
  1
107
  7
COURIER_NEW
 72
         1
 11
19.7775
 21
2.2
 31
0.0
100
AcDbText
 73
         2
  0
TEXT
  5
2BD
100
AcDbEntity
  8
PIN_NUMBERS_TOP
100
AcDbText
 10
19.758704
 20
1.977496
 30
0.0
 40
0.508
  1
108
  7
COURIER_NEW
 72
         1
 11
20.4125
 21
2.2
 31
0.0
100
AcDbText
 73
         2
  0
TEXT
  5
2BE
100
AcDbEntity
  8
PIN_NUMBERS_TOP
100
AcDbText
 10
20.393704
 20
1.977496
 30
0.0
 40
0.508
  1
109
  7
COURIER_NEW
 72
         1
 11
21.0475
 21
2.2
 31
0.0
100
AcDbText
 73
         2
  0
TEXT
  5
2BF
100
AcDbEntity
  8
PIN_NUMBERS_TOP
100
AcDbText
 10
21.028704
 20
1.977496
 30
0.0
 40
0.508
  1
110
  7
COURIER_NEW
 72
         1
 11
21.6825
 21
2.2
 31
0.0
100
AcDbText
 73
         2
  0
TEXT
  5
2C0
100
AcDbEntity
  8
PIN_NUMBERS_TOP
100
AcDbText
 10
21.663704
 20
1.977496
 30
0.0
 40
0.508
  1
111
  7
COURIER_NEW
 72
         1
 11
22.3175
 21
2.2
 31
0.0
100
AcDbText
 73
         2
  0
TEXT
  5
2C1
100
AcDbEntity
  8
PIN_NUMBERS_TOP
100
AcDbText
 10
22.298704
 20
1.977496
 30
0.0
 40
0.508
  1
112
  7
COURIER_NEW
 72
         1
 11
22.9525
 21
2.2
 31
0.0
100
AcDbText
 73
         2
  0
TEXT
  5
2C2
100
AcDbEntity
  8
PIN_NUMBERS_TOP
100
AcDbText
 10
22.933704
 20
1.977496
 30
0.0
 40
0.508
  1
113
  7
COURIER_NEW
 72
         1
 11
23.5875
 21
2.2
 31
0.0
100
AcDbText
 73
         2
  0
TEXT
  5
2C3
100
AcDbEntity
  8
PIN_NUMBERS_TOP
100
AcDbText
 10
23.568704
 20
1.977496
 30
0.0
 40
0.508
  1
114
  7
COURIER_NEW
 72
         1
 11
24.2225
 21
2.2
 31
0.0
100
AcDbText
 73
         2
  0
TEXT
  5
2C4
100
AcDbEntity
  8
PIN_NUMBERS_TOP
100
AcDbText
 10
24.203704
 20
1.977496
 30
0.0
 40
0.508
  1
115
  7
COURIER_NEW
 72
         1
 11
24.8575
 21
2.2
 31
0.0
100
AcDbText
 73
         2
  0
TEXT
  5
2C5
100
AcDbEntity
  8
PIN_NUMBERS_TOP
100
AcDbText
 10
24.838704
 20
1.977496
 30
0.0
 40
0.508
  1
116
  7
COURIER_NEW
 72
         1
 11
25.4925
 21
2.2
 31
0.0
100
AcDbText
 73
         2
  0
TEXT
  5
2C6
100
AcDbEntity
  8
PIN_NUMBERS_TOP
100
AcDbText
 10
25.473704
 20
1.977496
 30
0.0
 40
0.508
  1
117
  7
COURIER_NEW
 72
         1
 11
26.1275
 21
2.2
 31
0.0
100
AcDbText
 73
         2
  0
TEXT
  5
2C7
100
AcDbEntity
  8
PIN_NUMBERS_TOP
100
AcDbText
 10
26.108704
 20
1.977496
 30
0.0
 40
0.508
  1
118
  7
COURIER_NEW
 72
         1
 11
26.7625
 21
2.2
 31
0.0
100
AcDbText
 73
         2
  0
TEXT
  5
2C8
100
AcDbEntity
  8
PIN_NUMBERS_TOP
100
AcDbText
 10
26.743704
 20
1.977496
 30
0.0
 40
0.508
  1
119
  7
COURIER_NEW
 72
         1
 11
27.3975
 21
2.2
 31
0.0
100
AcDbText
 73
         2
  0
TEXT
  5
2C9
100
AcDbEntity
  8
PIN_NUMBERS_TOP
100
AcDbText
 10
27.378704
 20
1.977496
 30
0.0
 40
0.508
  1
120
  7
COURIER_NEW
 72
         1
 11
28.0325
 21
2.2
 31
0.0
100
AcDbText
 73
         2
  0
TEXT
  5
2CA
100
AcDbEntity
  8
PIN_NUMBERS_TOP
100
AcDbText
 10
28.013704
 20
1.977496
 30
0.0
 40
0.508
  1
121
  7
COURIER_NEW
 72
         1
 11
28.6675
 21
2.2
 31
0.0
100
AcDbText
 73
         2
  0
TEXT
  5
2CB
100
AcDbEntity
  8
PIN_NUMBERS_TOP
100
AcDbText
 10
28.648704
 20
1.977496
 30
0.0
 40
0.508
  1
122
  7
COURIER_NEW
 72
         1
 11
29.3025
 21
2.2
 31
0.0
100
AcDbText
 73
         2
  0
TEXT
  5
2CC
100
AcDbEntity
  8
PIN_NUMBERS_TOP
100
AcDbText
 10
29.283704
 20
1.977496
 30
0.0
 40
0.508
  1
123
  7
COURIER_NEW
 72
         1
 11
29.9375
 21
2.2
 31
0.0
100
AcDbText
 73
         2
  0
TEXT
  5
2CD
100
AcDbEntity
  8
PIN_NUMBERS_TOP
100
AcDbText
 10
29.918704
 20
1.977496
 30
0.0
 40
0.508
  1
124
  7
COURIER_NEW
 72
         1
 11
30.5725
 21
2.2
 31
0.0
100
AcDbText
 73
         2
  0
TEXT
  5
2CE
100
AcDbEntity
  8
PIN_NUMBERS_TOP
100
AcDbText
 10
30.553704
 20
1.977496
 30
0.0
 40
0.508
  1
125
  7
COURIER_NEW
 72
         1
 11
31.2075
 21
2.2
 31
0.0
100
AcDbText
 73
         2
  0
TEXT
  5
2CF
100
AcDbEntity
  8
PIN_NUMBERS_TOP
100
AcDbText
 10
31.188704
 20
1.977496
 30
0.0
 40
0.508
  1
126
  7
COURIER_NEW
 72
         1
 11
31.8425
 21
2.2
 31
0.0
100
AcDbText
 73
         2
  0
TEXT
  5
2D0
100
AcDbEntity
  8
PIN_NUMBERS_TOP
100
AcDbText
 10
31.823704
 20
1.977496
 30
0.0
 40
0.508
  1
127
  7
COURIER_NEW
 72
         1
 11
32.4775
 21
2.2
 31
0.0
100
AcDbText
 73
         2
  0
TEXT
  5
2D1
100
AcDbEntity
  8
PIN_NUMBERS_TOP
100
AcDbText
 10
32.458704
 20
1.977496
 30
0.0
 40
0.508
  1
128
  7
COURIER_NEW
 72
         1
 11
33.1125
 21
2.2
 31
0.0
100
AcDbText
 73
         2
  0
TEXT
  5
2D2
100
AcDbEntity
  8
PIN_NUMBERS_TOP
100
AcDbText
 10
33.093704
 20
1.977496
 30
0.0
 40
0.508
  1
129
  7
COURIER_NEW
 72
         1
 11
33.7475
 21
2.2
 31
0.0
100
AcDbText
 73
         2
  0
TEXT
  5
2D3
100
AcDbEntity
  8
PIN_NUMBERS_TOP
100
AcDbText
 10
33.728704
 20
1.977496
 30
0.0
 40
0.508
  1
130
  7
COURIER_NEW
 72
         1
 11
34.3825
 21
2.2
 31
0.0
100
AcDbText
 73
         2
  0
TEXT
  5
2D4
100
AcDbEntity
  8
PIN_NUMBERS_TOP
100
AcDbText
 10
34.363704
 20
1.977496
 30
0.0
 40
0.508
  1
131
  7
COURIER_NEW
 72
         1
 11
35.0175
 21
2.2
 31
0.0
100
AcDbText
 73
         2
  0
TEXT
  5
2D5
100
AcDbEntity
  8
PIN_NUMBERS_TOP
100
AcDbText
 10
34.998704
 20
1.977496
 30
0.0
 40
0.508
  1
132
  7
COURIER_NEW
 72
         1
 11
35.6525
 21
2.2
 31
0.0
100
AcDbText
 73
         2
  0
TEXT
  5
2D6
100
AcDbEntity
  8
PIN_NUMBERS_TOP
100
AcDbText
 10
35.633704
 20
1.977496
 30
0.0
 40
0.508
  1
133
  7
COURIER_NEW
 72
         1
 11
36.2875
 21
2.2
 31
0.0
100
AcDbText
 73
         2
  0
TEXT
  5
2D7
100
AcDbEntity
  8
PIN_NUMBERS_TOP
100
AcDbText
 10
36.268704
 20
1.977496
 30
0.0
 40
0.508
  1
134
  7
COURIER_NEW
 72
         1
 11
36.9225
 21
2.2
 31
0.0
100
AcDbText
 73
         2
  0
TEXT
  5
2D8
100
AcDbEntity
  8
PIN_NUMBERS_TOP
100
AcDbText
 10
36.903704
 20
1.977496
 30
0.0
 40
0.508
  1
135
  7
COURIER_NEW
 72
         1
 11
37.5575
 21
2.2
 31
0.0
100
AcDbText
 73
         2
  0
TEXT
  5
2D9
100
AcDbEntity
  8
PIN_NUMBERS_TOP
100
AcDbText
 10
37.538704
 20
1.977496
 30
0.0
 40
0.508
  1
136
  7
COURIER_NEW
 72
         1
 11
38.1925
 21
2.2
 31
0.0
100
AcDbText
 73
         2
  0
TEXT
  5
2DA
100
AcDbEntity
  8
PIN_NUMBERS_TOP
100
AcDbText
 10
38.173704
 20
1.977496
 30
0.0
 40
0.508
  1
137
  7
COURIER_NEW
 72
         1
 11
38.8275
 21
2.2
 31
0.0
100
AcDbText
 73
         2
  0
TEXT
  5
2DB
100
AcDbEntity
  8
PIN_NUMBERS_TOP
100
AcDbText
 10
38.808704
 20
1.977496
 30
0.0
 40
0.508
  1
138
  7
COURIER_NEW
 72
         1
 11
39.4625
 21
2.2
 31
0.0
100
AcDbText
 73
         2
  0
TEXT
  5
2DC
100
AcDbEntity
  8
PIN_NUMBERS_TOP
100
AcDbText
 10
39.443704
 20
1.977496
 30
0.0
 40
0.508
  1
139
  7
COURIER_NEW
 72
         1
 11
40.0975
 21
2.2
 31
0.0
100
AcDbText
 73
         2
  0
TEXT
  5
2DD
100
AcDbEntity
  8
PIN_NUMBERS_TOP
100
AcDbText
 10
40.078704
 20
1.977496
 30
0.0
 40
0.508
  1
140
  7
COURIER_NEW
 72
         1
 11
40.7325
 21
2.2
 31
0.0
100
AcDbText
 73
         2
  0
TEXT
  5
2DE
100
AcDbEntity
  8
PIN_NUMBERS_TOP
100
AcDbText
 10
40.713704
 20
1.977496
 30
0.0
 40
0.508
  1
141
  7
COURIER_NEW
 72
         1
 11
41.3675
 21
2.2
 31
0.0
100
AcDbText
 73
         2
  0
TEXT
  5
2DF
100
AcDbEntity
  8
PIN_NUMBERS_TOP
100
AcDbText
 10
41.348704
 20
1.977496
 30
0.0
 40
0.508
  1
142
  7
COURIER_NEW
 72
         1
 11
42.0025
 21
2.2
 31
0.0
100
AcDbText
 73
         2
  0
TEXT
  5
2E0
100
AcDbEntity
  8
PIN_NUMBERS_TOP
100
AcDbText
 10
41.983704
 20
1.977496
 30
0.0
 40
0.508
  1
143
  7
COURIER_NEW
 72
         1
 11
42.6375
 21
2.2
 31
0.0
100
AcDbText
 73
         2
  0
TEXT
  5
2E1
100
AcDbEntity
  8
PIN_NUMBERS_TOP
100
AcDbText
 10
42.618704
 20
1.977496
 30
0.0
 40
0.508
  1
144
  7
COURIER_NEW
 72
         1
 11
43.2725
 21
2.2
 31
0.0
100
AcDbText
 73
         2
  0
TEXT
  5
2E2
100
AcDbEntity
  8
PIN_NUMBERS_TOP
100
AcDbText
 10
43.253704
 20
1.977496
 30
0.0
 40
0.508
  1
145
  7
COURIER_NEW
 72
         1
 11
43.9075
 21
2.2
 31
0.0
100
AcDbText
 73
         2
  0
TEXT
  5
2E3
100
AcDbEntity
  8
PIN_NUMBERS_TOP
100
AcDbText
 10
43.888704
 20
1.977496
 30
0.0
 40
0.508
  1
146
  7
COURIER_NEW
 72
         1
 11
44.5425
 21
2.2
 31
0.0
100
AcDbText
 73
         2
  0
TEXT
  5
2E4
100
AcDbEntity
  8
PIN_NUMBERS_TOP
100
AcDbText
 10
44.523704
 20
1.977496
 30
0.0
 40
0.508
  1
147
  7
COURIER_NEW
 72
         1
 11
45.1775
 21
2.2
 31
0.0
100
AcDbText
 73
         2
  0
TEXT
  5
2E5
100
AcDbEntity
  8
PIN_NUMBERS_TOP
100
AcDbText
 10
45.158704
 20
1.977496
 30
0.0
 40
0.508
  1
148
  7
COURIER_NEW
 72
         1
 11
45.8125
 21
2.2
 31
0.0
100
AcDbText
 73
         2
  0
TEXT
  5
2E6
100
AcDbEntity
  8
PIN_NUMBERS_TOP
100
AcDbText
 10
45.793704
 20
1.977496
 30
0.0
 40
0.508
  1
149
  7
COURIER_NEW
 72
         1
 11
46.4475
 21
2.2
 31
0.0
100
AcDbText
 73
         2
  0
TEXT
  5
2E7
100
AcDbEntity
  8
PIN_NUMBERS_TOP
100
AcDbText
 10
46.428704
 20
1.977496
 30
0.0
 40
0.508
  1
150
  7
COURIER_NEW
 72
         1
 11
47.0825
 21
2.2
 31
0.0
100
AcDbText
 73
         2
  0
TEXT
  5
2E8
100
AcDbEntity
  8
PIN_NUMBERS_TOP
100
AcDbText
 10
47.063704
 20
1.977496
 30
0.0
 40
0.508
  1
151
  7
COURIER_NEW
 72
         1
 11
47.7175
 21
2.2
 31
0.0
100
AcDbText
 73
         2
  0
TEXT
  5
2E9
100
AcDbEntity
  8
PIN_NUMBERS_TOP
100
AcDbText
 10
47.698704
 20
1.977496
 30
0.0
 40
0.508
  1
152
  7
COURIER_NEW
 72
         1
 11
48.3525
 21
2.2
 31
0.0
100
AcDbText
 73
         2
  0
TEXT
  5
2EA
100
AcDbEntity
  8
PIN_NUMBERS_TOP
100
AcDbText
 10
48.333704
 20
1.977496
 30
0.0
 40
0.508
  1
153
  7
COURIER_NEW
 72
         1
 11
48.9875
 21
2.2
 31
0.0
100
AcDbText
 73
         2
  0
TEXT
  5
2EB
100
AcDbEntity
  8
PIN_NUMBERS_TOP
100
AcDbText
 10
48.968704
 20
1.977496
 30
0.0
 40
0.508
  1
154
  7
COURIER_NEW
 72
         1
 11
49.6225
 21
2.2
 31
0.0
100
AcDbText
 73
         2
  0
TEXT
  5
2EC
100
AcDbEntity
  8
PIN_NUMBERS_TOP
100
AcDbText
 10
49.603704
 20
1.977496
 30
0.0
 40
0.508
  1
155
  7
COURIER_NEW
 72
         1
 11
50.2575
 21
2.2
 31
0.0
100
AcDbText
 73
         2
  0
TEXT
  5
2ED
100
AcDbEntity
  8
PIN_NUMBERS_TOP
100
AcDbText
 10
50.238704
 20
1.977496
 30
0.0
 40
0.508
  1
156
  7
COURIER_NEW
 72
         1
 11
50.8925
 21
2.2
 31
0.0
100
AcDbText
 73
         2
  0
TEXT
  5
2EE
100
AcDbEntity
  8
PIN_NUMBERS_TOP
100
AcDbText
 10
50.873704
 20
1.977496
 30
0.0
 40
0.508
  1
157
  7
COURIER_NEW
 72
         1
 11
51.5275
 21
2.2
 31
0.0
100
AcDbText
 73
         2
  0
TEXT
  5
2EF
100
AcDbEntity
  8
PIN_NUMBERS_TOP
100
AcDbText
 10
51.508704
 20
1.977496
 30
0.0
 40
0.508
  1
158
  7
COURIER_NEW
 72
         1
 11
52.1625
 21
2.2
 31
0.0
100
AcDbText
 73
         2
  0
TEXT
  5
2F0
100
AcDbEntity
  8
PIN_NUMBERS_TOP
100
AcDbText
 10
52.143704
 20
1.977496
 30
0.0
 40
0.508
  1
159
  7
COURIER_NEW
 72
         1
 11
52.7975
 21
2.2
 31
0.0
100
AcDbText
 73
         2
  0
TEXT
  5
2F1
100
AcDbEntity
  8
PIN_NUMBERS_TOP
100
AcDbText
 10
52.778704
 20
1.977496
 30
0.0
 40
0.508
  1
160
  7
COURIER_NEW
 72
         1
 11
53.4325
 21
2.2
 31
0.0
100
AcDbText
 73
         2
  0
TEXT
  5
2F2
100
AcDbEntity
  8
PIN_NUMBERS_TOP
100
AcDbText
 10
2.613704
 20
45.177496
 30
0.0
 40
0.508
  1
161
  7
COURIER_NEW
 72
         1
 11
3.2675
 21
45.4
 31
0.0
100
AcDbText
 73
         2
  0
TEXT
  5
2F3
100
AcDbEntity
  8
PIN_NUMBERS_TOP
100
AcDbText
 10
3.248704
 20
45.177496
 30
0.0
 40
0.508
  1
162
  7
COURIER_NEW
 72
         1
 11
3.9025
 21
45.4
 31
0.0
100
AcDbText
 73
         2
  0
TEXT
  5
2F4
100
AcDbEntity
  8
PIN_NUMBERS_TOP
100
AcDbText
 10
3.883704
 20
45.177496
 30
0.0
 40
0.508
  1
163
  7
COURIER_NEW
 72
         1
 11
4.5375
 21
45.4
 31
0.0
100
AcDbText
 73
         2
  0
TEXT
  5
2F5
100
AcDbEntity
  8
PIN_NUMBERS_TOP
100
AcDbText
 10
4.518704
 20
45.177496
 30
0.0
 40
0.508
  1
164
  7
COURIER_NEW
 72
         1
 11
5.1725
 21
45.4
 31
0.0
100
AcDbText
 73
         2
  0
TEXT
  5
2F6
100
AcDbEntity
  8
PIN_NUMBERS_TOP
100
AcDbText
 10
5.153704
 20
45.177496
 30
0.0
 40
0.508
  1
165
  7
COURIER_NEW
 72
         1
 11
5.8075
 21
45.4
 31
0.0
100
AcDbText
 73
         2
  0
TEXT
  5
2F7
100
AcDbEntity
  8
PIN_NUMBERS_TOP
100
AcDbText
 10
5.788704
 20
45.177496
 30
0.0
 40
0.508
  1
166
  7
COURIER_NEW
 72
         1
 11
6.4425
 21
45.4
 31
0.0
100
AcDbText
 73
         2
  0
TEXT
  5
2F8
100
AcDbEntity
  8
PIN_NUMBERS_TOP
100
AcDbText
 10
6.423704
 20
45.177496
 30
0.0
 40
0.508
  1
167
  7
COURIER_NEW
 72
         1
 11
7.0775
 21
45.4
 31
0.0
100
AcDbText
 73
         2
  0
TEXT
  5
2F9
100
AcDbEntity
  8
PIN_NUMBERS_TOP
100
AcDbText
 10
7.058704
 20
45.177496
 30
0.0
 40
0.508
  1
168
  7
COURIER_NEW
 72
         1
 11
7.7125
 21
45.4
 31
0.0
100
AcDbText
 73
         2
  0
TEXT
  5
2FA
100
AcDbEntity
  8
PIN_NUMBERS_TOP
100
AcDbText
 10
7.693704
 20
45.177496
 30
0.0
 40
0.508
  1
169
  7
COURIER_NEW
 72
         1
 11
8.3475
 21
45.4
 31
0.0
100
AcDbText
 73
         2
  0
TEXT
  5
2FB
100
AcDbEntity
  8
PIN_NUMBERS_TOP
100
AcDbText
 10
8.328704
 20
45.177496
 30
0.0
 40
0.508
  1
170
  7
COURIER_NEW
 72
         1
 11
8.9825
 21
45.4
 31
0.0
100
AcDbText
 73
         2
  0
TEXT
  5
2FC
100
AcDbEntity
  8
PIN_NUMBERS_TOP
100
AcDbText
 10
8.963704
 20
45.177496
 30
0.0
 40
0.508
  1
171
  7
COURIER_NEW
 72
         1
 11
9.6175
 21
45.4
 31
0.0
100
AcDbText
 73
         2
  0
TEXT
  5
2FD
100
AcDbEntity
  8
PIN_NUMBERS_TOP
100
AcDbText
 10
9.598704
 20
45.177496
 30
0.0
 40
0.508
  1
172
  7
COURIER_NEW
 72
         1
 11
10.2525
 21
45.4
 31
0.0
100
AcDbText
 73
         2
  0
TEXT
  5
2FE
100
AcDbEntity
  8
PIN_NUMBERS_TOP
100
AcDbText
 10
10.233704
 20
45.177496
 30
0.0
 40
0.508
  1
173
  7
COURIER_NEW
 72
         1
 11
10.8875
 21
45.4
 31
0.0
100
AcDbText
 73
         2
  0
TEXT
  5
2FF
100
AcDbEntity
  8
PIN_NUMBERS_TOP
100
AcDbText
 10
10.868704
 20
45.177496
 30
0.0
 40
0.508
  1
174
  7
COURIER_NEW
 72
         1
 11
11.5225
 21
45.4
 31
0.0
100
AcDbText
 73
         2
  0
TEXT
  5
300
100
AcDbEntity
  8
PIN_NUMBERS_TOP
100
AcDbText
 10
11.503704
 20
45.177496
 30
0.0
 40
0.508
  1
175
  7
COURIER_NEW
 72
         1
 11
12.1575
 21
45.4
 31
0.0
100
AcDbText
 73
         2
  0
TEXT
  5
301
100
AcDbEntity
  8
PIN_NUMBERS_TOP
100
AcDbText
 10
12.138704
 20
45.177496
 30
0.0
 40
0.508
  1
176
  7
COURIER_NEW
 72
         1
 11
12.7925
 21
45.4
 31
0.0
100
AcDbText
 73
         2
  0
TEXT
  5
302
100
AcDbEntity
  8
PIN_NUMBERS_TOP
100
AcDbText
 10
12.773704
 20
45.177496
 30
0.0
 40
0.508
  1
177
  7
COURIER_NEW
 72
         1
 11
13.4275
 21
45.4
 31
0.0
100
AcDbText
 73
         2
  0
TEXT
  5
303
100
AcDbEntity
  8
PIN_NUMBERS_TOP
100
AcDbText
 10
13.408704
 20
45.177496
 30
0.0
 40
0.508
  1
178
  7
COURIER_NEW
 72
         1
 11
14.0625
 21
45.4
 31
0.0
100
AcDbText
 73
         2
  0
TEXT
  5
304
100
AcDbEntity
  8
PIN_NUMBERS_TOP
100
AcDbText
 10
14.043704
 20
45.177496
 30
0.0
 40
0.508
  1
179
  7
COURIER_NEW
 72
         1
 11
14.6975
 21
45.4
 31
0.0
100
AcDbText
 73
         2
  0
TEXT
  5
305
100
AcDbEntity
  8
PIN_NUMBERS_TOP
100
AcDbText
 10
14.678704
 20
45.177496
 30
0.0
 40
0.508
  1
180
  7
COURIER_NEW
 72
         1
 11
15.3325
 21
45.4
 31
0.0
100
AcDbText
 73
         2
  0
TEXT
  5
306
100
AcDbEntity
  8
PIN_NUMBERS_TOP
100
AcDbText
 10
15.313704
 20
45.177496
 30
0.0
 40
0.508
  1
181
  7
COURIER_NEW
 72
         1
 11
15.9675
 21
45.4
 31
0.0
100
AcDbText
 73
         2
  0
TEXT
  5
307
100
AcDbEntity
  8
PIN_NUMBERS_TOP
100
AcDbText
 10
15.948704
 20
45.177496
 30
0.0
 40
0.508
  1
182
  7
COURIER_NEW
 72
         1
 11
16.6025
 21
45.4
 31
0.0
100
AcDbText
 73
         2
  0
TEXT
  5
308
100
AcDbEntity
  8
PIN_NUMBERS_TOP
100
AcDbText
 10
16.583704
 20
45.177496
 30
0.0
 40
0.508
  1
183
  7
COURIER_NEW
 72
         1
 11
17.2375
 21
45.4
 31
0.0
100
AcDbText
 73
         2
  0
TEXT
  5
309
100
AcDbEntity
  8
PIN_NUMBERS_TOP
100
AcDbText
 10
17.218704
 20
45.177496
 30
0.0
 40
0.508
  1
184
  7
COURIER_NEW
 72
         1
 11
17.8725
 21
45.4
 31
0.0
100
AcDbText
 73
         2
  0
TEXT
  5
30A
100
AcDbEntity
  8
PIN_NUMBERS_TOP
100
AcDbText
 10
17.853704
 20
45.177496
 30
0.0
 40
0.508
  1
185
  7
COURIER_NEW
 72
         1
 11
18.5075
 21
45.4
 31
0.0
100
AcDbText
 73
         2
  0
TEXT
  5
30B
100
AcDbEntity
  8
PIN_NUMBERS_TOP
100
AcDbText
 10
18.488704
 20
45.177496
 30
0.0
 40
0.508
  1
186
  7
COURIER_NEW
 72
         1
 11
19.1425
 21
45.4
 31
0.0
100
AcDbText
 73
         2
  0
TEXT
  5
30C
100
AcDbEntity
  8
PIN_NUMBERS_TOP
100
AcDbText
 10
19.123704
 20
45.177496
 30
0.0
 40
0.508
  1
187
  7
COURIER_NEW
 72
         1
 11
19.7775
 21
45.4
 31
0.0
100
AcDbText
 73
         2
  0
TEXT
  5
30D
100
AcDbEntity
  8
PIN_NUMBERS_TOP
100
AcDbText
 10
19.758704
 20
45.177496
 30
0.0
 40
0.508
  1
188
  7
COURIER_NEW
 72
         1
 11
20.4125
 21
45.4
 31
0.0
100
AcDbText
 73
         2
  0
TEXT
  5
30E
100
AcDbEntity
  8
PIN_NUMBERS_TOP
100
AcDbText
 10
20.393704
 20
45.177496
 30
0.0
 40
0.508
  1
189
  7
COURIER_NEW
 72
         1
 11
21.0475
 21
45.4
 31
0.0
100
AcDbText
 73
         2
  0
TEXT
  5
30F
100
AcDbEntity
  8
PIN_NUMBERS_TOP
100
AcDbText
 10
21.028704
 20
45.177496
 30
0.0
 40
0.508
  1
190
  7
COURIER_NEW
 72
         1
 11
21.6825
 21
45.4
 31
0.0
100
AcDbText
 73
         2
  0
TEXT
  5
310
100
AcDbEntity
  8
PIN_NUMBERS_TOP
100
AcDbText
 10
21.663704
 20
45.177496
 30
0.0
 40
0.508
  1
191
  7
COURIER_NEW
 72
         1
 11
22.3175
 21
45.4
 31
0.0
100
AcDbText
 73
         2
  0
TEXT
  5
311
100
AcDbEntity
  8
PIN_NUMBERS_TOP
100
AcDbText
 10
22.298704
 20
45.177496
 30
0.0
 40
0.508
  1
192
  7
COURIER_NEW
 72
         1
 11
22.9525
 21
45.4
 31
0.0
100
AcDbText
 73
         2
  0
TEXT
  5
312
100
AcDbEntity
  8
PIN_NUMBERS_TOP
100
AcDbText
 10
22.933704
 20
45.177496
 30
0.0
 40
0.508
  1
193
  7
COURIER_NEW
 72
         1
 11
23.5875
 21
45.4
 31
0.0
100
AcDbText
 73
         2
  0
TEXT
  5
313
100
AcDbEntity
  8
PIN_NUMBERS_TOP
100
AcDbText
 10
23.568704
 20
45.177496
 30
0.0
 40
0.508
  1
194
  7
COURIER_NEW
 72
         1
 11
24.2225
 21
45.4
 31
0.0
100
AcDbText
 73
         2
  0
TEXT
  5
314
100
AcDbEntity
  8
PIN_NUMBERS_TOP
100
AcDbText
 10
24.203704
 20
45.177496
 30
0.0
 40
0.508
  1
195
  7
COURIER_NEW
 72
         1
 11
24.8575
 21
45.4
 31
0.0
100
AcDbText
 73
         2
  0
TEXT
  5
315
100
AcDbEntity
  8
PIN_NUMBERS_TOP
100
AcDbText
 10
24.838704
 20
45.177496
 30
0.0
 40
0.508
  1
196
  7
COURIER_NEW
 72
         1
 11
25.4925
 21
45.4
 31
0.0
100
AcDbText
 73
         2
  0
TEXT
  5
316
100
AcDbEntity
  8
PIN_NUMBERS_TOP
100
AcDbText
 10
25.473704
 20
45.177496
 30
0.0
 40
0.508
  1
197
  7
COURIER_NEW
 72
         1
 11
26.1275
 21
45.4
 31
0.0
100
AcDbText
 73
         2
  0
TEXT
  5
317
100
AcDbEntity
  8
PIN_NUMBERS_TOP
100
AcDbText
 10
26.108704
 20
45.177496
 30
0.0
 40
0.508
  1
198
  7
COURIER_NEW
 72
         1
 11
26.7625
 21
45.4
 31
0.0
100
AcDbText
 73
         2
  0
TEXT
  5
318
100
AcDbEntity
  8
PIN_NUMBERS_TOP
100
AcDbText
 10
26.743704
 20
45.177496
 30
0.0
 40
0.508
  1
199
  7
COURIER_NEW
 72
         1
 11
27.3975
 21
45.4
 31
0.0
100
AcDbText
 73
         2
  0
TEXT
  5
319
100
AcDbEntity
  8
PIN_NUMBERS_TOP
100
AcDbText
 10
27.378704
 20
45.177496
 30
0.0
 40
0.508
  1
200
  7
COURIER_NEW
 72
         1
 11
28.0325
 21
45.4
 31
0.0
100
AcDbText
 73
         2
  0
TEXT
  5
31A
100
AcDbEntity
  8
PIN_NUMBERS_TOP
100
AcDbText
 10
28.013704
 20
45.177496
 30
0.0
 40
0.508
  1
201
  7
COURIER_NEW
 72
         1
 11
28.6675
 21
45.4
 31
0.0
100
AcDbText
 73
         2
  0
TEXT
  5
31B
100
AcDbEntity
  8
PIN_NUMBERS_TOP
100
AcDbText
 10
28.648704
 20
45.177496
 30
0.0
 40
0.508
  1
202
  7
COURIER_NEW
 72
         1
 11
29.3025
 21
45.4
 31
0.0
100
AcDbText
 73
         2
  0
TEXT
  5
31C
100
AcDbEntity
  8
PIN_NUMBERS_TOP
100
AcDbText
 10
29.283704
 20
45.177496
 30
0.0
 40
0.508
  1
203
  7
COURIER_NEW
 72
         1
 11
29.9375
 21
45.4
 31
0.0
100
AcDbText
 73
         2
  0
TEXT
  5
31D
100
AcDbEntity
  8
PIN_NUMBERS_TOP
100
AcDbText
 10
29.918704
 20
45.177496
 30
0.0
 40
0.508
  1
204
  7
COURIER_NEW
 72
         1
 11
30.5725
 21
45.4
 31
0.0
100
AcDbText
 73
         2
  0
TEXT
  5
31E
100
AcDbEntity
  8
PIN_NUMBERS_TOP
100
AcDbText
 10
30.553704
 20
45.177496
 30
0.0
 40
0.508
  1
205
  7
COURIER_NEW
 72
         1
 11
31.2075
 21
45.4
 31
0.0
100
AcDbText
 73
         2
  0
TEXT
  5
31F
100
AcDbEntity
  8
PIN_NUMBERS_TOP
100
AcDbText
 10
31.188704
 20
45.177496
 30
0.0
 40
0.508
  1
206
  7
COURIER_NEW
 72
         1
 11
31.8425
 21
45.4
 31
0.0
100
AcDbText
 73
         2
  0
TEXT
  5
320
100
AcDbEntity
  8
PIN_NUMBERS_TOP
100
AcDbText
 10
31.823704
 20
45.177496
 30
0.0
 40
0.508
  1
207
  7
COURIER_NEW
 72
         1
 11
32.4775
 21
45.4
 31
0.0
100
AcDbText
 73
         2
  0
TEXT
  5
321
100
AcDbEntity
  8
PIN_NUMBERS_TOP
100
AcDbText
 10
32.458704
 20
45.177496
 30
0.0
 40
0.508
  1
208
  7
COURIER_NEW
 72
         1
 11
33.1125
 21
45.4
 31
0.0
100
AcDbText
 73
         2
  0
TEXT
  5
322
100
AcDbEntity
  8
PIN_NUMBERS_TOP
100
AcDbText
 10
33.093704
 20
45.177496
 30
0.0
 40
0.508
  1
209
  7
COURIER_NEW
 72
         1
 11
33.7475
 21
45.4
 31
0.0
100
AcDbText
 73
         2
  0
TEXT
  5
323
100
AcDbEntity
  8
PIN_NUMBERS_TOP
100
AcDbText
 10
33.728704
 20
45.177496
 30
0.0
 40
0.508
  1
210
  7
COURIER_NEW
 72
         1
 11
34.3825
 21
45.4
 31
0.0
100
AcDbText
 73
         2
  0
TEXT
  5
324
100
AcDbEntity
  8
PIN_NUMBERS_TOP
100
AcDbText
 10
34.363704
 20
45.177496
 30
0.0
 40
0.508
  1
211
  7
COURIER_NEW
 72
         1
 11
35.0175
 21
45.4
 31
0.0
100
AcDbText
 73
         2
  0
TEXT
  5
325
100
AcDbEntity
  8
PIN_NUMBERS_TOP
100
AcDbText
 10
34.998704
 20
45.177496
 30
0.0
 40
0.508
  1
212
  7
COURIER_NEW
 72
         1
 11
35.6525
 21
45.4
 31
0.0
100
AcDbText
 73
         2
  0
TEXT
  5
326
100
AcDbEntity
  8
PIN_NUMBERS_TOP
100
AcDbText
 10
35.633704
 20
45.177496
 30
0.0
 40
0.508
  1
213
  7
COURIER_NEW
 72
         1
 11
36.2875
 21
45.4
 31
0.0
100
AcDbText
 73
         2
  0
TEXT
  5
327
100
AcDbEntity
  8
PIN_NUMBERS_TOP
100
AcDbText
 10
36.268704
 20
45.177496
 30
0.0
 40
0.508
  1
214
  7
COURIER_NEW
 72
         1
 11
36.9225
 21
45.4
 31
0.0
100
AcDbText
 73
         2
  0
TEXT
  5
328
100
AcDbEntity
  8
PIN_NUMBERS_TOP
100
AcDbText
 10
36.903704
 20
45.177496
 30
0.0
 40
0.508
  1
215
  7
COURIER_NEW
 72
         1
 11
37.5575
 21
45.4
 31
0.0
100
AcDbText
 73
         2
  0
TEXT
  5
329
100
AcDbEntity
  8
PIN_NUMBERS_TOP
100
AcDbText
 10
37.538704
 20
45.177496
 30
0.0
 40
0.508
  1
216
  7
COURIER_NEW
 72
         1
 11
38.1925
 21
45.4
 31
0.0
100
AcDbText
 73
         2
  0
TEXT
  5
32A
100
AcDbEntity
  8
PIN_NUMBERS_TOP
100
AcDbText
 10
38.173704
 20
45.177496
 30
0.0
 40
0.508
  1
217
  7
COURIER_NEW
 72
         1
 11
38.8275
 21
45.4
 31
0.0
100
AcDbText
 73
         2
  0
TEXT
  5
32B
100
AcDbEntity
  8
PIN_NUMBERS_TOP
100
AcDbText
 10
38.808704
 20
45.177496
 30
0.0
 40
0.508
  1
218
  7
COURIER_NEW
 72
         1
 11
39.4625
 21
45.4
 31
0.0
100
AcDbText
 73
         2
  0
TEXT
  5
32C
100
AcDbEntity
  8
PIN_NUMBERS_TOP
100
AcDbText
 10
39.443704
 20
45.177496
 30
0.0
 40
0.508
  1
219
  7
COURIER_NEW
 72
         1
 11
40.0975
 21
45.4
 31
0.0
100
AcDbText
 73
         2
  0
TEXT
  5
32D
100
AcDbEntity
  8
PIN_NUMBERS_TOP
100
AcDbText
 10
40.078704
 20
45.177496
 30
0.0
 40
0.508
  1
220
  7
COURIER_NEW
 72
         1
 11
40.7325
 21
45.4
 31
0.0
100
AcDbText
 73
         2
  0
TEXT
  5
32E
100
AcDbEntity
  8
PIN_NUMBERS_TOP
100
AcDbText
 10
40.713704
 20
45.177496
 30
0.0
 40
0.508
  1
221
  7
COURIER_NEW
 72
         1
 11
41.3675
 21
45.4
 31
0.0
100
AcDbText
 73
         2
  0
TEXT
  5
32F
100
AcDbEntity
  8
PIN_NUMBERS_TOP
100
AcDbText
 10
41.348704
 20
45.177496
 30
0.0
 40
0.508
  1
222
  7
COURIER_NEW
 72
         1
 11
42.0025
 21
45.4
 31
0.0
100
AcDbText
 73
         2
  0
TEXT
  5
330
100
AcDbEntity
  8
PIN_NUMBERS_TOP
100
AcDbText
 10
41.983704
 20
45.177496
 30
0.0
 40
0.508
  1
223
  7
COURIER_NEW
 72
         1
 11
42.6375
 21
45.4
 31
0.0
100
AcDbText
 73
         2
  0
TEXT
  5
331
100
AcDbEntity
  8
PIN_NUMBERS_TOP
100
AcDbText
 10
42.618704
 20
45.177496
 30
0.0
 40
0.508
  1
224
  7
COURIER_NEW
 72
         1
 11
43.2725
 21
45.4
 31
0.0
100
AcDbText
 73
         2
  0
TEXT
  5
332
100
AcDbEntity
  8
PIN_NUMBERS_TOP
100
AcDbText
 10
43.253704
 20
45.177496
 30
0.0
 40
0.508
  1
225
  7
COURIER_NEW
 72
         1
 11
43.9075
 21
45.4
 31
0.0
100
AcDbText
 73
         2
  0
TEXT
  5
333
100
AcDbEntity
  8
PIN_NUMBERS_TOP
100
AcDbText
 10
43.888704
 20
45.177496
 30
0.0
 40
0.508
  1
226
  7
COURIER_NEW
 72
         1
 11
44.5425
 21
45.4
 31
0.0
100
AcDbText
 73
         2
  0
TEXT
  5
334
100
AcDbEntity
  8
PIN_NUMBERS_TOP
100
AcDbText
 10
44.523704
 20
45.177496
 30
0.0
 40
0.508
  1
227
  7
COURIER_NEW
 72
         1
 11
45.1775
 21
45.4
 31
0.0
100
AcDbText
 73
         2
  0
TEXT
  5
335
100
AcDbEntity
  8
PIN_NUMBERS_TOP
100
AcDbText
 10
45.158704
 20
45.177496
 30
0.0
 40
0.508
  1
228
  7
COURIER_NEW
 72
         1
 11
45.8125
 21
45.4
 31
0.0
100
AcDbText
 73
         2
  0
TEXT
  5
336
100
AcDbEntity
  8
PIN_NUMBERS_TOP
100
AcDbText
 10
45.793704
 20
45.177496
 30
0.0
 40
0.508
  1
229
  7
COURIER_NEW
 72
         1
 11
46.4475
 21
45.4
 31
0.0
100
AcDbText
 73
         2
  0
TEXT
  5
337
100
AcDbEntity
  8
PIN_NUMBERS_TOP
100
AcDbText
 10
46.428704
 20
45.177496
 30
0.0
 40
0.508
  1
230
  7
COURIER_NEW
 72
         1
 11
47.0825
 21
45.4
 31
0.0
100
AcDbText
 73
         2
  0
TEXT
  5
338
100
AcDbEntity
  8
PIN_NUMBERS_TOP
100
AcDbText
 10
47.063704
 20
45.177496
 30
0.0
 40
0.508
  1
231
  7
COURIER_NEW
 72
         1
 11
47.7175
 21
45.4
 31
0.0
100
AcDbText
 73
         2
  0
TEXT
  5
339
100
AcDbEntity
  8
PIN_NUMBERS_TOP
100
AcDbText
 10
47.698704
 20
45.177496
 30
0.0
 40
0.508
  1
232
  7
COURIER_NEW
 72
         1
 11
48.3525
 21
45.4
 31
0.0
100
AcDbText
 73
         2
  0
TEXT
  5
33A
100
AcDbEntity
  8
PIN_NUMBERS_TOP
100
AcDbText
 10
48.333704
 20
45.177496
 30
0.0
 40
0.508
  1
233
  7
COURIER_NEW
 72
         1
 11
48.9875
 21
45.4
 31
0.0
100
AcDbText
 73
         2
  0
TEXT
  5
33B
100
AcDbEntity
  8
PIN_NUMBERS_TOP
100
AcDbText
 10
48.968704
 20
45.177496
 30
0.0
 40
0.508
  1
234
  7
COURIER_NEW
 72
         1
 11
49.6225
 21
45.4
 31
0.0
100
AcDbText
 73
         2
  0
TEXT
  5
33C
100
AcDbEntity
  8
PIN_NUMBERS_TOP
100
AcDbText
 10
49.603704
 20
45.177496
 30
0.0
 40
0.508
  1
235
  7
COURIER_NEW
 72
         1
 11
50.2575
 21
45.4
 31
0.0
100
AcDbText
 73
         2
  0
TEXT
  5
33D
100
AcDbEntity
  8
PIN_NUMBERS_TOP
100
AcDbText
 10
50.238704
 20
45.177496
 30
0.0
 40
0.508
  1
236
  7
COURIER_NEW
 72
         1
 11
50.8925
 21
45.4
 31
0.0
100
AcDbText
 73
         2
  0
TEXT
  5
33E
100
AcDbEntity
  8
PIN_NUMBERS_TOP
100
AcDbText
 10
50.873704
 20
45.177496
 30
0.0
 40
0.508
  1
237
  7
COURIER_NEW
 72
         1
 11
51.5275
 21
45.4
 31
0.0
100
AcDbText
 73
         2
  0
TEXT
  5
33F
100
AcDbEntity
  8
PIN_NUMBERS_TOP
100
AcDbText
 10
51.508704
 20
45.177496
 30
0.0
 40
0.508
  1
238
  7
COURIER_NEW
 72
         1
 11
52.1625
 21
45.4
 31
0.0
100
AcDbText
 73
         2
  0
TEXT
  5
340
100
AcDbEntity
  8
PIN_NUMBERS_TOP
100
AcDbText
 10
52.143704
 20
45.177496
 30
0.0
 40
0.508
  1
239
  7
COURIER_NEW
 72
         1
 11
52.7975
 21
45.4
 31
0.0
100
AcDbText
 73
         2
  0
TEXT
  5
341
100
AcDbEntity
  8
PIN_NUMBERS_TOP
100
AcDbText
 10
52.778704
 20
45.177496
 30
0.0
 40
0.508
  1
240
  7
COURIER_NEW
 72
         1
 11
53.4325
 21
45.4
 31
0.0
100
AcDbText
 73
         2
  0
TEXT
  5
342
100
AcDbEntity
  8
PIN_NUMBERS_TOP
100
AcDbText
 10
2.613704
 20
49.577496
 30
0.0
 40
0.508
  1
241
  7
COURIER_NEW
 72
         1
 11
3.2675
 21
49.8
 31
0.0
100
AcDbText
 73
         2
  0
TEXT
  5
343
100
AcDbEntity
  8
PIN_NUMBERS_TOP
100
AcDbText
 10
3.248704
 20
49.577496
 30
0.0
 40
0.508
  1
242
  7
COURIER_NEW
 72
         1
 11
3.9025
 21
49.8
 31
0.0
100
AcDbText
 73
         2
  0
TEXT
  5
344
100
AcDbEntity
  8
PIN_NUMBERS_TOP
100
AcDbText
 10
3.883704
 20
49.577496
 30
0.0
 40
0.508
  1
243
  7
COURIER_NEW
 72
         1
 11
4.5375
 21
49.8
 31
0.0
100
AcDbText
 73
         2
  0
TEXT
  5
345
100
AcDbEntity
  8
PIN_NUMBERS_TOP
100
AcDbText
 10
4.518704
 20
49.577496
 30
0.0
 40
0.508
  1
244
  7
COURIER_NEW
 72
         1
 11
5.1725
 21
49.8
 31
0.0
100
AcDbText
 73
         2
  0
TEXT
  5
346
100
AcDbEntity
  8
PIN_NUMBERS_TOP
100
AcDbText
 10
5.153704
 20
49.577496
 30
0.0
 40
0.508
  1
245
  7
COURIER_NEW
 72
         1
 11
5.8075
 21
49.8
 31
0.0
100
AcDbText
 73
         2
  0
TEXT
  5
347
100
AcDbEntity
  8
PIN_NUMBERS_TOP
100
AcDbText
 10
5.788704
 20
49.577496
 30
0.0
 40
0.508
  1
246
  7
COURIER_NEW
 72
         1
 11
6.4425
 21
49.8
 31
0.0
100
AcDbText
 73
         2
  0
TEXT
  5
348
100
AcDbEntity
  8
PIN_NUMBERS_TOP
100
AcDbText
 10
6.423704
 20
49.577496
 30
0.0
 40
0.508
  1
247
  7
COURIER_NEW
 72
         1
 11
7.0775
 21
49.8
 31
0.0
100
AcDbText
 73
         2
  0
TEXT
  5
349
100
AcDbEntity
  8
PIN_NUMBERS_TOP
100
AcDbText
 10
7.058704
 20
49.577496
 30
0.0
 40
0.508
  1
248
  7
COURIER_NEW
 72
         1
 11
7.7125
 21
49.8
 31
0.0
100
AcDbText
 73
         2
  0
TEXT
  5
34A
100
AcDbEntity
  8
PIN_NUMBERS_TOP
100
AcDbText
 10
7.693704
 20
49.577496
 30
0.0
 40
0.508
  1
249
  7
COURIER_NEW
 72
         1
 11
8.3475
 21
49.8
 31
0.0
100
AcDbText
 73
         2
  0
TEXT
  5
34B
100
AcDbEntity
  8
PIN_NUMBERS_TOP
100
AcDbText
 10
8.328704
 20
49.577496
 30
0.0
 40
0.508
  1
250
  7
COURIER_NEW
 72
         1
 11
8.9825
 21
49.8
 31
0.0
100
AcDbText
 73
         2
  0
TEXT
  5
34C
100
AcDbEntity
  8
PIN_NUMBERS_TOP
100
AcDbText
 10
8.963704
 20
49.577496
 30
0.0
 40
0.508
  1
251
  7
COURIER_NEW
 72
         1
 11
9.6175
 21
49.8
 31
0.0
100
AcDbText
 73
         2
  0
TEXT
  5
34D
100
AcDbEntity
  8
PIN_NUMBERS_TOP
100
AcDbText
 10
9.598704
 20
49.577496
 30
0.0
 40
0.508
  1
252
  7
COURIER_NEW
 72
         1
 11
10.2525
 21
49.8
 31
0.0
100
AcDbText
 73
         2
  0
TEXT
  5
34E
100
AcDbEntity
  8
PIN_NUMBERS_TOP
100
AcDbText
 10
10.233704
 20
49.577496
 30
0.0
 40
0.508
  1
253
  7
COURIER_NEW
 72
         1
 11
10.8875
 21
49.8
 31
0.0
100
AcDbText
 73
         2
  0
TEXT
  5
34F
100
AcDbEntity
  8
PIN_NUMBERS_TOP
100
AcDbText
 10
10.868704
 20
49.577496
 30
0.0
 40
0.508
  1
254
  7
COURIER_NEW
 72
         1
 11
11.5225
 21
49.8
 31
0.0
100
AcDbText
 73
         2
  0
TEXT
  5
350
100
AcDbEntity
  8
PIN_NUMBERS_TOP
100
AcDbText
 10
11.503704
 20
49.577496
 30
0.0
 40
0.508
  1
255
  7
COURIER_NEW
 72
         1
 11
12.1575
 21
49.8
 31
0.0
100
AcDbText
 73
         2
  0
TEXT
  5
351
100
AcDbEntity
  8
PIN_NUMBERS_TOP
100
AcDbText
 10
12.138704
 20
49.577496
 30
0.0
 40
0.508
  1
256
  7
COURIER_NEW
 72
         1
 11
12.7925
 21
49.8
 31
0.0
100
AcDbText
 73
         2
  0
TEXT
  5
352
100
AcDbEntity
  8
PIN_NUMBERS_TOP
100
AcDbText
 10
12.773704
 20
49.577496
 30
0.0
 40
0.508
  1
257
  7
COURIER_NEW
 72
         1
 11
13.4275
 21
49.8
 31
0.0
100
AcDbText
 73
         2
  0
TEXT
  5
353
100
AcDbEntity
  8
PIN_NUMBERS_TOP
100
AcDbText
 10
13.408704
 20
49.577496
 30
0.0
 40
0.508
  1
258
  7
COURIER_NEW
 72
         1
 11
14.0625
 21
49.8
 31
0.0
100
AcDbText
 73
         2
  0
TEXT
  5
354
100
AcDbEntity
  8
PIN_NUMBERS_TOP
100
AcDbText
 10
14.043704
 20
49.577496
 30
0.0
 40
0.508
  1
259
  7
COURIER_NEW
 72
         1
 11
14.6975
 21
49.8
 31
0.0
100
AcDbText
 73
         2
  0
TEXT
  5
355
100
AcDbEntity
  8
PIN_NUMBERS_TOP
100
AcDbText
 10
14.678704
 20
49.577496
 30
0.0
 40
0.508
  1
260
  7
COURIER_NEW
 72
         1
 11
15.3325
 21
49.8
 31
0.0
100
AcDbText
 73
         2
  0
TEXT
  5
356
100
AcDbEntity
  8
PIN_NUMBERS_TOP
100
AcDbText
 10
15.313704
 20
49.577496
 30
0.0
 40
0.508
  1
261
  7
COURIER_NEW
 72
         1
 11
15.9675
 21
49.8
 31
0.0
100
AcDbText
 73
         2
  0
TEXT
  5
357
100
AcDbEntity
  8
PIN_NUMBERS_TOP
100
AcDbText
 10
15.948704
 20
49.577496
 30
0.0
 40
0.508
  1
262
  7
COURIER_NEW
 72
         1
 11
16.6025
 21
49.8
 31
0.0
100
AcDbText
 73
         2
  0
TEXT
  5
358
100
AcDbEntity
  8
PIN_NUMBERS_TOP
100
AcDbText
 10
16.583704
 20
49.577496
 30
0.0
 40
0.508
  1
263
  7
COURIER_NEW
 72
         1
 11
17.2375
 21
49.8
 31
0.0
100
AcDbText
 73
         2
  0
TEXT
  5
359
100
AcDbEntity
  8
PIN_NUMBERS_TOP
100
AcDbText
 10
17.218704
 20
49.577496
 30
0.0
 40
0.508
  1
264
  7
COURIER_NEW
 72
         1
 11
17.8725
 21
49.8
 31
0.0
100
AcDbText
 73
         2
  0
TEXT
  5
35A
100
AcDbEntity
  8
PIN_NUMBERS_TOP
100
AcDbText
 10
17.853704
 20
49.577496
 30
0.0
 40
0.508
  1
265
  7
COURIER_NEW
 72
         1
 11
18.5075
 21
49.8
 31
0.0
100
AcDbText
 73
         2
  0
TEXT
  5
35B
100
AcDbEntity
  8
PIN_NUMBERS_TOP
100
AcDbText
 10
18.488704
 20
49.577496
 30
0.0
 40
0.508
  1
266
  7
COURIER_NEW
 72
         1
 11
19.1425
 21
49.8
 31
0.0
100
AcDbText
 73
         2
  0
TEXT
  5
35C
100
AcDbEntity
  8
PIN_NUMBERS_TOP
100
AcDbText
 10
19.123704
 20
49.577496
 30
0.0
 40
0.508
  1
267
  7
COURIER_NEW
 72
         1
 11
19.7775
 21
49.8
 31
0.0
100
AcDbText
 73
         2
  0
TEXT
  5
35D
100
AcDbEntity
  8
PIN_NUMBERS_TOP
100
AcDbText
 10
19.758704
 20
49.577496
 30
0.0
 40
0.508
  1
268
  7
COURIER_NEW
 72
         1
 11
20.4125
 21
49.8
 31
0.0
100
AcDbText
 73
         2
  0
TEXT
  5
35E
100
AcDbEntity
  8
PIN_NUMBERS_TOP
100
AcDbText
 10
20.393704
 20
49.577496
 30
0.0
 40
0.508
  1
269
  7
COURIER_NEW
 72
         1
 11
21.0475
 21
49.8
 31
0.0
100
AcDbText
 73
         2
  0
TEXT
  5
35F
100
AcDbEntity
  8
PIN_NUMBERS_TOP
100
AcDbText
 10
21.028704
 20
49.577496
 30
0.0
 40
0.508
  1
270
  7
COURIER_NEW
 72
         1
 11
21.6825
 21
49.8
 31
0.0
100
AcDbText
 73
         2
  0
TEXT
  5
360
100
AcDbEntity
  8
PIN_NUMBERS_TOP
100
AcDbText
 10
21.663704
 20
49.577496
 30
0.0
 40
0.508
  1
271
  7
COURIER_NEW
 72
         1
 11
22.3175
 21
49.8
 31
0.0
100
AcDbText
 73
         2
  0
TEXT
  5
361
100
AcDbEntity
  8
PIN_NUMBERS_TOP
100
AcDbText
 10
22.298704
 20
49.577496
 30
0.0
 40
0.508
  1
272
  7
COURIER_NEW
 72
         1
 11
22.9525
 21
49.8
 31
0.0
100
AcDbText
 73
         2
  0
TEXT
  5
362
100
AcDbEntity
  8
PIN_NUMBERS_TOP
100
AcDbText
 10
22.933704
 20
49.577496
 30
0.0
 40
0.508
  1
273
  7
COURIER_NEW
 72
         1
 11
23.5875
 21
49.8
 31
0.0
100
AcDbText
 73
         2
  0
TEXT
  5
363
100
AcDbEntity
  8
PIN_NUMBERS_TOP
100
AcDbText
 10
23.568704
 20
49.577496
 30
0.0
 40
0.508
  1
274
  7
COURIER_NEW
 72
         1
 11
24.2225
 21
49.8
 31
0.0
100
AcDbText
 73
         2
  0
TEXT
  5
364
100
AcDbEntity
  8
PIN_NUMBERS_TOP
100
AcDbText
 10
24.203704
 20
49.577496
 30
0.0
 40
0.508
  1
275
  7
COURIER_NEW
 72
         1
 11
24.8575
 21
49.8
 31
0.0
100
AcDbText
 73
         2
  0
TEXT
  5
365
100
AcDbEntity
  8
PIN_NUMBERS_TOP
100
AcDbText
 10
24.838704
 20
49.577496
 30
0.0
 40
0.508
  1
276
  7
COURIER_NEW
 72
         1
 11
25.4925
 21
49.8
 31
0.0
100
AcDbText
 73
         2
  0
TEXT
  5
366
100
AcDbEntity
  8
PIN_NUMBERS_TOP
100
AcDbText
 10
25.473704
 20
49.577496
 30
0.0
 40
0.508
  1
277
  7
COURIER_NEW
 72
         1
 11
26.1275
 21
49.8
 31
0.0
100
AcDbText
 73
         2
  0
TEXT
  5
367
100
AcDbEntity
  8
PIN_NUMBERS_TOP
100
AcDbText
 10
26.108704
 20
49.577496
 30
0.0
 40
0.508
  1
278
  7
COURIER_NEW
 72
         1
 11
26.7625
 21
49.8
 31
0.0
100
AcDbText
 73
         2
  0
TEXT
  5
368
100
AcDbEntity
  8
PIN_NUMBERS_TOP
100
AcDbText
 10
26.743704
 20
49.577496
 30
0.0
 40
0.508
  1
279
  7
COURIER_NEW
 72
         1
 11
27.3975
 21
49.8
 31
0.0
100
AcDbText
 73
         2
  0
TEXT
  5
369
100
AcDbEntity
  8
PIN_NUMBERS_TOP
100
AcDbText
 10
27.378704
 20
49.577496
 30
0.0
 40
0.508
  1
280
  7
COURIER_NEW
 72
         1
 11
28.0325
 21
49.8
 31
0.0
100
AcDbText
 73
         2
  0
TEXT
  5
36A
100
AcDbEntity
  8
PIN_NUMBERS_TOP
100
AcDbText
 10
28.013704
 20
49.577496
 30
0.0
 40
0.508
  1
281
  7
COURIER_NEW
 72
         1
 11
28.6675
 21
49.8
 31
0.0
100
AcDbText
 73
         2
  0
TEXT
  5
36B
100
AcDbEntity
  8
PIN_NUMBERS_TOP
100
AcDbText
 10
28.648704
 20
49.577496
 30
0.0
 40
0.508
  1
282
  7
COURIER_NEW
 72
         1
 11
29.3025
 21
49.8
 31
0.0
100
AcDbText
 73
         2
  0
TEXT
  5
36C
100
AcDbEntity
  8
PIN_NUMBERS_TOP
100
AcDbText
 10
29.283704
 20
49.577496
 30
0.0
 40
0.508
  1
283
  7
COURIER_NEW
 72
         1
 11
29.9375
 21
49.8
 31
0.0
100
AcDbText
 73
         2
  0
TEXT
  5
36D
100
AcDbEntity
  8
PIN_NUMBERS_TOP
100
AcDbText
 10
29.918704
 20
49.577496
 30
0.0
 40
0.508
  1
284
  7
COURIER_NEW
 72
         1
 11
30.5725
 21
49.8
 31
0.0
100
AcDbText
 73
         2
  0
TEXT
  5
36E
100
AcDbEntity
  8
PIN_NUMBERS_TOP
100
AcDbText
 10
30.553704
 20
49.577496
 30
0.0
 40
0.508
  1
285
  7
COURIER_NEW
 72
         1
 11
31.2075
 21
49.8
 31
0.0
100
AcDbText
 73
         2
  0
TEXT
  5
36F
100
AcDbEntity
  8
PIN_NUMBERS_TOP
100
AcDbText
 10
31.188704
 20
49.577496
 30
0.0
 40
0.508
  1
286
  7
COURIER_NEW
 72
         1
 11
31.8425
 21
49.8
 31
0.0
100
AcDbText
 73
         2
  0
TEXT
  5
370
100
AcDbEntity
  8
PIN_NUMBERS_TOP
100
AcDbText
 10
31.823704
 20
49.577496
 30
0.0
 40
0.508
  1
287
  7
COURIER_NEW
 72
         1
 11
32.4775
 21
49.8
 31
0.0
100
AcDbText
 73
         2
  0
TEXT
  5
371
100
AcDbEntity
  8
PIN_NUMBERS_TOP
100
AcDbText
 10
32.458704
 20
49.577496
 30
0.0
 40
0.508
  1
288
  7
COURIER_NEW
 72
         1
 11
33.1125
 21
49.8
 31
0.0
100
AcDbText
 73
         2
  0
TEXT
  5
372
100
AcDbEntity
  8
PIN_NUMBERS_TOP
100
AcDbText
 10
33.093704
 20
49.577496
 30
0.0
 40
0.508
  1
289
  7
COURIER_NEW
 72
         1
 11
33.7475
 21
49.8
 31
0.0
100
AcDbText
 73
         2
  0
TEXT
  5
373
100
AcDbEntity
  8
PIN_NUMBERS_TOP
100
AcDbText
 10
33.728704
 20
49.577496
 30
0.0
 40
0.508
  1
290
  7
COURIER_NEW
 72
         1
 11
34.3825
 21
49.8
 31
0.0
100
AcDbText
 73
         2
  0
TEXT
  5
374
100
AcDbEntity
  8
PIN_NUMBERS_TOP
100
AcDbText
 10
34.363704
 20
49.577496
 30
0.0
 40
0.508
  1
291
  7
COURIER_NEW
 72
         1
 11
35.0175
 21
49.8
 31
0.0
100
AcDbText
 73
         2
  0
TEXT
  5
375
100
AcDbEntity
  8
PIN_NUMBERS_TOP
100
AcDbText
 10
34.998704
 20
49.577496
 30
0.0
 40
0.508
  1
292
  7
COURIER_NEW
 72
         1
 11
35.6525
 21
49.8
 31
0.0
100
AcDbText
 73
         2
  0
TEXT
  5
376
100
AcDbEntity
  8
PIN_NUMBERS_TOP
100
AcDbText
 10
35.633704
 20
49.577496
 30
0.0
 40
0.508
  1
293
  7
COURIER_NEW
 72
         1
 11
36.2875
 21
49.8
 31
0.0
100
AcDbText
 73
         2
  0
TEXT
  5
377
100
AcDbEntity
  8
PIN_NUMBERS_TOP
100
AcDbText
 10
36.268704
 20
49.577496
 30
0.0
 40
0.508
  1
294
  7
COURIER_NEW
 72
         1
 11
36.9225
 21
49.8
 31
0.0
100
AcDbText
 73
         2
  0
TEXT
  5
378
100
AcDbEntity
  8
PIN_NUMBERS_TOP
100
AcDbText
 10
36.903704
 20
49.577496
 30
0.0
 40
0.508
  1
295
  7
COURIER_NEW
 72
         1
 11
37.5575
 21
49.8
 31
0.0
100
AcDbText
 73
         2
  0
TEXT
  5
379
100
AcDbEntity
  8
PIN_NUMBERS_TOP
100
AcDbText
 10
37.538704
 20
49.577496
 30
0.0
 40
0.508
  1
296
  7
COURIER_NEW
 72
         1
 11
38.1925
 21
49.8
 31
0.0
100
AcDbText
 73
         2
  0
TEXT
  5
37A
100
AcDbEntity
  8
PIN_NUMBERS_TOP
100
AcDbText
 10
38.173704
 20
49.577496
 30
0.0
 40
0.508
  1
297
  7
COURIER_NEW
 72
         1
 11
38.8275
 21
49.8
 31
0.0
100
AcDbText
 73
         2
  0
TEXT
  5
37B
100
AcDbEntity
  8
PIN_NUMBERS_TOP
100
AcDbText
 10
38.808704
 20
49.577496
 30
0.0
 40
0.508
  1
298
  7
COURIER_NEW
 72
         1
 11
39.4625
 21
49.8
 31
0.0
100
AcDbText
 73
         2
  0
TEXT
  5
37C
100
AcDbEntity
  8
PIN_NUMBERS_TOP
100
AcDbText
 10
39.443704
 20
49.577496
 30
0.0
 40
0.508
  1
299
  7
COURIER_NEW
 72
         1
 11
40.0975
 21
49.8
 31
0.0
100
AcDbText
 73
         2
  0
TEXT
  5
37D
100
AcDbEntity
  8
PIN_NUMBERS_TOP
100
AcDbText
 10
40.078704
 20
49.577496
 30
0.0
 40
0.508
  1
300
  7
COURIER_NEW
 72
         1
 11
40.7325
 21
49.8
 31
0.0
100
AcDbText
 73
         2
  0
TEXT
  5
37E
100
AcDbEntity
  8
PIN_NUMBERS_TOP
100
AcDbText
 10
40.713704
 20
49.577496
 30
0.0
 40
0.508
  1
301
  7
COURIER_NEW
 72
         1
 11
41.3675
 21
49.8
 31
0.0
100
AcDbText
 73
         2
  0
TEXT
  5
37F
100
AcDbEntity
  8
PIN_NUMBERS_TOP
100
AcDbText
 10
41.348704
 20
49.577496
 30
0.0
 40
0.508
  1
302
  7
COURIER_NEW
 72
         1
 11
42.0025
 21
49.8
 31
0.0
100
AcDbText
 73
         2
  0
TEXT
  5
380
100
AcDbEntity
  8
PIN_NUMBERS_TOP
100
AcDbText
 10
41.983704
 20
49.577496
 30
0.0
 40
0.508
  1
303
  7
COURIER_NEW
 72
         1
 11
42.6375
 21
49.8
 31
0.0
100
AcDbText
 73
         2
  0
TEXT
  5
381
100
AcDbEntity
  8
PIN_NUMBERS_TOP
100
AcDbText
 10
42.618704
 20
49.577496
 30
0.0
 40
0.508
  1
304
  7
COURIER_NEW
 72
         1
 11
43.2725
 21
49.8
 31
0.0
100
AcDbText
 73
         2
  0
TEXT
  5
382
100
AcDbEntity
  8
PIN_NUMBERS_TOP
100
AcDbText
 10
43.253704
 20
49.577496
 30
0.0
 40
0.508
  1
305
  7
COURIER_NEW
 72
         1
 11
43.9075
 21
49.8
 31
0.0
100
AcDbText
 73
         2
  0
TEXT
  5
383
100
AcDbEntity
  8
PIN_NUMBERS_TOP
100
AcDbText
 10
43.888704
 20
49.577496
 30
0.0
 40
0.508
  1
306
  7
COURIER_NEW
 72
         1
 11
44.5425
 21
49.8
 31
0.0
100
AcDbText
 73
         2
  0
TEXT
  5
384
100
AcDbEntity
  8
PIN_NUMBERS_TOP
100
AcDbText
 10
44.523704
 20
49.577496
 30
0.0
 40
0.508
  1
307
  7
COURIER_NEW
 72
         1
 11
45.1775
 21
49.8
 31
0.0
100
AcDbText
 73
         2
  0
TEXT
  5
385
100
AcDbEntity
  8
PIN_NUMBERS_TOP
100
AcDbText
 10
45.158704
 20
49.577496
 30
0.0
 40
0.508
  1
308
  7
COURIER_NEW
 72
         1
 11
45.8125
 21
49.8
 31
0.0
100
AcDbText
 73
         2
  0
TEXT
  5
386
100
AcDbEntity
  8
PIN_NUMBERS_TOP
100
AcDbText
 10
45.793704
 20
49.577496
 30
0.0
 40
0.508
  1
309
  7
COURIER_NEW
 72
         1
 11
46.4475
 21
49.8
 31
0.0
100
AcDbText
 73
         2
  0
TEXT
  5
387
100
AcDbEntity
  8
PIN_NUMBERS_TOP
100
AcDbText
 10
46.428704
 20
49.577496
 30
0.0
 40
0.508
  1
310
  7
COURIER_NEW
 72
         1
 11
47.0825
 21
49.8
 31
0.0
100
AcDbText
 73
         2
  0
TEXT
  5
388
100
AcDbEntity
  8
PIN_NUMBERS_TOP
100
AcDbText
 10
47.063704
 20
49.577496
 30
0.0
 40
0.508
  1
311
  7
COURIER_NEW
 72
         1
 11
47.7175
 21
49.8
 31
0.0
100
AcDbText
 73
         2
  0
TEXT
  5
389
100
AcDbEntity
  8
PIN_NUMBERS_TOP
100
AcDbText
 10
47.698704
 20
49.577496
 30
0.0
 40
0.508
  1
312
  7
COURIER_NEW
 72
         1
 11
48.3525
 21
49.8
 31
0.0
100
AcDbText
 73
         2
  0
TEXT
  5
38A
100
AcDbEntity
  8
PIN_NUMBERS_TOP
100
AcDbText
 10
48.333704
 20
49.577496
 30
0.0
 40
0.508
  1
313
  7
COURIER_NEW
 72
         1
 11
48.9875
 21
49.8
 31
0.0
100
AcDbText
 73
         2
  0
TEXT
  5
38B
100
AcDbEntity
  8
PIN_NUMBERS_TOP
100
AcDbText
 10
48.968704
 20
49.577496
 30
0.0
 40
0.508
  1
314
  7
COURIER_NEW
 72
         1
 11
49.6225
 21
49.8
 31
0.0
100
AcDbText
 73
         2
  0
TEXT
  5
38C
100
AcDbEntity
  8
PIN_NUMBERS_TOP
100
AcDbText
 10
49.603704
 20
49.577496
 30
0.0
 40
0.508
  1
315
  7
COURIER_NEW
 72
         1
 11
50.2575
 21
49.8
 31
0.0
100
AcDbText
 73
         2
  0
TEXT
  5
38D
100
AcDbEntity
  8
PIN_NUMBERS_TOP
100
AcDbText
 10
50.238704
 20
49.577496
 30
0.0
 40
0.508
  1
316
  7
COURIER_NEW
 72
         1
 11
50.8925
 21
49.8
 31
0.0
100
AcDbText
 73
         2
  0
TEXT
  5
38E
100
AcDbEntity
  8
PIN_NUMBERS_TOP
100
AcDbText
 10
50.873704
 20
49.577496
 30
0.0
 40
0.508
  1
317
  7
COURIER_NEW
 72
         1
 11
51.5275
 21
49.8
 31
0.0
100
AcDbText
 73
         2
  0
TEXT
  5
38F
100
AcDbEntity
  8
PIN_NUMBERS_TOP
100
AcDbText
 10
51.508704
 20
49.577496
 30
0.0
 40
0.508
  1
318
  7
COURIER_NEW
 72
         1
 11
52.1625
 21
49.8
 31
0.0
100
AcDbText
 73
         2
  0
TEXT
  5
390
100
AcDbEntity
  8
PIN_NUMBERS_TOP
100
AcDbText
 10
52.143704
 20
49.577496
 30
0.0
 40
0.508
  1
319
  7
COURIER_NEW
 72
         1
 11
52.7975
 21
49.8
 31
0.0
100
AcDbText
 73
         2
  0
TEXT
  5
391
100
AcDbEntity
  8
PIN_NUMBERS_TOP
100
AcDbText
 10
52.778704
 20
49.577496
 30
0.0
 40
0.508
  1
320
  7
COURIER_NEW
 72
         1
 11
53.4325
 21
49.8
 31
0.0
100
AcDbText
 73
         2
  0
TEXT
  5
392
100
AcDbEntity
  8
PIN_NUMBERS_TOP
100
AcDbText
 10
55.831204
 20
47.377496
 30
0.0
 40
0.508
  1
324
  7
COURIER_NEW
 72
         1
 11
56.485
 21
47.6
 31
0.0
100
AcDbText
 73
         2
  0
TEXT
  5
393
100
AcDbEntity
  8
PIN_NUMBERS_TOP
100
AcDbText
 10
-0.438796
 20
47.377496
 30
0.0
 40
0.508
  1
323
  7
COURIER_NEW
 72
         1
 11
0.215
 21
47.6
 31
0.0
100
AcDbText
 73
         2
  0
TEXT
  5
394
100
AcDbEntity
  8
PIN_NUMBERS_TOP
100
AcDbText
 10
-0.433796
 20
-0.222504
 30
0.0
 40
0.508
  1
321
  7
COURIER_NEW
 72
         1
 11
0.22
 21
0.0
 31
0.0
100
AcDbText
 73
         2
  0
TEXT
  5
395
100
AcDbEntity
  8
PIN_NUMBERS_TOP
100
AcDbText
 10
55.826204
 20
-0.222504
 30
0.0
 40
0.508
  1
322
  7
COURIER_NEW
 72
         1
 11
56.48
 21
0.0
 31
0.0
100
AcDbText
 73
         2
  0
LWPOLYLINE
  5
396
100
AcDbEntity
  8
PLACEMENT_OUTLINES_TOP
100
AcDbPolyline
 90
        4
 70
         1
 43
0.2
 38
4.3
 10
-2.0
 20
43.8
 10
-2.0
 20
51.44
 10
58.8
 20
51.44
 10
58.8
 20
43.8
  0
LWPOLYLINE
  5
397
100
AcDbEntity
  8
PLACEMENT_OUTLINES_TOP
100
AcDbPolyline
 90
        4
 70
         1
 43
0.2
 38
4.3
 10
-1.9
 20
-3.9
 10
-1.9
 20
3.74
 10
58.9
 20
3.74
 10
58.9
 20
-3.9
  0
LWPOLYLINE
  5
398
100
AcDbEntity
  8
SILKSCREEN_OUTLINES_TOP
100
AcDbPolyline
 90
        4
 70
         1
 43
0.2
 10
-1.905
 20
-3.81
 10
-1.905
 20
3.79
 10
58.795
 20
3.79
 10
58.795
 20
-3.81
  0
LWPOLYLINE
  5
399
100
AcDbEntity
  8
SILKSCREEN_OUTLINES_TOP
100
AcDbPolyline
 90
        4
 70
         1
 43
0.2
 10
-1.905
 20
43.815
 10
-1.905
 20
51.415
 10
58.795
 20
51.415
 10
58.795
 20
43.815
  0
LWPOLYLINE
  5
39A
100
AcDbEntity
  8
SILKSCREEN_OUTLINES_TOP
100
AcDbPolyline
 90
        2
 70
         0
 43
0.2
 10
-1.75
 20
2.0
 10
0.25
 20
3.75
  0
LWPOLYLINE
  5
39B
100
AcDbEntity
  8
SILKSCREEN_OUTLINES_TOP
100
AcDbPolyline
 90
        2
 70
         0
 43
0.2
 10
-1.75
 20
49.5
 10
0.25
 20
51.25
  0
TEXT
  5
39D
100
AcDbEntity
  8
SILKSCREEN_REF_DES_TOP
100
AcDbText
 10
-9.032475
 20
31.737525
 30
0.0
 40
1.5
  1
Ref Des
 50
90.0
  7
VERIBEST_GERBER_0
 72
         2
 11
-9.032475
 21
41.297025
 31
0.0
100
AcDbText
 73
         1
  0
LWPOLYLINE
  5
39E
100
AcDbEntity
  8
SOLDERMASK_PADS_BTM
100
AcDbPolyline
 90
        2
 70
         1
 43
2.25
 10
-5.125
 20
49.1
 42
-1.0
 10
-2.875
 20
49.1
 42
-1.0
  0
LWPOLYLINE
  5
39F
100
AcDbEntity
  8
SOLDERMASK_PADS_BTM
100
AcDbPolyline
 90
        2
 70
         1
 43
2.25
 10
-5.125
 20
-1.5
 42
-1.0
 10
-2.875
 20
-1.5
 42
-1.0
  0
LWPOLYLINE
  5
3A0
100
AcDbEntity
  8
SOLDERMASK_PADS_BTM
100
AcDbPolyline
 90
        2
 70
         1
 43
2.25
 10
59.575
 20
-1.5
 42
-1.0
 10
61.825
 20
-1.5
 42
-1.0
  0
LWPOLYLINE
  5
3A1
100
AcDbEntity
  8
SOLDERMASK_PADS_BTM
100
AcDbPolyline
 90
        2
 70
         1
 43
2.25
 10
59.575
 20
49.1
 42
-1.0
 10
61.825
 20
49.1
 42
-1.0
  0
LWPOLYLINE
  5
3A2
100
AcDbEntity
  8
SOLDERMASK_PADS_TOP
100
AcDbPolyline
 90
        2
 70
         1
 43
2.25
 10
-5.125
 20
49.1
 42
-1.0
 10
-2.875
 20
49.1
 42
-1.0
  0
LWPOLYLINE
  5
3A3
100
AcDbEntity
  8
SOLDERMASK_PADS_TOP
100
AcDbPolyline
 90
        2
 70
         1
 43
2.25
 10
-5.125
 20
-1.5
 42
-1.0
 10
-2.875
 20
-1.5
 42
-1.0
  0
LWPOLYLINE
  5
3A4
100
AcDbEntity
  8
SOLDERMASK_PADS_TOP
100
AcDbPolyline
 90
        2
 70
         1
 43
2.25
 10
59.575
 20
-1.5
 42
-1.0
 10
61.825
 20
-1.5
 42
-1.0
  0
LWPOLYLINE
  5
3A5
100
AcDbEntity
  8
SOLDERMASK_PADS_TOP
100
AcDbPolyline
 90
        2
 70
         1
 43
2.25
 10
59.575
 20
49.1
 42
-1.0
 10
61.825
 20
49.1
 42
-1.0
  0
SOLID
  5
3A6
100
AcDbEntity
  8
SOLDERMASK_PADS_TOP
100
AcDbTrace
 10
3.0925
 20
-3.45
 30
0.0
 11
3.4425
 21
-3.45
 31
0.0
 12
3.0925
 22
-0.95
 32
0.0
 13
3.4425
 23
-0.95
 33
0.0
  0
SOLID
  5
3A7
100
AcDbEntity
  8
SOLDERMASK_PADS_TOP
100
AcDbTrace
 10
3.7275
 20
-3.45
 30
0.0
 11
4.0775
 21
-3.45
 31
0.0
 12
3.7275
 22
-0.95
 32
0.0
 13
4.0775
 23
-0.95
 33
0.0
  0
SOLID
  5
3A8
100
AcDbEntity
  8
SOLDERMASK_PADS_TOP
100
AcDbTrace
 10
4.3625
 20
-3.45
 30
0.0
 11
4.7125
 21
-3.45
 31
0.0
 12
4.3625
 22
-0.95
 32
0.0
 13
4.7125
 23
-0.95
 33
0.0
  0
SOLID
  5
3A9
100
AcDbEntity
  8
SOLDERMASK_PADS_TOP
100
AcDbTrace
 10
4.9975
 20
-3.45
 30
0.0
 11
5.3475
 21
-3.45
 31
0.0
 12
4.9975
 22
-0.95
 32
0.0
 13
5.3475
 23
-0.95
 33
0.0
  0
SOLID
  5
3AA
100
AcDbEntity
  8
SOLDERMASK_PADS_TOP
100
AcDbTrace
 10
5.6325
 20
-3.45
 30
0.0
 11
5.9825
 21
-3.45
 31
0.0
 12
5.6325
 22
-0.95
 32
0.0
 13
5.9825
 23
-0.95
 33
0.0
  0
SOLID
  5
3AB
100
AcDbEntity
  8
SOLDERMASK_PADS_TOP
100
AcDbTrace
 10
6.2675
 20
-3.45
 30
0.0
 11
6.6175
 21
-3.45
 31
0.0
 12
6.2675
 22
-0.95
 32
0.0
 13
6.6175
 23
-0.95
 33
0.0
  0
SOLID
  5
3AC
100
AcDbEntity
  8
SOLDERMASK_PADS_TOP
100
AcDbTrace
 10
6.9025
 20
-3.45
 30
0.0
 11
7.2525
 21
-3.45
 31
0.0
 12
6.9025
 22
-0.95
 32
0.0
 13
7.2525
 23
-0.95
 33
0.0
  0
SOLID
  5
3AD
100
AcDbEntity
  8
SOLDERMASK_PADS_TOP
100
AcDbTrace
 10
7.5375
 20
-3.45
 30
0.0
 11
7.8875
 21
-3.45
 31
0.0
 12
7.5375
 22
-0.95
 32
0.0
 13
7.8875
 23
-0.95
 33
0.0
  0
SOLID
  5
3AE
100
AcDbEntity
  8
SOLDERMASK_PADS_TOP
100
AcDbTrace
 10
8.1725
 20
-3.45
 30
0.0
 11
8.5225
 21
-3.45
 31
0.0
 12
8.1725
 22
-0.95
 32
0.0
 13
8.5225
 23
-0.95
 33
0.0
  0
SOLID
  5
3AF
100
AcDbEntity
  8
SOLDERMASK_PADS_TOP
100
AcDbTrace
 10
8.8075
 20
-3.45
 30
0.0
 11
9.1575
 21
-3.45
 31
0.0
 12
8.8075
 22
-0.95
 32
0.0
 13
9.1575
 23
-0.95
 33
0.0
  0
SOLID
  5
3B0
100
AcDbEntity
  8
SOLDERMASK_PADS_TOP
100
AcDbTrace
 10
9.4425
 20
-3.45
 30
0.0
 11
9.7925
 21
-3.45
 31
0.0
 12
9.4425
 22
-0.95
 32
0.0
 13
9.7925
 23
-0.95
 33
0.0
  0
SOLID
  5
3B1
100
AcDbEntity
  8
SOLDERMASK_PADS_TOP
100
AcDbTrace
 10
10.0775
 20
-3.45
 30
0.0
 11
10.4275
 21
-3.45
 31
0.0
 12
10.0775
 22
-0.95
 32
0.0
 13
10.4275
 23
-0.95
 33
0.0
  0
SOLID
  5
3B2
100
AcDbEntity
  8
SOLDERMASK_PADS_TOP
100
AcDbTrace
 10
10.7125
 20
-3.45
 30
0.0
 11
11.0625
 21
-3.45
 31
0.0
 12
10.7125
 22
-0.95
 32
0.0
 13
11.0625
 23
-0.95
 33
0.0
  0
SOLID
  5
3B3
100
AcDbEntity
  8
SOLDERMASK_PADS_TOP
100
AcDbTrace
 10
11.3475
 20
-3.45
 30
0.0
 11
11.6975
 21
-3.45
 31
0.0
 12
11.3475
 22
-0.95
 32
0.0
 13
11.6975
 23
-0.95
 33
0.0
  0
SOLID
  5
3B4
100
AcDbEntity
  8
SOLDERMASK_PADS_TOP
100
AcDbTrace
 10
11.9825
 20
-3.45
 30
0.0
 11
12.3325
 21
-3.45
 31
0.0
 12
11.9825
 22
-0.95
 32
0.0
 13
12.3325
 23
-0.95
 33
0.0
  0
SOLID
  5
3B5
100
AcDbEntity
  8
SOLDERMASK_PADS_TOP
100
AcDbTrace
 10
12.6175
 20
-3.45
 30
0.0
 11
12.9675
 21
-3.45
 31
0.0
 12
12.6175
 22
-0.95
 32
0.0
 13
12.9675
 23
-0.95
 33
0.0
  0
SOLID
  5
3B6
100
AcDbEntity
  8
SOLDERMASK_PADS_TOP
100
AcDbTrace
 10
13.2525
 20
-3.45
 30
0.0
 11
13.6025
 21
-3.45
 31
0.0
 12
13.2525
 22
-0.95
 32
0.0
 13
13.6025
 23
-0.95
 33
0.0
  0
SOLID
  5
3B7
100
AcDbEntity
  8
SOLDERMASK_PADS_TOP
100
AcDbTrace
 10
13.8875
 20
-3.45
 30
0.0
 11
14.2375
 21
-3.45
 31
0.0
 12
13.8875
 22
-0.95
 32
0.0
 13
14.2375
 23
-0.95
 33
0.0
  0
SOLID
  5
3B8
100
AcDbEntity
  8
SOLDERMASK_PADS_TOP
100
AcDbTrace
 10
14.5225
 20
-3.45
 30
0.0
 11
14.8725
 21
-3.45
 31
0.0
 12
14.5225
 22
-0.95
 32
0.0
 13
14.8725
 23
-0.95
 33
0.0
  0
SOLID
  5
3B9
100
AcDbEntity
  8
SOLDERMASK_PADS_TOP
100
AcDbTrace
 10
15.1575
 20
-3.45
 30
0.0
 11
15.5075
 21
-3.45
 31
0.0
 12
15.1575
 22
-0.95
 32
0.0
 13
15.5075
 23
-0.95
 33
0.0
  0
SOLID
  5
3BA
100
AcDbEntity
  8
SOLDERMASK_PADS_TOP
100
AcDbTrace
 10
15.7925
 20
-3.45
 30
0.0
 11
16.1425
 21
-3.45
 31
0.0
 12
15.7925
 22
-0.95
 32
0.0
 13
16.1425
 23
-0.95
 33
0.0
  0
SOLID
  5
3BB
100
AcDbEntity
  8
SOLDERMASK_PADS_TOP
100
AcDbTrace
 10
16.4275
 20
-3.45
 30
0.0
 11
16.7775
 21
-3.45
 31
0.0
 12
16.4275
 22
-0.95
 32
0.0
 13
16.7775
 23
-0.95
 33
0.0
  0
SOLID
  5
3BC
100
AcDbEntity
  8
SOLDERMASK_PADS_TOP
100
AcDbTrace
 10
17.0625
 20
-3.45
 30
0.0
 11
17.4125
 21
-3.45
 31
0.0
 12
17.0625
 22
-0.95
 32
0.0
 13
17.4125
 23
-0.95
 33
0.0
  0
SOLID
  5
3BD
100
AcDbEntity
  8
SOLDERMASK_PADS_TOP
100
AcDbTrace
 10
17.6975
 20
-3.45
 30
0.0
 11
18.0475
 21
-3.45
 31
0.0
 12
17.6975
 22
-0.95
 32
0.0
 13
18.0475
 23
-0.95
 33
0.0
  0
SOLID
  5
3BE
100
AcDbEntity
  8
SOLDERMASK_PADS_TOP
100
AcDbTrace
 10
18.3325
 20
-3.45
 30
0.0
 11
18.6825
 21
-3.45
 31
0.0
 12
18.3325
 22
-0.95
 32
0.0
 13
18.6825
 23
-0.95
 33
0.0
  0
SOLID
  5
3BF
100
AcDbEntity
  8
SOLDERMASK_PADS_TOP
100
AcDbTrace
 10
18.9675
 20
-3.45
 30
0.0
 11
19.3175
 21
-3.45
 31
0.0
 12
18.9675
 22
-0.95
 32
0.0
 13
19.3175
 23
-0.95
 33
0.0
  0
SOLID
  5
3C0
100
AcDbEntity
  8
SOLDERMASK_PADS_TOP
100
AcDbTrace
 10
19.6025
 20
-3.45
 30
0.0
 11
19.9525
 21
-3.45
 31
0.0
 12
19.6025
 22
-0.95
 32
0.0
 13
19.9525
 23
-0.95
 33
0.0
  0
SOLID
  5
3C1
100
AcDbEntity
  8
SOLDERMASK_PADS_TOP
100
AcDbTrace
 10
20.2375
 20
-3.45
 30
0.0
 11
20.5875
 21
-3.45
 31
0.0
 12
20.2375
 22
-0.95
 32
0.0
 13
20.5875
 23
-0.95
 33
0.0
  0
SOLID
  5
3C2
100
AcDbEntity
  8
SOLDERMASK_PADS_TOP
100
AcDbTrace
 10
20.8725
 20
-3.45
 30
0.0
 11
21.2225
 21
-3.45
 31
0.0
 12
20.8725
 22
-0.95
 32
0.0
 13
21.2225
 23
-0.95
 33
0.0
  0
SOLID
  5
3C3
100
AcDbEntity
  8
SOLDERMASK_PADS_TOP
100
AcDbTrace
 10
21.5075
 20
-3.45
 30
0.0
 11
21.8575
 21
-3.45
 31
0.0
 12
21.5075
 22
-0.95
 32
0.0
 13
21.8575
 23
-0.95
 33
0.0
  0
SOLID
  5
3C4
100
AcDbEntity
  8
SOLDERMASK_PADS_TOP
100
AcDbTrace
 10
22.1425
 20
-3.45
 30
0.0
 11
22.4925
 21
-3.45
 31
0.0
 12
22.1425
 22
-0.95
 32
0.0
 13
22.4925
 23
-0.95
 33
0.0
  0
SOLID
  5
3C5
100
AcDbEntity
  8
SOLDERMASK_PADS_TOP
100
AcDbTrace
 10
22.7775
 20
-3.45
 30
0.0
 11
23.1275
 21
-3.45
 31
0.0
 12
22.7775
 22
-0.95
 32
0.0
 13
23.1275
 23
-0.95
 33
0.0
  0
SOLID
  5
3C6
100
AcDbEntity
  8
SOLDERMASK_PADS_TOP
100
AcDbTrace
 10
23.4125
 20
-3.45
 30
0.0
 11
23.7625
 21
-3.45
 31
0.0
 12
23.4125
 22
-0.95
 32
0.0
 13
23.7625
 23
-0.95
 33
0.0
  0
SOLID
  5
3C7
100
AcDbEntity
  8
SOLDERMASK_PADS_TOP
100
AcDbTrace
 10
24.0475
 20
-3.45
 30
0.0
 11
24.3975
 21
-3.45
 31
0.0
 12
24.0475
 22
-0.95
 32
0.0
 13
24.3975
 23
-0.95
 33
0.0
  0
SOLID
  5
3C8
100
AcDbEntity
  8
SOLDERMASK_PADS_TOP
100
AcDbTrace
 10
24.6825
 20
-3.45
 30
0.0
 11
25.0325
 21
-3.45
 31
0.0
 12
24.6825
 22
-0.95
 32
0.0
 13
25.0325
 23
-0.95
 33
0.0
  0
SOLID
  5
3C9
100
AcDbEntity
  8
SOLDERMASK_PADS_TOP
100
AcDbTrace
 10
25.3175
 20
-3.45
 30
0.0
 11
25.6675
 21
-3.45
 31
0.0
 12
25.3175
 22
-0.95
 32
0.0
 13
25.6675
 23
-0.95
 33
0.0
  0
SOLID
  5
3CA
100
AcDbEntity
  8
SOLDERMASK_PADS_TOP
100
AcDbTrace
 10
25.9525
 20
-3.45
 30
0.0
 11
26.3025
 21
-3.45
 31
0.0
 12
25.9525
 22
-0.95
 32
0.0
 13
26.3025
 23
-0.95
 33
0.0
  0
SOLID
  5
3CB
100
AcDbEntity
  8
SOLDERMASK_PADS_TOP
100
AcDbTrace
 10
26.5875
 20
-3.45
 30
0.0
 11
26.9375
 21
-3.45
 31
0.0
 12
26.5875
 22
-0.95
 32
0.0
 13
26.9375
 23
-0.95
 33
0.0
  0
SOLID
  5
3CC
100
AcDbEntity
  8
SOLDERMASK_PADS_TOP
100
AcDbTrace
 10
27.2225
 20
-3.45
 30
0.0
 11
27.5725
 21
-3.45
 31
0.0
 12
27.2225
 22
-0.95
 32
0.0
 13
27.5725
 23
-0.95
 33
0.0
  0
SOLID
  5
3CD
100
AcDbEntity
  8
SOLDERMASK_PADS_TOP
100
AcDbTrace
 10
27.8575
 20
-3.45
 30
0.0
 11
28.2075
 21
-3.45
 31
0.0
 12
27.8575
 22
-0.95
 32
0.0
 13
28.2075
 23
-0.95
 33
0.0
  0
SOLID
  5
3CE
100
AcDbEntity
  8
SOLDERMASK_PADS_TOP
100
AcDbTrace
 10
28.4925
 20
-3.45
 30
0.0
 11
28.8425
 21
-3.45
 31
0.0
 12
28.4925
 22
-0.95
 32
0.0
 13
28.8425
 23
-0.95
 33
0.0
  0
SOLID
  5
3CF
100
AcDbEntity
  8
SOLDERMASK_PADS_TOP
100
AcDbTrace
 10
29.1275
 20
-3.45
 30
0.0
 11
29.4775
 21
-3.45
 31
0.0
 12
29.1275
 22
-0.95
 32
0.0
 13
29.4775
 23
-0.95
 33
0.0
  0
SOLID
  5
3D0
100
AcDbEntity
  8
SOLDERMASK_PADS_TOP
100
AcDbTrace
 10
29.7625
 20
-3.45
 30
0.0
 11
30.1125
 21
-3.45
 31
0.0
 12
29.7625
 22
-0.95
 32
0.0
 13
30.1125
 23
-0.95
 33
0.0
  0
SOLID
  5
3D1
100
AcDbEntity
  8
SOLDERMASK_PADS_TOP
100
AcDbTrace
 10
30.3975
 20
-3.45
 30
0.0
 11
30.7475
 21
-3.45
 31
0.0
 12
30.3975
 22
-0.95
 32
0.0
 13
30.7475
 23
-0.95
 33
0.0
  0
SOLID
  5
3D2
100
AcDbEntity
  8
SOLDERMASK_PADS_TOP
100
AcDbTrace
 10
31.0325
 20
-3.45
 30
0.0
 11
31.3825
 21
-3.45
 31
0.0
 12
31.0325
 22
-0.95
 32
0.0
 13
31.3825
 23
-0.95
 33
0.0
  0
SOLID
  5
3D3
100
AcDbEntity
  8
SOLDERMASK_PADS_TOP
100
AcDbTrace
 10
31.6675
 20
-3.45
 30
0.0
 11
32.0175
 21
-3.45
 31
0.0
 12
31.6675
 22
-0.95
 32
0.0
 13
32.0175
 23
-0.95
 33
0.0
  0
SOLID
  5
3D4
100
AcDbEntity
  8
SOLDERMASK_PADS_TOP
100
AcDbTrace
 10
32.3025
 20
-3.45
 30
0.0
 11
32.6525
 21
-3.45
 31
0.0
 12
32.3025
 22
-0.95
 32
0.0
 13
32.6525
 23
-0.95
 33
0.0
  0
SOLID
  5
3D5
100
AcDbEntity
  8
SOLDERMASK_PADS_TOP
100
AcDbTrace
 10
32.9375
 20
-3.45
 30
0.0
 11
33.2875
 21
-3.45
 31
0.0
 12
32.9375
 22
-0.95
 32
0.0
 13
33.2875
 23
-0.95
 33
0.0
  0
SOLID
  5
3D6
100
AcDbEntity
  8
SOLDERMASK_PADS_TOP
100
AcDbTrace
 10
33.5725
 20
-3.45
 30
0.0
 11
33.9225
 21
-3.45
 31
0.0
 12
33.5725
 22
-0.95
 32
0.0
 13
33.9225
 23
-0.95
 33
0.0
  0
SOLID
  5
3D7
100
AcDbEntity
  8
SOLDERMASK_PADS_TOP
100
AcDbTrace
 10
34.2075
 20
-3.45
 30
0.0
 11
34.5575
 21
-3.45
 31
0.0
 12
34.2075
 22
-0.95
 32
0.0
 13
34.5575
 23
-0.95
 33
0.0
  0
SOLID
  5
3D8
100
AcDbEntity
  8
SOLDERMASK_PADS_TOP
100
AcDbTrace
 10
34.8425
 20
-3.45
 30
0.0
 11
35.1925
 21
-3.45
 31
0.0
 12
34.8425
 22
-0.95
 32
0.0
 13
35.1925
 23
-0.95
 33
0.0
  0
SOLID
  5
3D9
100
AcDbEntity
  8
SOLDERMASK_PADS_TOP
100
AcDbTrace
 10
35.4775
 20
-3.45
 30
0.0
 11
35.8275
 21
-3.45
 31
0.0
 12
35.4775
 22
-0.95
 32
0.0
 13
35.8275
 23
-0.95
 33
0.0
  0
SOLID
  5
3DA
100
AcDbEntity
  8
SOLDERMASK_PADS_TOP
100
AcDbTrace
 10
36.1125
 20
-3.45
 30
0.0
 11
36.4625
 21
-3.45
 31
0.0
 12
36.1125
 22
-0.95
 32
0.0
 13
36.4625
 23
-0.95
 33
0.0
  0
SOLID
  5
3DB
100
AcDbEntity
  8
SOLDERMASK_PADS_TOP
100
AcDbTrace
 10
36.7475
 20
-3.45
 30
0.0
 11
37.0975
 21
-3.45
 31
0.0
 12
36.7475
 22
-0.95
 32
0.0
 13
37.0975
 23
-0.95
 33
0.0
  0
SOLID
  5
3DC
100
AcDbEntity
  8
SOLDERMASK_PADS_TOP
100
AcDbTrace
 10
37.3825
 20
-3.45
 30
0.0
 11
37.7325
 21
-3.45
 31
0.0
 12
37.3825
 22
-0.95
 32
0.0
 13
37.7325
 23
-0.95
 33
0.0
  0
SOLID
  5
3DD
100
AcDbEntity
  8
SOLDERMASK_PADS_TOP
100
AcDbTrace
 10
38.0175
 20
-3.45
 30
0.0
 11
38.3675
 21
-3.45
 31
0.0
 12
38.0175
 22
-0.95
 32
0.0
 13
38.3675
 23
-0.95
 33
0.0
  0
SOLID
  5
3DE
100
AcDbEntity
  8
SOLDERMASK_PADS_TOP
100
AcDbTrace
 10
38.6525
 20
-3.45
 30
0.0
 11
39.0025
 21
-3.45
 31
0.0
 12
38.6525
 22
-0.95
 32
0.0
 13
39.0025
 23
-0.95
 33
0.0
  0
SOLID
  5
3DF
100
AcDbEntity
  8
SOLDERMASK_PADS_TOP
100
AcDbTrace
 10
39.2875
 20
-3.45
 30
0.0
 11
39.6375
 21
-3.45
 31
0.0
 12
39.2875
 22
-0.95
 32
0.0
 13
39.6375
 23
-0.95
 33
0.0
  0
SOLID
  5
3E0
100
AcDbEntity
  8
SOLDERMASK_PADS_TOP
100
AcDbTrace
 10
39.9225
 20
-3.45
 30
0.0
 11
40.2725
 21
-3.45
 31
0.0
 12
39.9225
 22
-0.95
 32
0.0
 13
40.2725
 23
-0.95
 33
0.0
  0
SOLID
  5
3E1
100
AcDbEntity
  8
SOLDERMASK_PADS_TOP
100
AcDbTrace
 10
40.5575
 20
-3.45
 30
0.0
 11
40.9075
 21
-3.45
 31
0.0
 12
40.5575
 22
-0.95
 32
0.0
 13
40.9075
 23
-0.95
 33
0.0
  0
SOLID
  5
3E2
100
AcDbEntity
  8
SOLDERMASK_PADS_TOP
100
AcDbTrace
 10
41.1925
 20
-3.45
 30
0.0
 11
41.5425
 21
-3.45
 31
0.0
 12
41.1925
 22
-0.95
 32
0.0
 13
41.5425
 23
-0.95
 33
0.0
  0
SOLID
  5
3E3
100
AcDbEntity
  8
SOLDERMASK_PADS_TOP
100
AcDbTrace
 10
41.8275
 20
-3.45
 30
0.0
 11
42.1775
 21
-3.45
 31
0.0
 12
41.8275
 22
-0.95
 32
0.0
 13
42.1775
 23
-0.95
 33
0.0
  0
SOLID
  5
3E4
100
AcDbEntity
  8
SOLDERMASK_PADS_TOP
100
AcDbTrace
 10
42.4625
 20
-3.45
 30
0.0
 11
42.8125
 21
-3.45
 31
0.0
 12
42.4625
 22
-0.95
 32
0.0
 13
42.8125
 23
-0.95
 33
0.0
  0
SOLID
  5
3E5
100
AcDbEntity
  8
SOLDERMASK_PADS_TOP
100
AcDbTrace
 10
43.0975
 20
-3.45
 30
0.0
 11
43.4475
 21
-3.45
 31
0.0
 12
43.0975
 22
-0.95
 32
0.0
 13
43.4475
 23
-0.95
 33
0.0
  0
SOLID
  5
3E6
100
AcDbEntity
  8
SOLDERMASK_PADS_TOP
100
AcDbTrace
 10
43.7325
 20
-3.45
 30
0.0
 11
44.0825
 21
-3.45
 31
0.0
 12
43.7325
 22
-0.95
 32
0.0
 13
44.0825
 23
-0.95
 33
0.0
  0
SOLID
  5
3E7
100
AcDbEntity
  8
SOLDERMASK_PADS_TOP
100
AcDbTrace
 10
44.3675
 20
-3.45
 30
0.0
 11
44.7175
 21
-3.45
 31
0.0
 12
44.3675
 22
-0.95
 32
0.0
 13
44.7175
 23
-0.95
 33
0.0
  0
SOLID
  5
3E8
100
AcDbEntity
  8
SOLDERMASK_PADS_TOP
100
AcDbTrace
 10
45.0025
 20
-3.45
 30
0.0
 11
45.3525
 21
-3.45
 31
0.0
 12
45.0025
 22
-0.95
 32
0.0
 13
45.3525
 23
-0.95
 33
0.0
  0
SOLID
  5
3E9
100
AcDbEntity
  8
SOLDERMASK_PADS_TOP
100
AcDbTrace
 10
45.6375
 20
-3.45
 30
0.0
 11
45.9875
 21
-3.45
 31
0.0
 12
45.6375
 22
-0.95
 32
0.0
 13
45.9875
 23
-0.95
 33
0.0
  0
SOLID
  5
3EA
100
AcDbEntity
  8
SOLDERMASK_PADS_TOP
100
AcDbTrace
 10
46.2725
 20
-3.45
 30
0.0
 11
46.6225
 21
-3.45
 31
0.0
 12
46.2725
 22
-0.95
 32
0.0
 13
46.6225
 23
-0.95
 33
0.0
  0
SOLID
  5
3EB
100
AcDbEntity
  8
SOLDERMASK_PADS_TOP
100
AcDbTrace
 10
46.9075
 20
-3.45
 30
0.0
 11
47.2575
 21
-3.45
 31
0.0
 12
46.9075
 22
-0.95
 32
0.0
 13
47.2575
 23
-0.95
 33
0.0
  0
SOLID
  5
3EC
100
AcDbEntity
  8
SOLDERMASK_PADS_TOP
100
AcDbTrace
 10
47.5425
 20
-3.45
 30
0.0
 11
47.8925
 21
-3.45
 31
0.0
 12
47.5425
 22
-0.95
 32
0.0
 13
47.8925
 23
-0.95
 33
0.0
  0
SOLID
  5
3ED
100
AcDbEntity
  8
SOLDERMASK_PADS_TOP
100
AcDbTrace
 10
48.1775
 20
-3.45
 30
0.0
 11
48.5275
 21
-3.45
 31
0.0
 12
48.1775
 22
-0.95
 32
0.0
 13
48.5275
 23
-0.95
 33
0.0
  0
SOLID
  5
3EE
100
AcDbEntity
  8
SOLDERMASK_PADS_TOP
100
AcDbTrace
 10
48.8125
 20
-3.45
 30
0.0
 11
49.1625
 21
-3.45
 31
0.0
 12
48.8125
 22
-0.95
 32
0.0
 13
49.1625
 23
-0.95
 33
0.0
  0
SOLID
  5
3EF
100
AcDbEntity
  8
SOLDERMASK_PADS_TOP
100
AcDbTrace
 10
49.4475
 20
-3.45
 30
0.0
 11
49.7975
 21
-3.45
 31
0.0
 12
49.4475
 22
-0.95
 32
0.0
 13
49.7975
 23
-0.95
 33
0.0
  0
SOLID
  5
3F0
100
AcDbEntity
  8
SOLDERMASK_PADS_TOP
100
AcDbTrace
 10
50.0825
 20
-3.45
 30
0.0
 11
50.4325
 21
-3.45
 31
0.0
 12
50.0825
 22
-0.95
 32
0.0
 13
50.4325
 23
-0.95
 33
0.0
  0
SOLID
  5
3F1
100
AcDbEntity
  8
SOLDERMASK_PADS_TOP
100
AcDbTrace
 10
50.7175
 20
-3.45
 30
0.0
 11
51.0675
 21
-3.45
 31
0.0
 12
50.7175
 22
-0.95
 32
0.0
 13
51.0675
 23
-0.95
 33
0.0
  0
SOLID
  5
3F2
100
AcDbEntity
  8
SOLDERMASK_PADS_TOP
100
AcDbTrace
 10
51.3525
 20
-3.45
 30
0.0
 11
51.7025
 21
-3.45
 31
0.0
 12
51.3525
 22
-0.95
 32
0.0
 13
51.7025
 23
-0.95
 33
0.0
  0
SOLID
  5
3F3
100
AcDbEntity
  8
SOLDERMASK_PADS_TOP
100
AcDbTrace
 10
51.9875
 20
-3.45
 30
0.0
 11
52.3375
 21
-3.45
 31
0.0
 12
51.9875
 22
-0.95
 32
0.0
 13
52.3375
 23
-0.95
 33
0.0
  0
SOLID
  5
3F4
100
AcDbEntity
  8
SOLDERMASK_PADS_TOP
100
AcDbTrace
 10
52.6225
 20
-3.45
 30
0.0
 11
52.9725
 21
-3.45
 31
0.0
 12
52.6225
 22
-0.95
 32
0.0
 13
52.9725
 23
-0.95
 33
0.0
  0
SOLID
  5
3F5
100
AcDbEntity
  8
SOLDERMASK_PADS_TOP
100
AcDbTrace
 10
53.2575
 20
-3.45
 30
0.0
 11
53.6075
 21
-3.45
 31
0.0
 12
53.2575
 22
-0.95
 32
0.0
 13
53.6075
 23
-0.95
 33
0.0
  0
SOLID
  5
3F6
100
AcDbEntity
  8
SOLDERMASK_PADS_TOP
100
AcDbTrace
 10
3.0925
 20
0.95
 30
0.0
 11
3.4425
 21
0.95
 31
0.0
 12
3.0925
 22
3.45
 32
0.0
 13
3.4425
 23
3.45
 33
0.0
  0
SOLID
  5
3F7
100
AcDbEntity
  8
SOLDERMASK_PADS_TOP
100
AcDbTrace
 10
3.7275
 20
0.95
 30
0.0
 11
4.0775
 21
0.95
 31
0.0
 12
3.7275
 22
3.45
 32
0.0
 13
4.0775
 23
3.45
 33
0.0
  0
SOLID
  5
3F8
100
AcDbEntity
  8
SOLDERMASK_PADS_TOP
100
AcDbTrace
 10
4.3625
 20
0.95
 30
0.0
 11
4.7125
 21
0.95
 31
0.0
 12
4.3625
 22
3.45
 32
0.0
 13
4.7125
 23
3.45
 33
0.0
  0
SOLID
  5
3F9
100
AcDbEntity
  8
SOLDERMASK_PADS_TOP
100
AcDbTrace
 10
4.9975
 20
0.95
 30
0.0
 11
5.3475
 21
0.95
 31
0.0
 12
4.9975
 22
3.45
 32
0.0
 13
5.3475
 23
3.45
 33
0.0
  0
SOLID
  5
3FA
100
AcDbEntity
  8
SOLDERMASK_PADS_TOP
100
AcDbTrace
 10
5.6325
 20
0.95
 30
0.0
 11
5.9825
 21
0.95
 31
0.0
 12
5.6325
 22
3.45
 32
0.0
 13
5.9825
 23
3.45
 33
0.0
  0
SOLID
  5
3FB
100
AcDbEntity
  8
SOLDERMASK_PADS_TOP
100
AcDbTrace
 10
6.2675
 20
0.95
 30
0.0
 11
6.6175
 21
0.95
 31
0.0
 12
6.2675
 22
3.45
 32
0.0
 13
6.6175
 23
3.45
 33
0.0
  0
SOLID
  5
3FC
100
AcDbEntity
  8
SOLDERMASK_PADS_TOP
100
AcDbTrace
 10
6.9025
 20
0.95
 30
0.0
 11
7.2525
 21
0.95
 31
0.0
 12
6.9025
 22
3.45
 32
0.0
 13
7.2525
 23
3.45
 33
0.0
  0
SOLID
  5
3FD
100
AcDbEntity
  8
SOLDERMASK_PADS_TOP
100
AcDbTrace
 10
7.5375
 20
0.95
 30
0.0
 11
7.8875
 21
0.95
 31
0.0
 12
7.5375
 22
3.45
 32
0.0
 13
7.8875
 23
3.45
 33
0.0
  0
SOLID
  5
3FE
100
AcDbEntity
  8
SOLDERMASK_PADS_TOP
100
AcDbTrace
 10
8.1725
 20
0.95
 30
0.0
 11
8.5225
 21
0.95
 31
0.0
 12
8.1725
 22
3.45
 32
0.0
 13
8.5225
 23
3.45
 33
0.0
  0
SOLID
  5
3FF
100
AcDbEntity
  8
SOLDERMASK_PADS_TOP
100
AcDbTrace
 10
8.8075
 20
0.95
 30
0.0
 11
9.1575
 21
0.95
 31
0.0
 12
8.8075
 22
3.45
 32
0.0
 13
9.1575
 23
3.45
 33
0.0
  0
SOLID
  5
400
100
AcDbEntity
  8
SOLDERMASK_PADS_TOP
100
AcDbTrace
 10
9.4425
 20
0.95
 30
0.0
 11
9.7925
 21
0.95
 31
0.0
 12
9.4425
 22
3.45
 32
0.0
 13
9.7925
 23
3.45
 33
0.0
  0
SOLID
  5
401
100
AcDbEntity
  8
SOLDERMASK_PADS_TOP
100
AcDbTrace
 10
10.0775
 20
0.95
 30
0.0
 11
10.4275
 21
0.95
 31
0.0
 12
10.0775
 22
3.45
 32
0.0
 13
10.4275
 23
3.45
 33
0.0
  0
SOLID
  5
402
100
AcDbEntity
  8
SOLDERMASK_PADS_TOP
100
AcDbTrace
 10
10.7125
 20
0.95
 30
0.0
 11
11.0625
 21
0.95
 31
0.0
 12
10.7125
 22
3.45
 32
0.0
 13
11.0625
 23
3.45
 33
0.0
  0
SOLID
  5
403
100
AcDbEntity
  8
SOLDERMASK_PADS_TOP
100
AcDbTrace
 10
11.3475
 20
0.95
 30
0.0
 11
11.6975
 21
0.95
 31
0.0
 12
11.3475
 22
3.45
 32
0.0
 13
11.6975
 23
3.45
 33
0.0
  0
SOLID
  5
404
100
AcDbEntity
  8
SOLDERMASK_PADS_TOP
100
AcDbTrace
 10
11.9825
 20
0.95
 30
0.0
 11
12.3325
 21
0.95
 31
0.0
 12
11.9825
 22
3.45
 32
0.0
 13
12.3325
 23
3.45
 33
0.0
  0
SOLID
  5
405
100
AcDbEntity
  8
SOLDERMASK_PADS_TOP
100
AcDbTrace
 10
12.6175
 20
0.95
 30
0.0
 11
12.9675
 21
0.95
 31
0.0
 12
12.6175
 22
3.45
 32
0.0
 13
12.9675
 23
3.45
 33
0.0
  0
SOLID
  5
406
100
AcDbEntity
  8
SOLDERMASK_PADS_TOP
100
AcDbTrace
 10
13.2525
 20
0.95
 30
0.0
 11
13.6025
 21
0.95
 31
0.0
 12
13.2525
 22
3.45
 32
0.0
 13
13.6025
 23
3.45
 33
0.0
  0
SOLID
  5
407
100
AcDbEntity
  8
SOLDERMASK_PADS_TOP
100
AcDbTrace
 10
13.8875
 20
0.95
 30
0.0
 11
14.2375
 21
0.95
 31
0.0
 12
13.8875
 22
3.45
 32
0.0
 13
14.2375
 23
3.45
 33
0.0
  0
SOLID
  5
408
100
AcDbEntity
  8
SOLDERMASK_PADS_TOP
100
AcDbTrace
 10
14.5225
 20
0.95
 30
0.0
 11
14.8725
 21
0.95
 31
0.0
 12
14.5225
 22
3.45
 32
0.0
 13
14.8725
 23
3.45
 33
0.0
  0
SOLID
  5
409
100
AcDbEntity
  8
SOLDERMASK_PADS_TOP
100
AcDbTrace
 10
15.1575
 20
0.95
 30
0.0
 11
15.5075
 21
0.95
 31
0.0
 12
15.1575
 22
3.45
 32
0.0
 13
15.5075
 23
3.45
 33
0.0
  0
SOLID
  5
40A
100
AcDbEntity
  8
SOLDERMASK_PADS_TOP
100
AcDbTrace
 10
15.7925
 20
0.95
 30
0.0
 11
16.1425
 21
0.95
 31
0.0
 12
15.7925
 22
3.45
 32
0.0
 13
16.1425
 23
3.45
 33
0.0
  0
SOLID
  5
40B
100
AcDbEntity
  8
SOLDERMASK_PADS_TOP
100
AcDbTrace
 10
16.4275
 20
0.95
 30
0.0
 11
16.7775
 21
0.95
 31
0.0
 12
16.4275
 22
3.45
 32
0.0
 13
16.7775
 23
3.45
 33
0.0
  0
SOLID
  5
40C
100
AcDbEntity
  8
SOLDERMASK_PADS_TOP
100
AcDbTrace
 10
17.0625
 20
0.95
 30
0.0
 11
17.4125
 21
0.95
 31
0.0
 12
17.0625
 22
3.45
 32
0.0
 13
17.4125
 23
3.45
 33
0.0
  0
SOLID
  5
40D
100
AcDbEntity
  8
SOLDERMASK_PADS_TOP
100
AcDbTrace
 10
17.6975
 20
0.95
 30
0.0
 11
18.0475
 21
0.95
 31
0.0
 12
17.6975
 22
3.45
 32
0.0
 13
18.0475
 23
3.45
 33
0.0
  0
SOLID
  5
40E
100
AcDbEntity
  8
SOLDERMASK_PADS_TOP
100
AcDbTrace
 10
18.3325
 20
0.95
 30
0.0
 11
18.6825
 21
0.95
 31
0.0
 12
18.3325
 22
3.45
 32
0.0
 13
18.6825
 23
3.45
 33
0.0
  0
SOLID
  5
40F
100
AcDbEntity
  8
SOLDERMASK_PADS_TOP
100
AcDbTrace
 10
18.9675
 20
0.95
 30
0.0
 11
19.3175
 21
0.95
 31
0.0
 12
18.9675
 22
3.45
 32
0.0
 13
19.3175
 23
3.45
 33
0.0
  0
SOLID
  5
410
100
AcDbEntity
  8
SOLDERMASK_PADS_TOP
100
AcDbTrace
 10
19.6025
 20
0.95
 30
0.0
 11
19.9525
 21
0.95
 31
0.0
 12
19.6025
 22
3.45
 32
0.0
 13
19.9525
 23
3.45
 33
0.0
  0
SOLID
  5
411
100
AcDbEntity
  8
SOLDERMASK_PADS_TOP
100
AcDbTrace
 10
20.2375
 20
0.95
 30
0.0
 11
20.5875
 21
0.95
 31
0.0
 12
20.2375
 22
3.45
 32
0.0
 13
20.5875
 23
3.45
 33
0.0
  0
SOLID
  5
412
100
AcDbEntity
  8
SOLDERMASK_PADS_TOP
100
AcDbTrace
 10
20.8725
 20
0.95
 30
0.0
 11
21.2225
 21
0.95
 31
0.0
 12
20.8725
 22
3.45
 32
0.0
 13
21.2225
 23
3.45
 33
0.0
  0
SOLID
  5
413
100
AcDbEntity
  8
SOLDERMASK_PADS_TOP
100
AcDbTrace
 10
21.5075
 20
0.95
 30
0.0
 11
21.8575
 21
0.95
 31
0.0
 12
21.5075
 22
3.45
 32
0.0
 13
21.8575
 23
3.45
 33
0.0
  0
SOLID
  5
414
100
AcDbEntity
  8
SOLDERMASK_PADS_TOP
100
AcDbTrace
 10
22.1425
 20
0.95
 30
0.0
 11
22.4925
 21
0.95
 31
0.0
 12
22.1425
 22
3.45
 32
0.0
 13
22.4925
 23
3.45
 33
0.0
  0
SOLID
  5
415
100
AcDbEntity
  8
SOLDERMASK_PADS_TOP
100
AcDbTrace
 10
22.7775
 20
0.95
 30
0.0
 11
23.1275
 21
0.95
 31
0.0
 12
22.7775
 22
3.45
 32
0.0
 13
23.1275
 23
3.45
 33
0.0
  0
SOLID
  5
416
100
AcDbEntity
  8
SOLDERMASK_PADS_TOP
100
AcDbTrace
 10
23.4125
 20
0.95
 30
0.0
 11
23.7625
 21
0.95
 31
0.0
 12
23.4125
 22
3.45
 32
0.0
 13
23.7625
 23
3.45
 33
0.0
  0
SOLID
  5
417
100
AcDbEntity
  8
SOLDERMASK_PADS_TOP
100
AcDbTrace
 10
24.0475
 20
0.95
 30
0.0
 11
24.3975
 21
0.95
 31
0.0
 12
24.0475
 22
3.45
 32
0.0
 13
24.3975
 23
3.45
 33
0.0
  0
SOLID
  5
418
100
AcDbEntity
  8
SOLDERMASK_PADS_TOP
100
AcDbTrace
 10
24.6825
 20
0.95
 30
0.0
 11
25.0325
 21
0.95
 31
0.0
 12
24.6825
 22
3.45
 32
0.0
 13
25.0325
 23
3.45
 33
0.0
  0
SOLID
  5
419
100
AcDbEntity
  8
SOLDERMASK_PADS_TOP
100
AcDbTrace
 10
25.3175
 20
0.95
 30
0.0
 11
25.6675
 21
0.95
 31
0.0
 12
25.3175
 22
3.45
 32
0.0
 13
25.6675
 23
3.45
 33
0.0
  0
SOLID
  5
41A
100
AcDbEntity
  8
SOLDERMASK_PADS_TOP
100
AcDbTrace
 10
25.9525
 20
0.95
 30
0.0
 11
26.3025
 21
0.95
 31
0.0
 12
25.9525
 22
3.45
 32
0.0
 13
26.3025
 23
3.45
 33
0.0
  0
SOLID
  5
41B
100
AcDbEntity
  8
SOLDERMASK_PADS_TOP
100
AcDbTrace
 10
26.5875
 20
0.95
 30
0.0
 11
26.9375
 21
0.95
 31
0.0
 12
26.5875
 22
3.45
 32
0.0
 13
26.9375
 23
3.45
 33
0.0
  0
SOLID
  5
41C
100
AcDbEntity
  8
SOLDERMASK_PADS_TOP
100
AcDbTrace
 10
27.2225
 20
0.95
 30
0.0
 11
27.5725
 21
0.95
 31
0.0
 12
27.2225
 22
3.45
 32
0.0
 13
27.5725
 23
3.45
 33
0.0
  0
SOLID
  5
41D
100
AcDbEntity
  8
SOLDERMASK_PADS_TOP
100
AcDbTrace
 10
27.8575
 20
0.95
 30
0.0
 11
28.2075
 21
0.95
 31
0.0
 12
27.8575
 22
3.45
 32
0.0
 13
28.2075
 23
3.45
 33
0.0
  0
SOLID
  5
41E
100
AcDbEntity
  8
SOLDERMASK_PADS_TOP
100
AcDbTrace
 10
28.4925
 20
0.95
 30
0.0
 11
28.8425
 21
0.95
 31
0.0
 12
28.4925
 22
3.45
 32
0.0
 13
28.8425
 23
3.45
 33
0.0
  0
SOLID
  5
41F
100
AcDbEntity
  8
SOLDERMASK_PADS_TOP
100
AcDbTrace
 10
29.1275
 20
0.95
 30
0.0
 11
29.4775
 21
0.95
 31
0.0
 12
29.1275
 22
3.45
 32
0.0
 13
29.4775
 23
3.45
 33
0.0
  0
SOLID
  5
420
100
AcDbEntity
  8
SOLDERMASK_PADS_TOP
100
AcDbTrace
 10
29.7625
 20
0.95
 30
0.0
 11
30.1125
 21
0.95
 31
0.0
 12
29.7625
 22
3.45
 32
0.0
 13
30.1125
 23
3.45
 33
0.0
  0
SOLID
  5
421
100
AcDbEntity
  8
SOLDERMASK_PADS_TOP
100
AcDbTrace
 10
30.3975
 20
0.95
 30
0.0
 11
30.7475
 21
0.95
 31
0.0
 12
30.3975
 22
3.45
 32
0.0
 13
30.7475
 23
3.45
 33
0.0
  0
SOLID
  5
422
100
AcDbEntity
  8
SOLDERMASK_PADS_TOP
100
AcDbTrace
 10
31.0325
 20
0.95
 30
0.0
 11
31.3825
 21
0.95
 31
0.0
 12
31.0325
 22
3.45
 32
0.0
 13
31.3825
 23
3.45
 33
0.0
  0
SOLID
  5
423
100
AcDbEntity
  8
SOLDERMASK_PADS_TOP
100
AcDbTrace
 10
31.6675
 20
0.95
 30
0.0
 11
32.0175
 21
0.95
 31
0.0
 12
31.6675
 22
3.45
 32
0.0
 13
32.0175
 23
3.45
 33
0.0
  0
SOLID
  5
424
100
AcDbEntity
  8
SOLDERMASK_PADS_TOP
100
AcDbTrace
 10
32.3025
 20
0.95
 30
0.0
 11
32.6525
 21
0.95
 31
0.0
 12
32.3025
 22
3.45
 32
0.0
 13
32.6525
 23
3.45
 33
0.0
  0
SOLID
  5
425
100
AcDbEntity
  8
SOLDERMASK_PADS_TOP
100
AcDbTrace
 10
32.9375
 20
0.95
 30
0.0
 11
33.2875
 21
0.95
 31
0.0
 12
32.9375
 22
3.45
 32
0.0
 13
33.2875
 23
3.45
 33
0.0
  0
SOLID
  5
426
100
AcDbEntity
  8
SOLDERMASK_PADS_TOP
100
AcDbTrace
 10
33.5725
 20
0.95
 30
0.0
 11
33.9225
 21
0.95
 31
0.0
 12
33.5725
 22
3.45
 32
0.0
 13
33.9225
 23
3.45
 33
0.0
  0
SOLID
  5
427
100
AcDbEntity
  8
SOLDERMASK_PADS_TOP
100
AcDbTrace
 10
34.2075
 20
0.95
 30
0.0
 11
34.5575
 21
0.95
 31
0.0
 12
34.2075
 22
3.45
 32
0.0
 13
34.5575
 23
3.45
 33
0.0
  0
SOLID
  5
428
100
AcDbEntity
  8
SOLDERMASK_PADS_TOP
100
AcDbTrace
 10
34.8425
 20
0.95
 30
0.0
 11
35.1925
 21
0.95
 31
0.0
 12
34.8425
 22
3.45
 32
0.0
 13
35.1925
 23
3.45
 33
0.0
  0
SOLID
  5
429
100
AcDbEntity
  8
SOLDERMASK_PADS_TOP
100
AcDbTrace
 10
35.4775
 20
0.95
 30
0.0
 11
35.8275
 21
0.95
 31
0.0
 12
35.4775
 22
3.45
 32
0.0
 13
35.8275
 23
3.45
 33
0.0
  0
SOLID
  5
42A
100
AcDbEntity
  8
SOLDERMASK_PADS_TOP
100
AcDbTrace
 10
36.1125
 20
0.95
 30
0.0
 11
36.4625
 21
0.95
 31
0.0
 12
36.1125
 22
3.45
 32
0.0
 13
36.4625
 23
3.45
 33
0.0
  0
SOLID
  5
42B
100
AcDbEntity
  8
SOLDERMASK_PADS_TOP
100
AcDbTrace
 10
36.7475
 20
0.95
 30
0.0
 11
37.0975
 21
0.95
 31
0.0
 12
36.7475
 22
3.45
 32
0.0
 13
37.0975
 23
3.45
 33
0.0
  0
SOLID
  5
42C
100
AcDbEntity
  8
SOLDERMASK_PADS_TOP
100
AcDbTrace
 10
37.3825
 20
0.95
 30
0.0
 11
37.7325
 21
0.95
 31
0.0
 12
37.3825
 22
3.45
 32
0.0
 13
37.7325
 23
3.45
 33
0.0
  0
SOLID
  5
42D
100
AcDbEntity
  8
SOLDERMASK_PADS_TOP
100
AcDbTrace
 10
38.0175
 20
0.95
 30
0.0
 11
38.3675
 21
0.95
 31
0.0
 12
38.0175
 22
3.45
 32
0.0
 13
38.3675
 23
3.45
 33
0.0
  0
SOLID
  5
42E
100
AcDbEntity
  8
SOLDERMASK_PADS_TOP
100
AcDbTrace
 10
38.6525
 20
0.95
 30
0.0
 11
39.0025
 21
0.95
 31
0.0
 12
38.6525
 22
3.45
 32
0.0
 13
39.0025
 23
3.45
 33
0.0
  0
SOLID
  5
42F
100
AcDbEntity
  8
SOLDERMASK_PADS_TOP
100
AcDbTrace
 10
39.2875
 20
0.95
 30
0.0
 11
39.6375
 21
0.95
 31
0.0
 12
39.2875
 22
3.45
 32
0.0
 13
39.6375
 23
3.45
 33
0.0
  0
SOLID
  5
430
100
AcDbEntity
  8
SOLDERMASK_PADS_TOP
100
AcDbTrace
 10
39.9225
 20
0.95
 30
0.0
 11
40.2725
 21
0.95
 31
0.0
 12
39.9225
 22
3.45
 32
0.0
 13
40.2725
 23
3.45
 33
0.0
  0
SOLID
  5
431
100
AcDbEntity
  8
SOLDERMASK_PADS_TOP
100
AcDbTrace
 10
40.5575
 20
0.95
 30
0.0
 11
40.9075
 21
0.95
 31
0.0
 12
40.5575
 22
3.45
 32
0.0
 13
40.9075
 23
3.45
 33
0.0
  0
SOLID
  5
432
100
AcDbEntity
  8
SOLDERMASK_PADS_TOP
100
AcDbTrace
 10
41.1925
 20
0.95
 30
0.0
 11
41.5425
 21
0.95
 31
0.0
 12
41.1925
 22
3.45
 32
0.0
 13
41.5425
 23
3.45
 33
0.0
  0
SOLID
  5
433
100
AcDbEntity
  8
SOLDERMASK_PADS_TOP
100
AcDbTrace
 10
41.8275
 20
0.95
 30
0.0
 11
42.1775
 21
0.95
 31
0.0
 12
41.8275
 22
3.45
 32
0.0
 13
42.1775
 23
3.45
 33
0.0
  0
SOLID
  5
434
100
AcDbEntity
  8
SOLDERMASK_PADS_TOP
100
AcDbTrace
 10
42.4625
 20
0.95
 30
0.0
 11
42.8125
 21
0.95
 31
0.0
 12
42.4625
 22
3.45
 32
0.0
 13
42.8125
 23
3.45
 33
0.0
  0
SOLID
  5
435
100
AcDbEntity
  8
SOLDERMASK_PADS_TOP
100
AcDbTrace
 10
43.0975
 20
0.95
 30
0.0
 11
43.4475
 21
0.95
 31
0.0
 12
43.0975
 22
3.45
 32
0.0
 13
43.4475
 23
3.45
 33
0.0
  0
SOLID
  5
436
100
AcDbEntity
  8
SOLDERMASK_PADS_TOP
100
AcDbTrace
 10
43.7325
 20
0.95
 30
0.0
 11
44.0825
 21
0.95
 31
0.0
 12
43.7325
 22
3.45
 32
0.0
 13
44.0825
 23
3.45
 33
0.0
  0
SOLID
  5
437
100
AcDbEntity
  8
SOLDERMASK_PADS_TOP
100
AcDbTrace
 10
44.3675
 20
0.95
 30
0.0
 11
44.7175
 21
0.95
 31
0.0
 12
44.3675
 22
3.45
 32
0.0
 13
44.7175
 23
3.45
 33
0.0
  0
SOLID
  5
438
100
AcDbEntity
  8
SOLDERMASK_PADS_TOP
100
AcDbTrace
 10
45.0025
 20
0.95
 30
0.0
 11
45.3525
 21
0.95
 31
0.0
 12
45.0025
 22
3.45
 32
0.0
 13
45.3525
 23
3.45
 33
0.0
  0
SOLID
  5
439
100
AcDbEntity
  8
SOLDERMASK_PADS_TOP
100
AcDbTrace
 10
45.6375
 20
0.95
 30
0.0
 11
45.9875
 21
0.95
 31
0.0
 12
45.6375
 22
3.45
 32
0.0
 13
45.9875
 23
3.45
 33
0.0
  0
SOLID
  5
43A
100
AcDbEntity
  8
SOLDERMASK_PADS_TOP
100
AcDbTrace
 10
46.2725
 20
0.95
 30
0.0
 11
46.6225
 21
0.95
 31
0.0
 12
46.2725
 22
3.45
 32
0.0
 13
46.6225
 23
3.45
 33
0.0
  0
SOLID
  5
43B
100
AcDbEntity
  8
SOLDERMASK_PADS_TOP
100
AcDbTrace
 10
46.9075
 20
0.95
 30
0.0
 11
47.2575
 21
0.95
 31
0.0
 12
46.9075
 22
3.45
 32
0.0
 13
47.2575
 23
3.45
 33
0.0
  0
SOLID
  5
43C
100
AcDbEntity
  8
SOLDERMASK_PADS_TOP
100
AcDbTrace
 10
47.5425
 20
0.95
 30
0.0
 11
47.8925
 21
0.95
 31
0.0
 12
47.5425
 22
3.45
 32
0.0
 13
47.8925
 23
3.45
 33
0.0
  0
SOLID
  5
43D
100
AcDbEntity
  8
SOLDERMASK_PADS_TOP
100
AcDbTrace
 10
48.1775
 20
0.95
 30
0.0
 11
48.5275
 21
0.95
 31
0.0
 12
48.1775
 22
3.45
 32
0.0
 13
48.5275
 23
3.45
 33
0.0
  0
SOLID
  5
43E
100
AcDbEntity
  8
SOLDERMASK_PADS_TOP
100
AcDbTrace
 10
48.8125
 20
0.95
 30
0.0
 11
49.1625
 21
0.95
 31
0.0
 12
48.8125
 22
3.45
 32
0.0
 13
49.1625
 23
3.45
 33
0.0
  0
SOLID
  5
43F
100
AcDbEntity
  8
SOLDERMASK_PADS_TOP
100
AcDbTrace
 10
49.4475
 20
0.95
 30
0.0
 11
49.7975
 21
0.95
 31
0.0
 12
49.4475
 22
3.45
 32
0.0
 13
49.7975
 23
3.45
 33
0.0
  0
SOLID
  5
440
100
AcDbEntity
  8
SOLDERMASK_PADS_TOP
100
AcDbTrace
 10
50.0825
 20
0.95
 30
0.0
 11
50.4325
 21
0.95
 31
0.0
 12
50.0825
 22
3.45
 32
0.0
 13
50.4325
 23
3.45
 33
0.0
  0
SOLID
  5
441
100
AcDbEntity
  8
SOLDERMASK_PADS_TOP
100
AcDbTrace
 10
50.7175
 20
0.95
 30
0.0
 11
51.0675
 21
0.95
 31
0.0
 12
50.7175
 22
3.45
 32
0.0
 13
51.0675
 23
3.45
 33
0.0
  0
SOLID
  5
442
100
AcDbEntity
  8
SOLDERMASK_PADS_TOP
100
AcDbTrace
 10
51.3525
 20
0.95
 30
0.0
 11
51.7025
 21
0.95
 31
0.0
 12
51.3525
 22
3.45
 32
0.0
 13
51.7025
 23
3.45
 33
0.0
  0
SOLID
  5
443
100
AcDbEntity
  8
SOLDERMASK_PADS_TOP
100
AcDbTrace
 10
51.9875
 20
0.95
 30
0.0
 11
52.3375
 21
0.95
 31
0.0
 12
51.9875
 22
3.45
 32
0.0
 13
52.3375
 23
3.45
 33
0.0
  0
SOLID
  5
444
100
AcDbEntity
  8
SOLDERMASK_PADS_TOP
100
AcDbTrace
 10
52.6225
 20
0.95
 30
0.0
 11
52.9725
 21
0.95
 31
0.0
 12
52.6225
 22
3.45
 32
0.0
 13
52.9725
 23
3.45
 33
0.0
  0
SOLID
  5
445
100
AcDbEntity
  8
SOLDERMASK_PADS_TOP
100
AcDbTrace
 10
53.2575
 20
0.95
 30
0.0
 11
53.6075
 21
0.95
 31
0.0
 12
53.2575
 22
3.45
 32
0.0
 13
53.6075
 23
3.45
 33
0.0
  0
SOLID
  5
446
100
AcDbEntity
  8
SOLDERMASK_PADS_TOP
100
AcDbTrace
 10
3.0925
 20
44.15
 30
0.0
 11
3.4425
 21
44.15
 31
0.0
 12
3.0925
 22
46.65
 32
0.0
 13
3.4425
 23
46.65
 33
0.0
  0
SOLID
  5
447
100
AcDbEntity
  8
SOLDERMASK_PADS_TOP
100
AcDbTrace
 10
3.7275
 20
44.15
 30
0.0
 11
4.0775
 21
44.15
 31
0.0
 12
3.7275
 22
46.65
 32
0.0
 13
4.0775
 23
46.65
 33
0.0
  0
SOLID
  5
448
100
AcDbEntity
  8
SOLDERMASK_PADS_TOP
100
AcDbTrace
 10
4.3625
 20
44.15
 30
0.0
 11
4.7125
 21
44.15
 31
0.0
 12
4.3625
 22
46.65
 32
0.0
 13
4.7125
 23
46.65
 33
0.0
  0
SOLID
  5
449
100
AcDbEntity
  8
SOLDERMASK_PADS_TOP
100
AcDbTrace
 10
4.9975
 20
44.15
 30
0.0
 11
5.3475
 21
44.15
 31
0.0
 12
4.9975
 22
46.65
 32
0.0
 13
5.3475
 23
46.65
 33
0.0
  0
SOLID
  5
44A
100
AcDbEntity
  8
SOLDERMASK_PADS_TOP
100
AcDbTrace
 10
5.6325
 20
44.15
 30
0.0
 11
5.9825
 21
44.15
 31
0.0
 12
5.6325
 22
46.65
 32
0.0
 13
5.9825
 23
46.65
 33
0.0
  0
SOLID
  5
44B
100
AcDbEntity
  8
SOLDERMASK_PADS_TOP
100
AcDbTrace
 10
6.2675
 20
44.15
 30
0.0
 11
6.6175
 21
44.15
 31
0.0
 12
6.2675
 22
46.65
 32
0.0
 13
6.6175
 23
46.65
 33
0.0
  0
SOLID
  5
44C
100
AcDbEntity
  8
SOLDERMASK_PADS_TOP
100
AcDbTrace
 10
6.9025
 20
44.15
 30
0.0
 11
7.2525
 21
44.15
 31
0.0
 12
6.9025
 22
46.65
 32
0.0
 13
7.2525
 23
46.65
 33
0.0
  0
SOLID
  5
44D
100
AcDbEntity
  8
SOLDERMASK_PADS_TOP
100
AcDbTrace
 10
7.5375
 20
44.15
 30
0.0
 11
7.8875
 21
44.15
 31
0.0
 12
7.5375
 22
46.65
 32
0.0
 13
7.8875
 23
46.65
 33
0.0
  0
SOLID
  5
44E
100
AcDbEntity
  8
SOLDERMASK_PADS_TOP
100
AcDbTrace
 10
8.1725
 20
44.15
 30
0.0
 11
8.5225
 21
44.15
 31
0.0
 12
8.1725
 22
46.65
 32
0.0
 13
8.5225
 23
46.65
 33
0.0
  0
SOLID
  5
44F
100
AcDbEntity
  8
SOLDERMASK_PADS_TOP
100
AcDbTrace
 10
8.8075
 20
44.15
 30
0.0
 11
9.1575
 21
44.15
 31
0.0
 12
8.8075
 22
46.65
 32
0.0
 13
9.1575
 23
46.65
 33
0.0
  0
SOLID
  5
450
100
AcDbEntity
  8
SOLDERMASK_PADS_TOP
100
AcDbTrace
 10
9.4425
 20
44.15
 30
0.0
 11
9.7925
 21
44.15
 31
0.0
 12
9.4425
 22
46.65
 32
0.0
 13
9.7925
 23
46.65
 33
0.0
  0
SOLID
  5
451
100
AcDbEntity
  8
SOLDERMASK_PADS_TOP
100
AcDbTrace
 10
10.0775
 20
44.15
 30
0.0
 11
10.4275
 21
44.15
 31
0.0
 12
10.0775
 22
46.65
 32
0.0
 13
10.4275
 23
46.65
 33
0.0
  0
SOLID
  5
452
100
AcDbEntity
  8
SOLDERMASK_PADS_TOP
100
AcDbTrace
 10
10.7125
 20
44.15
 30
0.0
 11
11.0625
 21
44.15
 31
0.0
 12
10.7125
 22
46.65
 32
0.0
 13
11.0625
 23
46.65
 33
0.0
  0
SOLID
  5
453
100
AcDbEntity
  8
SOLDERMASK_PADS_TOP
100
AcDbTrace
 10
11.3475
 20
44.15
 30
0.0
 11
11.6975
 21
44.15
 31
0.0
 12
11.3475
 22
46.65
 32
0.0
 13
11.6975
 23
46.65
 33
0.0
  0
SOLID
  5
454
100
AcDbEntity
  8
SOLDERMASK_PADS_TOP
100
AcDbTrace
 10
11.9825
 20
44.15
 30
0.0
 11
12.3325
 21
44.15
 31
0.0
 12
11.9825
 22
46.65
 32
0.0
 13
12.3325
 23
46.65
 33
0.0
  0
SOLID
  5
455
100
AcDbEntity
  8
SOLDERMASK_PADS_TOP
100
AcDbTrace
 10
12.6175
 20
44.15
 30
0.0
 11
12.9675
 21
44.15
 31
0.0
 12
12.6175
 22
46.65
 32
0.0
 13
12.9675
 23
46.65
 33
0.0
  0
SOLID
  5
456
100
AcDbEntity
  8
SOLDERMASK_PADS_TOP
100
AcDbTrace
 10
13.2525
 20
44.15
 30
0.0
 11
13.6025
 21
44.15
 31
0.0
 12
13.2525
 22
46.65
 32
0.0
 13
13.6025
 23
46.65
 33
0.0
  0
SOLID
  5
457
100
AcDbEntity
  8
SOLDERMASK_PADS_TOP
100
AcDbTrace
 10
13.8875
 20
44.15
 30
0.0
 11
14.2375
 21
44.15
 31
0.0
 12
13.8875
 22
46.65
 32
0.0
 13
14.2375
 23
46.65
 33
0.0
  0
SOLID
  5
458
100
AcDbEntity
  8
SOLDERMASK_PADS_TOP
100
AcDbTrace
 10
14.5225
 20
44.15
 30
0.0
 11
14.8725
 21
44.15
 31
0.0
 12
14.5225
 22
46.65
 32
0.0
 13
14.8725
 23
46.65
 33
0.0
  0
SOLID
  5
459
100
AcDbEntity
  8
SOLDERMASK_PADS_TOP
100
AcDbTrace
 10
15.1575
 20
44.15
 30
0.0
 11
15.5075
 21
44.15
 31
0.0
 12
15.1575
 22
46.65
 32
0.0
 13
15.5075
 23
46.65
 33
0.0
  0
SOLID
  5
45A
100
AcDbEntity
  8
SOLDERMASK_PADS_TOP
100
AcDbTrace
 10
15.7925
 20
44.15
 30
0.0
 11
16.1425
 21
44.15
 31
0.0
 12
15.7925
 22
46.65
 32
0.0
 13
16.1425
 23
46.65
 33
0.0
  0
SOLID
  5
45B
100
AcDbEntity
  8
SOLDERMASK_PADS_TOP
100
AcDbTrace
 10
16.4275
 20
44.15
 30
0.0
 11
16.7775
 21
44.15
 31
0.0
 12
16.4275
 22
46.65
 32
0.0
 13
16.7775
 23
46.65
 33
0.0
  0
SOLID
  5
45C
100
AcDbEntity
  8
SOLDERMASK_PADS_TOP
100
AcDbTrace
 10
17.0625
 20
44.15
 30
0.0
 11
17.4125
 21
44.15
 31
0.0
 12
17.0625
 22
46.65
 32
0.0
 13
17.4125
 23
46.65
 33
0.0
  0
SOLID
  5
45D
100
AcDbEntity
  8
SOLDERMASK_PADS_TOP
100
AcDbTrace
 10
17.6975
 20
44.15
 30
0.0
 11
18.0475
 21
44.15
 31
0.0
 12
17.6975
 22
46.65
 32
0.0
 13
18.0475
 23
46.65
 33
0.0
  0
SOLID
  5
45E
100
AcDbEntity
  8
SOLDERMASK_PADS_TOP
100
AcDbTrace
 10
18.3325
 20
44.15
 30
0.0
 11
18.6825
 21
44.15
 31
0.0
 12
18.3325
 22
46.65
 32
0.0
 13
18.6825
 23
46.65
 33
0.0
  0
SOLID
  5
45F
100
AcDbEntity
  8
SOLDERMASK_PADS_TOP
100
AcDbTrace
 10
18.9675
 20
44.15
 30
0.0
 11
19.3175
 21
44.15
 31
0.0
 12
18.9675
 22
46.65
 32
0.0
 13
19.3175
 23
46.65
 33
0.0
  0
SOLID
  5
460
100
AcDbEntity
  8
SOLDERMASK_PADS_TOP
100
AcDbTrace
 10
19.6025
 20
44.15
 30
0.0
 11
19.9525
 21
44.15
 31
0.0
 12
19.6025
 22
46.65
 32
0.0
 13
19.9525
 23
46.65
 33
0.0
  0
SOLID
  5
461
100
AcDbEntity
  8
SOLDERMASK_PADS_TOP
100
AcDbTrace
 10
20.2375
 20
44.15
 30
0.0
 11
20.5875
 21
44.15
 31
0.0
 12
20.2375
 22
46.65
 32
0.0
 13
20.5875
 23
46.65
 33
0.0
  0
SOLID
  5
462
100
AcDbEntity
  8
SOLDERMASK_PADS_TOP
100
AcDbTrace
 10
20.8725
 20
44.15
 30
0.0
 11
21.2225
 21
44.15
 31
0.0
 12
20.8725
 22
46.65
 32
0.0
 13
21.2225
 23
46.65
 33
0.0
  0
SOLID
  5
463
100
AcDbEntity
  8
SOLDERMASK_PADS_TOP
100
AcDbTrace
 10
21.5075
 20
44.15
 30
0.0
 11
21.8575
 21
44.15
 31
0.0
 12
21.5075
 22
46.65
 32
0.0
 13
21.8575
 23
46.65
 33
0.0
  0
SOLID
  5
464
100
AcDbEntity
  8
SOLDERMASK_PADS_TOP
100
AcDbTrace
 10
22.1425
 20
44.15
 30
0.0
 11
22.4925
 21
44.15
 31
0.0
 12
22.1425
 22
46.65
 32
0.0
 13
22.4925
 23
46.65
 33
0.0
  0
SOLID
  5
465
100
AcDbEntity
  8
SOLDERMASK_PADS_TOP
100
AcDbTrace
 10
22.7775
 20
44.15
 30
0.0
 11
23.1275
 21
44.15
 31
0.0
 12
22.7775
 22
46.65
 32
0.0
 13
23.1275
 23
46.65
 33
0.0
  0
SOLID
  5
466
100
AcDbEntity
  8
SOLDERMASK_PADS_TOP
100
AcDbTrace
 10
23.4125
 20
44.15
 30
0.0
 11
23.7625
 21
44.15
 31
0.0
 12
23.4125
 22
46.65
 32
0.0
 13
23.7625
 23
46.65
 33
0.0
  0
SOLID
  5
467
100
AcDbEntity
  8
SOLDERMASK_PADS_TOP
100
AcDbTrace
 10
24.0475
 20
44.15
 30
0.0
 11
24.3975
 21
44.15
 31
0.0
 12
24.0475
 22
46.65
 32
0.0
 13
24.3975
 23
46.65
 33
0.0
  0
SOLID
  5
468
100
AcDbEntity
  8
SOLDERMASK_PADS_TOP
100
AcDbTrace
 10
24.6825
 20
44.15
 30
0.0
 11
25.0325
 21
44.15
 31
0.0
 12
24.6825
 22
46.65
 32
0.0
 13
25.0325
 23
46.65
 33
0.0
  0
SOLID
  5
469
100
AcDbEntity
  8
SOLDERMASK_PADS_TOP
100
AcDbTrace
 10
25.3175
 20
44.15
 30
0.0
 11
25.6675
 21
44.15
 31
0.0
 12
25.3175
 22
46.65
 32
0.0
 13
25.6675
 23
46.65
 33
0.0
  0
SOLID
  5
46A
100
AcDbEntity
  8
SOLDERMASK_PADS_TOP
100
AcDbTrace
 10
25.9525
 20
44.15
 30
0.0
 11
26.3025
 21
44.15
 31
0.0
 12
25.9525
 22
46.65
 32
0.0
 13
26.3025
 23
46.65
 33
0.0
  0
SOLID
  5
46B
100
AcDbEntity
  8
SOLDERMASK_PADS_TOP
100
AcDbTrace
 10
26.5875
 20
44.15
 30
0.0
 11
26.9375
 21
44.15
 31
0.0
 12
26.5875
 22
46.65
 32
0.0
 13
26.9375
 23
46.65
 33
0.0
  0
SOLID
  5
46C
100
AcDbEntity
  8
SOLDERMASK_PADS_TOP
100
AcDbTrace
 10
27.2225
 20
44.15
 30
0.0
 11
27.5725
 21
44.15
 31
0.0
 12
27.2225
 22
46.65
 32
0.0
 13
27.5725
 23
46.65
 33
0.0
  0
SOLID
  5
46D
100
AcDbEntity
  8
SOLDERMASK_PADS_TOP
100
AcDbTrace
 10
27.8575
 20
44.15
 30
0.0
 11
28.2075
 21
44.15
 31
0.0
 12
27.8575
 22
46.65
 32
0.0
 13
28.2075
 23
46.65
 33
0.0
  0
SOLID
  5
46E
100
AcDbEntity
  8
SOLDERMASK_PADS_TOP
100
AcDbTrace
 10
28.4925
 20
44.15
 30
0.0
 11
28.8425
 21
44.15
 31
0.0
 12
28.4925
 22
46.65
 32
0.0
 13
28.8425
 23
46.65
 33
0.0
  0
SOLID
  5
46F
100
AcDbEntity
  8
SOLDERMASK_PADS_TOP
100
AcDbTrace
 10
29.1275
 20
44.15
 30
0.0
 11
29.4775
 21
44.15
 31
0.0
 12
29.1275
 22
46.65
 32
0.0
 13
29.4775
 23
46.65
 33
0.0
  0
SOLID
  5
470
100
AcDbEntity
  8
SOLDERMASK_PADS_TOP
100
AcDbTrace
 10
29.7625
 20
44.15
 30
0.0
 11
30.1125
 21
44.15
 31
0.0
 12
29.7625
 22
46.65
 32
0.0
 13
30.1125
 23
46.65
 33
0.0
  0
SOLID
  5
471
100
AcDbEntity
  8
SOLDERMASK_PADS_TOP
100
AcDbTrace
 10
30.3975
 20
44.15
 30
0.0
 11
30.7475
 21
44.15
 31
0.0
 12
30.3975
 22
46.65
 32
0.0
 13
30.7475
 23
46.65
 33
0.0
  0
SOLID
  5
472
100
AcDbEntity
  8
SOLDERMASK_PADS_TOP
100
AcDbTrace
 10
31.0325
 20
44.15
 30
0.0
 11
31.3825
 21
44.15
 31
0.0
 12
31.0325
 22
46.65
 32
0.0
 13
31.3825
 23
46.65
 33
0.0
  0
SOLID
  5
473
100
AcDbEntity
  8
SOLDERMASK_PADS_TOP
100
AcDbTrace
 10
31.6675
 20
44.15
 30
0.0
 11
32.0175
 21
44.15
 31
0.0
 12
31.6675
 22
46.65
 32
0.0
 13
32.0175
 23
46.65
 33
0.0
  0
SOLID
  5
474
100
AcDbEntity
  8
SOLDERMASK_PADS_TOP
100
AcDbTrace
 10
32.3025
 20
44.15
 30
0.0
 11
32.6525
 21
44.15
 31
0.0
 12
32.3025
 22
46.65
 32
0.0
 13
32.6525
 23
46.65
 33
0.0
  0
SOLID
  5
475
100
AcDbEntity
  8
SOLDERMASK_PADS_TOP
100
AcDbTrace
 10
32.9375
 20
44.15
 30
0.0
 11
33.2875
 21
44.15
 31
0.0
 12
32.9375
 22
46.65
 32
0.0
 13
33.2875
 23
46.65
 33
0.0
  0
SOLID
  5
476
100
AcDbEntity
  8
SOLDERMASK_PADS_TOP
100
AcDbTrace
 10
33.5725
 20
44.15
 30
0.0
 11
33.9225
 21
44.15
 31
0.0
 12
33.5725
 22
46.65
 32
0.0
 13
33.9225
 23
46.65
 33
0.0
  0
SOLID
  5
477
100
AcDbEntity
  8
SOLDERMASK_PADS_TOP
100
AcDbTrace
 10
34.2075
 20
44.15
 30
0.0
 11
34.5575
 21
44.15
 31
0.0
 12
34.2075
 22
46.65
 32
0.0
 13
34.5575
 23
46.65
 33
0.0
  0
SOLID
  5
478
100
AcDbEntity
  8
SOLDERMASK_PADS_TOP
100
AcDbTrace
 10
34.8425
 20
44.15
 30
0.0
 11
35.1925
 21
44.15
 31
0.0
 12
34.8425
 22
46.65
 32
0.0
 13
35.1925
 23
46.65
 33
0.0
  0
SOLID
  5
479
100
AcDbEntity
  8
SOLDERMASK_PADS_TOP
100
AcDbTrace
 10
35.4775
 20
44.15
 30
0.0
 11
35.8275
 21
44.15
 31
0.0
 12
35.4775
 22
46.65
 32
0.0
 13
35.8275
 23
46.65
 33
0.0
  0
SOLID
  5
47A
100
AcDbEntity
  8
SOLDERMASK_PADS_TOP
100
AcDbTrace
 10
36.1125
 20
44.15
 30
0.0
 11
36.4625
 21
44.15
 31
0.0
 12
36.1125
 22
46.65
 32
0.0
 13
36.4625
 23
46.65
 33
0.0
  0
SOLID
  5
47B
100
AcDbEntity
  8
SOLDERMASK_PADS_TOP
100
AcDbTrace
 10
36.7475
 20
44.15
 30
0.0
 11
37.0975
 21
44.15
 31
0.0
 12
36.7475
 22
46.65
 32
0.0
 13
37.0975
 23
46.65
 33
0.0
  0
SOLID
  5
47C
100
AcDbEntity
  8
SOLDERMASK_PADS_TOP
100
AcDbTrace
 10
37.3825
 20
44.15
 30
0.0
 11
37.7325
 21
44.15
 31
0.0
 12
37.3825
 22
46.65
 32
0.0
 13
37.7325
 23
46.65
 33
0.0
  0
SOLID
  5
47D
100
AcDbEntity
  8
SOLDERMASK_PADS_TOP
100
AcDbTrace
 10
38.0175
 20
44.15
 30
0.0
 11
38.3675
 21
44.15
 31
0.0
 12
38.0175
 22
46.65
 32
0.0
 13
38.3675
 23
46.65
 33
0.0
  0
SOLID
  5
47E
100
AcDbEntity
  8
SOLDERMASK_PADS_TOP
100
AcDbTrace
 10
38.6525
 20
44.15
 30
0.0
 11
39.0025
 21
44.15
 31
0.0
 12
38.6525
 22
46.65
 32
0.0
 13
39.0025
 23
46.65
 33
0.0
  0
SOLID
  5
47F
100
AcDbEntity
  8
SOLDERMASK_PADS_TOP
100
AcDbTrace
 10
39.2875
 20
44.15
 30
0.0
 11
39.6375
 21
44.15
 31
0.0
 12
39.2875
 22
46.65
 32
0.0
 13
39.6375
 23
46.65
 33
0.0
  0
SOLID
  5
480
100
AcDbEntity
  8
SOLDERMASK_PADS_TOP
100
AcDbTrace
 10
39.9225
 20
44.15
 30
0.0
 11
40.2725
 21
44.15
 31
0.0
 12
39.9225
 22
46.65
 32
0.0
 13
40.2725
 23
46.65
 33
0.0
  0
SOLID
  5
481
100
AcDbEntity
  8
SOLDERMASK_PADS_TOP
100
AcDbTrace
 10
40.5575
 20
44.15
 30
0.0
 11
40.9075
 21
44.15
 31
0.0
 12
40.5575
 22
46.65
 32
0.0
 13
40.9075
 23
46.65
 33
0.0
  0
SOLID
  5
482
100
AcDbEntity
  8
SOLDERMASK_PADS_TOP
100
AcDbTrace
 10
41.1925
 20
44.15
 30
0.0
 11
41.5425
 21
44.15
 31
0.0
 12
41.1925
 22
46.65
 32
0.0
 13
41.5425
 23
46.65
 33
0.0
  0
SOLID
  5
483
100
AcDbEntity
  8
SOLDERMASK_PADS_TOP
100
AcDbTrace
 10
41.8275
 20
44.15
 30
0.0
 11
42.1775
 21
44.15
 31
0.0
 12
41.8275
 22
46.65
 32
0.0
 13
42.1775
 23
46.65
 33
0.0
  0
SOLID
  5
484
100
AcDbEntity
  8
SOLDERMASK_PADS_TOP
100
AcDbTrace
 10
42.4625
 20
44.15
 30
0.0
 11
42.8125
 21
44.15
 31
0.0
 12
42.4625
 22
46.65
 32
0.0
 13
42.8125
 23
46.65
 33
0.0
  0
SOLID
  5
485
100
AcDbEntity
  8
SOLDERMASK_PADS_TOP
100
AcDbTrace
 10
43.0975
 20
44.15
 30
0.0
 11
43.4475
 21
44.15
 31
0.0
 12
43.0975
 22
46.65
 32
0.0
 13
43.4475
 23
46.65
 33
0.0
  0
SOLID
  5
486
100
AcDbEntity
  8
SOLDERMASK_PADS_TOP
100
AcDbTrace
 10
43.7325
 20
44.15
 30
0.0
 11
44.0825
 21
44.15
 31
0.0
 12
43.7325
 22
46.65
 32
0.0
 13
44.0825
 23
46.65
 33
0.0
  0
SOLID
  5
487
100
AcDbEntity
  8
SOLDERMASK_PADS_TOP
100
AcDbTrace
 10
44.3675
 20
44.15
 30
0.0
 11
44.7175
 21
44.15
 31
0.0
 12
44.3675
 22
46.65
 32
0.0
 13
44.7175
 23
46.65
 33
0.0
  0
SOLID
  5
488
100
AcDbEntity
  8
SOLDERMASK_PADS_TOP
100
AcDbTrace
 10
45.0025
 20
44.15
 30
0.0
 11
45.3525
 21
44.15
 31
0.0
 12
45.0025
 22
46.65
 32
0.0
 13
45.3525
 23
46.65
 33
0.0
  0
SOLID
  5
489
100
AcDbEntity
  8
SOLDERMASK_PADS_TOP
100
AcDbTrace
 10
45.6375
 20
44.15
 30
0.0
 11
45.9875
 21
44.15
 31
0.0
 12
45.6375
 22
46.65
 32
0.0
 13
45.9875
 23
46.65
 33
0.0
  0
SOLID
  5
48A
100
AcDbEntity
  8
SOLDERMASK_PADS_TOP
100
AcDbTrace
 10
46.2725
 20
44.15
 30
0.0
 11
46.6225
 21
44.15
 31
0.0
 12
46.2725
 22
46.65
 32
0.0
 13
46.6225
 23
46.65
 33
0.0
  0
SOLID
  5
48B
100
AcDbEntity
  8
SOLDERMASK_PADS_TOP
100
AcDbTrace
 10
46.9075
 20
44.15
 30
0.0
 11
47.2575
 21
44.15
 31
0.0
 12
46.9075
 22
46.65
 32
0.0
 13
47.2575
 23
46.65
 33
0.0
  0
SOLID
  5
48C
100
AcDbEntity
  8
SOLDERMASK_PADS_TOP
100
AcDbTrace
 10
47.5425
 20
44.15
 30
0.0
 11
47.8925
 21
44.15
 31
0.0
 12
47.5425
 22
46.65
 32
0.0
 13
47.8925
 23
46.65
 33
0.0
  0
SOLID
  5
48D
100
AcDbEntity
  8
SOLDERMASK_PADS_TOP
100
AcDbTrace
 10
48.1775
 20
44.15
 30
0.0
 11
48.5275
 21
44.15
 31
0.0
 12
48.1775
 22
46.65
 32
0.0
 13
48.5275
 23
46.65
 33
0.0
  0
SOLID
  5
48E
100
AcDbEntity
  8
SOLDERMASK_PADS_TOP
100
AcDbTrace
 10
48.8125
 20
44.15
 30
0.0
 11
49.1625
 21
44.15
 31
0.0
 12
48.8125
 22
46.65
 32
0.0
 13
49.1625
 23
46.65
 33
0.0
  0
SOLID
  5
48F
100
AcDbEntity
  8
SOLDERMASK_PADS_TOP
100
AcDbTrace
 10
49.4475
 20
44.15
 30
0.0
 11
49.7975
 21
44.15
 31
0.0
 12
49.4475
 22
46.65
 32
0.0
 13
49.7975
 23
46.65
 33
0.0
  0
SOLID
  5
490
100
AcDbEntity
  8
SOLDERMASK_PADS_TOP
100
AcDbTrace
 10
50.0825
 20
44.15
 30
0.0
 11
50.4325
 21
44.15
 31
0.0
 12
50.0825
 22
46.65
 32
0.0
 13
50.4325
 23
46.65
 33
0.0
  0
SOLID
  5
491
100
AcDbEntity
  8
SOLDERMASK_PADS_TOP
100
AcDbTrace
 10
50.7175
 20
44.15
 30
0.0
 11
51.0675
 21
44.15
 31
0.0
 12
50.7175
 22
46.65
 32
0.0
 13
51.0675
 23
46.65
 33
0.0
  0
SOLID
  5
492
100
AcDbEntity
  8
SOLDERMASK_PADS_TOP
100
AcDbTrace
 10
51.3525
 20
44.15
 30
0.0
 11
51.7025
 21
44.15
 31
0.0
 12
51.3525
 22
46.65
 32
0.0
 13
51.7025
 23
46.65
 33
0.0
  0
SOLID
  5
493
100
AcDbEntity
  8
SOLDERMASK_PADS_TOP
100
AcDbTrace
 10
51.9875
 20
44.15
 30
0.0
 11
52.3375
 21
44.15
 31
0.0
 12
51.9875
 22
46.65
 32
0.0
 13
52.3375
 23
46.65
 33
0.0
  0
SOLID
  5
494
100
AcDbEntity
  8
SOLDERMASK_PADS_TOP
100
AcDbTrace
 10
52.6225
 20
44.15
 30
0.0
 11
52.9725
 21
44.15
 31
0.0
 12
52.6225
 22
46.65
 32
0.0
 13
52.9725
 23
46.65
 33
0.0
  0
SOLID
  5
495
100
AcDbEntity
  8
SOLDERMASK_PADS_TOP
100
AcDbTrace
 10
53.2575
 20
44.15
 30
0.0
 11
53.6075
 21
44.15
 31
0.0
 12
53.2575
 22
46.65
 32
0.0
 13
53.6075
 23
46.65
 33
0.0
  0
SOLID
  5
496
100
AcDbEntity
  8
SOLDERMASK_PADS_TOP
100
AcDbTrace
 10
3.0925
 20
48.55
 30
0.0
 11
3.4425
 21
48.55
 31
0.0
 12
3.0925
 22
51.05
 32
0.0
 13
3.4425
 23
51.05
 33
0.0
  0
SOLID
  5
497
100
AcDbEntity
  8
SOLDERMASK_PADS_TOP
100
AcDbTrace
 10
3.7275
 20
48.55
 30
0.0
 11
4.0775
 21
48.55
 31
0.0
 12
3.7275
 22
51.05
 32
0.0
 13
4.0775
 23
51.05
 33
0.0
  0
SOLID
  5
498
100
AcDbEntity
  8
SOLDERMASK_PADS_TOP
100
AcDbTrace
 10
4.3625
 20
48.55
 30
0.0
 11
4.7125
 21
48.55
 31
0.0
 12
4.3625
 22
51.05
 32
0.0
 13
4.7125
 23
51.05
 33
0.0
  0
SOLID
  5
499
100
AcDbEntity
  8
SOLDERMASK_PADS_TOP
100
AcDbTrace
 10
4.9975
 20
48.55
 30
0.0
 11
5.3475
 21
48.55
 31
0.0
 12
4.9975
 22
51.05
 32
0.0
 13
5.3475
 23
51.05
 33
0.0
  0
SOLID
  5
49A
100
AcDbEntity
  8
SOLDERMASK_PADS_TOP
100
AcDbTrace
 10
5.6325
 20
48.55
 30
0.0
 11
5.9825
 21
48.55
 31
0.0
 12
5.6325
 22
51.05
 32
0.0
 13
5.9825
 23
51.05
 33
0.0
  0
SOLID
  5
49B
100
AcDbEntity
  8
SOLDERMASK_PADS_TOP
100
AcDbTrace
 10
6.2675
 20
48.55
 30
0.0
 11
6.6175
 21
48.55
 31
0.0
 12
6.2675
 22
51.05
 32
0.0
 13
6.6175
 23
51.05
 33
0.0
  0
SOLID
  5
49C
100
AcDbEntity
  8
SOLDERMASK_PADS_TOP
100
AcDbTrace
 10
6.9025
 20
48.55
 30
0.0
 11
7.2525
 21
48.55
 31
0.0
 12
6.9025
 22
51.05
 32
0.0
 13
7.2525
 23
51.05
 33
0.0
  0
SOLID
  5
49D
100
AcDbEntity
  8
SOLDERMASK_PADS_TOP
100
AcDbTrace
 10
7.5375
 20
48.55
 30
0.0
 11
7.8875
 21
48.55
 31
0.0
 12
7.5375
 22
51.05
 32
0.0
 13
7.8875
 23
51.05
 33
0.0
  0
SOLID
  5
49E
100
AcDbEntity
  8
SOLDERMASK_PADS_TOP
100
AcDbTrace
 10
8.1725
 20
48.55
 30
0.0
 11
8.5225
 21
48.55
 31
0.0
 12
8.1725
 22
51.05
 32
0.0
 13
8.5225
 23
51.05
 33
0.0
  0
SOLID
  5
49F
100
AcDbEntity
  8
SOLDERMASK_PADS_TOP
100
AcDbTrace
 10
8.8075
 20
48.55
 30
0.0
 11
9.1575
 21
48.55
 31
0.0
 12
8.8075
 22
51.05
 32
0.0
 13
9.1575
 23
51.05
 33
0.0
  0
SOLID
  5
4A0
100
AcDbEntity
  8
SOLDERMASK_PADS_TOP
100
AcDbTrace
 10
9.4425
 20
48.55
 30
0.0
 11
9.7925
 21
48.55
 31
0.0
 12
9.4425
 22
51.05
 32
0.0
 13
9.7925
 23
51.05
 33
0.0
  0
SOLID
  5
4A1
100
AcDbEntity
  8
SOLDERMASK_PADS_TOP
100
AcDbTrace
 10
10.0775
 20
48.55
 30
0.0
 11
10.4275
 21
48.55
 31
0.0
 12
10.0775
 22
51.05
 32
0.0
 13
10.4275
 23
51.05
 33
0.0
  0
SOLID
  5
4A2
100
AcDbEntity
  8
SOLDERMASK_PADS_TOP
100
AcDbTrace
 10
10.7125
 20
48.55
 30
0.0
 11
11.0625
 21
48.55
 31
0.0
 12
10.7125
 22
51.05
 32
0.0
 13
11.0625
 23
51.05
 33
0.0
  0
SOLID
  5
4A3
100
AcDbEntity
  8
SOLDERMASK_PADS_TOP
100
AcDbTrace
 10
11.3475
 20
48.55
 30
0.0
 11
11.6975
 21
48.55
 31
0.0
 12
11.3475
 22
51.05
 32
0.0
 13
11.6975
 23
51.05
 33
0.0
  0
SOLID
  5
4A4
100
AcDbEntity
  8
SOLDERMASK_PADS_TOP
100
AcDbTrace
 10
11.9825
 20
48.55
 30
0.0
 11
12.3325
 21
48.55
 31
0.0
 12
11.9825
 22
51.05
 32
0.0
 13
12.3325
 23
51.05
 33
0.0
  0
SOLID
  5
4A5
100
AcDbEntity
  8
SOLDERMASK_PADS_TOP
100
AcDbTrace
 10
12.6175
 20
48.55
 30
0.0
 11
12.9675
 21
48.55
 31
0.0
 12
12.6175
 22
51.05
 32
0.0
 13
12.9675
 23
51.05
 33
0.0
  0
SOLID
  5
4A6
100
AcDbEntity
  8
SOLDERMASK_PADS_TOP
100
AcDbTrace
 10
13.2525
 20
48.55
 30
0.0
 11
13.6025
 21
48.55
 31
0.0
 12
13.2525
 22
51.05
 32
0.0
 13
13.6025
 23
51.05
 33
0.0
  0
SOLID
  5
4A7
100
AcDbEntity
  8
SOLDERMASK_PADS_TOP
100
AcDbTrace
 10
13.8875
 20
48.55
 30
0.0
 11
14.2375
 21
48.55
 31
0.0
 12
13.8875
 22
51.05
 32
0.0
 13
14.2375
 23
51.05
 33
0.0
  0
SOLID
  5
4A8
100
AcDbEntity
  8
SOLDERMASK_PADS_TOP
100
AcDbTrace
 10
14.5225
 20
48.55
 30
0.0
 11
14.8725
 21
48.55
 31
0.0
 12
14.5225
 22
51.05
 32
0.0
 13
14.8725
 23
51.05
 33
0.0
  0
SOLID
  5
4A9
100
AcDbEntity
  8
SOLDERMASK_PADS_TOP
100
AcDbTrace
 10
15.1575
 20
48.55
 30
0.0
 11
15.5075
 21
48.55
 31
0.0
 12
15.1575
 22
51.05
 32
0.0
 13
15.5075
 23
51.05
 33
0.0
  0
SOLID
  5
4AA
100
AcDbEntity
  8
SOLDERMASK_PADS_TOP
100
AcDbTrace
 10
15.7925
 20
48.55
 30
0.0
 11
16.1425
 21
48.55
 31
0.0
 12
15.7925
 22
51.05
 32
0.0
 13
16.1425
 23
51.05
 33
0.0
  0
SOLID
  5
4AB
100
AcDbEntity
  8
SOLDERMASK_PADS_TOP
100
AcDbTrace
 10
16.4275
 20
48.55
 30
0.0
 11
16.7775
 21
48.55
 31
0.0
 12
16.4275
 22
51.05
 32
0.0
 13
16.7775
 23
51.05
 33
0.0
  0
SOLID
  5
4AC
100
AcDbEntity
  8
SOLDERMASK_PADS_TOP
100
AcDbTrace
 10
17.0625
 20
48.55
 30
0.0
 11
17.4125
 21
48.55
 31
0.0
 12
17.0625
 22
51.05
 32
0.0
 13
17.4125
 23
51.05
 33
0.0
  0
SOLID
  5
4AD
100
AcDbEntity
  8
SOLDERMASK_PADS_TOP
100
AcDbTrace
 10
17.6975
 20
48.55
 30
0.0
 11
18.0475
 21
48.55
 31
0.0
 12
17.6975
 22
51.05
 32
0.0
 13
18.0475
 23
51.05
 33
0.0
  0
SOLID
  5
4AE
100
AcDbEntity
  8
SOLDERMASK_PADS_TOP
100
AcDbTrace
 10
18.3325
 20
48.55
 30
0.0
 11
18.6825
 21
48.55
 31
0.0
 12
18.3325
 22
51.05
 32
0.0
 13
18.6825
 23
51.05
 33
0.0
  0
SOLID
  5
4AF
100
AcDbEntity
  8
SOLDERMASK_PADS_TOP
100
AcDbTrace
 10
18.9675
 20
48.55
 30
0.0
 11
19.3175
 21
48.55
 31
0.0
 12
18.9675
 22
51.05
 32
0.0
 13
19.3175
 23
51.05
 33
0.0
  0
SOLID
  5
4B0
100
AcDbEntity
  8
SOLDERMASK_PADS_TOP
100
AcDbTrace
 10
19.6025
 20
48.55
 30
0.0
 11
19.9525
 21
48.55
 31
0.0
 12
19.6025
 22
51.05
 32
0.0
 13
19.9525
 23
51.05
 33
0.0
  0
SOLID
  5
4B1
100
AcDbEntity
  8
SOLDERMASK_PADS_TOP
100
AcDbTrace
 10
20.2375
 20
48.55
 30
0.0
 11
20.5875
 21
48.55
 31
0.0
 12
20.2375
 22
51.05
 32
0.0
 13
20.5875
 23
51.05
 33
0.0
  0
SOLID
  5
4B2
100
AcDbEntity
  8
SOLDERMASK_PADS_TOP
100
AcDbTrace
 10
20.8725
 20
48.55
 30
0.0
 11
21.2225
 21
48.55
 31
0.0
 12
20.8725
 22
51.05
 32
0.0
 13
21.2225
 23
51.05
 33
0.0
  0
SOLID
  5
4B3
100
AcDbEntity
  8
SOLDERMASK_PADS_TOP
100
AcDbTrace
 10
21.5075
 20
48.55
 30
0.0
 11
21.8575
 21
48.55
 31
0.0
 12
21.5075
 22
51.05
 32
0.0
 13
21.8575
 23
51.05
 33
0.0
  0
SOLID
  5
4B4
100
AcDbEntity
  8
SOLDERMASK_PADS_TOP
100
AcDbTrace
 10
22.1425
 20
48.55
 30
0.0
 11
22.4925
 21
48.55
 31
0.0
 12
22.1425
 22
51.05
 32
0.0
 13
22.4925
 23
51.05
 33
0.0
  0
SOLID
  5
4B5
100
AcDbEntity
  8
SOLDERMASK_PADS_TOP
100
AcDbTrace
 10
22.7775
 20
48.55
 30
0.0
 11
23.1275
 21
48.55
 31
0.0
 12
22.7775
 22
51.05
 32
0.0
 13
23.1275
 23
51.05
 33
0.0
  0
SOLID
  5
4B6
100
AcDbEntity
  8
SOLDERMASK_PADS_TOP
100
AcDbTrace
 10
23.4125
 20
48.55
 30
0.0
 11
23.7625
 21
48.55
 31
0.0
 12
23.4125
 22
51.05
 32
0.0
 13
23.7625
 23
51.05
 33
0.0
  0
SOLID
  5
4B7
100
AcDbEntity
  8
SOLDERMASK_PADS_TOP
100
AcDbTrace
 10
24.0475
 20
48.55
 30
0.0
 11
24.3975
 21
48.55
 31
0.0
 12
24.0475
 22
51.05
 32
0.0
 13
24.3975
 23
51.05
 33
0.0
  0
SOLID
  5
4B8
100
AcDbEntity
  8
SOLDERMASK_PADS_TOP
100
AcDbTrace
 10
24.6825
 20
48.55
 30
0.0
 11
25.0325
 21
48.55
 31
0.0
 12
24.6825
 22
51.05
 32
0.0
 13
25.0325
 23
51.05
 33
0.0
  0
SOLID
  5
4B9
100
AcDbEntity
  8
SOLDERMASK_PADS_TOP
100
AcDbTrace
 10
25.3175
 20
48.55
 30
0.0
 11
25.6675
 21
48.55
 31
0.0
 12
25.3175
 22
51.05
 32
0.0
 13
25.6675
 23
51.05
 33
0.0
  0
SOLID
  5
4BA
100
AcDbEntity
  8
SOLDERMASK_PADS_TOP
100
AcDbTrace
 10
25.9525
 20
48.55
 30
0.0
 11
26.3025
 21
48.55
 31
0.0
 12
25.9525
 22
51.05
 32
0.0
 13
26.3025
 23
51.05
 33
0.0
  0
SOLID
  5
4BB
100
AcDbEntity
  8
SOLDERMASK_PADS_TOP
100
AcDbTrace
 10
26.5875
 20
48.55
 30
0.0
 11
26.9375
 21
48.55
 31
0.0
 12
26.5875
 22
51.05
 32
0.0
 13
26.9375
 23
51.05
 33
0.0
  0
SOLID
  5
4BC
100
AcDbEntity
  8
SOLDERMASK_PADS_TOP
100
AcDbTrace
 10
27.2225
 20
48.55
 30
0.0
 11
27.5725
 21
48.55
 31
0.0
 12
27.2225
 22
51.05
 32
0.0
 13
27.5725
 23
51.05
 33
0.0
  0
SOLID
  5
4BD
100
AcDbEntity
  8
SOLDERMASK_PADS_TOP
100
AcDbTrace
 10
27.8575
 20
48.55
 30
0.0
 11
28.2075
 21
48.55
 31
0.0
 12
27.8575
 22
51.05
 32
0.0
 13
28.2075
 23
51.05
 33
0.0
  0
SOLID
  5
4BE
100
AcDbEntity
  8
SOLDERMASK_PADS_TOP
100
AcDbTrace
 10
28.4925
 20
48.55
 30
0.0
 11
28.8425
 21
48.55
 31
0.0
 12
28.4925
 22
51.05
 32
0.0
 13
28.8425
 23
51.05
 33
0.0
  0
SOLID
  5
4BF
100
AcDbEntity
  8
SOLDERMASK_PADS_TOP
100
AcDbTrace
 10
29.1275
 20
48.55
 30
0.0
 11
29.4775
 21
48.55
 31
0.0
 12
29.1275
 22
51.05
 32
0.0
 13
29.4775
 23
51.05
 33
0.0
  0
SOLID
  5
4C0
100
AcDbEntity
  8
SOLDERMASK_PADS_TOP
100
AcDbTrace
 10
29.7625
 20
48.55
 30
0.0
 11
30.1125
 21
48.55
 31
0.0
 12
29.7625
 22
51.05
 32
0.0
 13
30.1125
 23
51.05
 33
0.0
  0
SOLID
  5
4C1
100
AcDbEntity
  8
SOLDERMASK_PADS_TOP
100
AcDbTrace
 10
30.3975
 20
48.55
 30
0.0
 11
30.7475
 21
48.55
 31
0.0
 12
30.3975
 22
51.05
 32
0.0
 13
30.7475
 23
51.05
 33
0.0
  0
SOLID
  5
4C2
100
AcDbEntity
  8
SOLDERMASK_PADS_TOP
100
AcDbTrace
 10
31.0325
 20
48.55
 30
0.0
 11
31.3825
 21
48.55
 31
0.0
 12
31.0325
 22
51.05
 32
0.0
 13
31.3825
 23
51.05
 33
0.0
  0
SOLID
  5
4C3
100
AcDbEntity
  8
SOLDERMASK_PADS_TOP
100
AcDbTrace
 10
31.6675
 20
48.55
 30
0.0
 11
32.0175
 21
48.55
 31
0.0
 12
31.6675
 22
51.05
 32
0.0
 13
32.0175
 23
51.05
 33
0.0
  0
SOLID
  5
4C4
100
AcDbEntity
  8
SOLDERMASK_PADS_TOP
100
AcDbTrace
 10
32.3025
 20
48.55
 30
0.0
 11
32.6525
 21
48.55
 31
0.0
 12
32.3025
 22
51.05
 32
0.0
 13
32.6525
 23
51.05
 33
0.0
  0
SOLID
  5
4C5
100
AcDbEntity
  8
SOLDERMASK_PADS_TOP
100
AcDbTrace
 10
32.9375
 20
48.55
 30
0.0
 11
33.2875
 21
48.55
 31
0.0
 12
32.9375
 22
51.05
 32
0.0
 13
33.2875
 23
51.05
 33
0.0
  0
SOLID
  5
4C6
100
AcDbEntity
  8
SOLDERMASK_PADS_TOP
100
AcDbTrace
 10
33.5725
 20
48.55
 30
0.0
 11
33.9225
 21
48.55
 31
0.0
 12
33.5725
 22
51.05
 32
0.0
 13
33.9225
 23
51.05
 33
0.0
  0
SOLID
  5
4C7
100
AcDbEntity
  8
SOLDERMASK_PADS_TOP
100
AcDbTrace
 10
34.2075
 20
48.55
 30
0.0
 11
34.5575
 21
48.55
 31
0.0
 12
34.2075
 22
51.05
 32
0.0
 13
34.5575
 23
51.05
 33
0.0
  0
SOLID
  5
4C8
100
AcDbEntity
  8
SOLDERMASK_PADS_TOP
100
AcDbTrace
 10
34.8425
 20
48.55
 30
0.0
 11
35.1925
 21
48.55
 31
0.0
 12
34.8425
 22
51.05
 32
0.0
 13
35.1925
 23
51.05
 33
0.0
  0
SOLID
  5
4C9
100
AcDbEntity
  8
SOLDERMASK_PADS_TOP
100
AcDbTrace
 10
35.4775
 20
48.55
 30
0.0
 11
35.8275
 21
48.55
 31
0.0
 12
35.4775
 22
51.05
 32
0.0
 13
35.8275
 23
51.05
 33
0.0
  0
SOLID
  5
4CA
100
AcDbEntity
  8
SOLDERMASK_PADS_TOP
100
AcDbTrace
 10
36.1125
 20
48.55
 30
0.0
 11
36.4625
 21
48.55
 31
0.0
 12
36.1125
 22
51.05
 32
0.0
 13
36.4625
 23
51.05
 33
0.0
  0
SOLID
  5
4CB
100
AcDbEntity
  8
SOLDERMASK_PADS_TOP
100
AcDbTrace
 10
36.7475
 20
48.55
 30
0.0
 11
37.0975
 21
48.55
 31
0.0
 12
36.7475
 22
51.05
 32
0.0
 13
37.0975
 23
51.05
 33
0.0
  0
SOLID
  5
4CC
100
AcDbEntity
  8
SOLDERMASK_PADS_TOP
100
AcDbTrace
 10
37.3825
 20
48.55
 30
0.0
 11
37.7325
 21
48.55
 31
0.0
 12
37.3825
 22
51.05
 32
0.0
 13
37.7325
 23
51.05
 33
0.0
  0
SOLID
  5
4CD
100
AcDbEntity
  8
SOLDERMASK_PADS_TOP
100
AcDbTrace
 10
38.0175
 20
48.55
 30
0.0
 11
38.3675
 21
48.55
 31
0.0
 12
38.0175
 22
51.05
 32
0.0
 13
38.3675
 23
51.05
 33
0.0
  0
SOLID
  5
4CE
100
AcDbEntity
  8
SOLDERMASK_PADS_TOP
100
AcDbTrace
 10
38.6525
 20
48.55
 30
0.0
 11
39.0025
 21
48.55
 31
0.0
 12
38.6525
 22
51.05
 32
0.0
 13
39.0025
 23
51.05
 33
0.0
  0
SOLID
  5
4CF
100
AcDbEntity
  8
SOLDERMASK_PADS_TOP
100
AcDbTrace
 10
39.2875
 20
48.55
 30
0.0
 11
39.6375
 21
48.55
 31
0.0
 12
39.2875
 22
51.05
 32
0.0
 13
39.6375
 23
51.05
 33
0.0
  0
SOLID
  5
4D0
100
AcDbEntity
  8
SOLDERMASK_PADS_TOP
100
AcDbTrace
 10
39.9225
 20
48.55
 30
0.0
 11
40.2725
 21
48.55
 31
0.0
 12
39.9225
 22
51.05
 32
0.0
 13
40.2725
 23
51.05
 33
0.0
  0
SOLID
  5
4D1
100
AcDbEntity
  8
SOLDERMASK_PADS_TOP
100
AcDbTrace
 10
40.5575
 20
48.55
 30
0.0
 11
40.9075
 21
48.55
 31
0.0
 12
40.5575
 22
51.05
 32
0.0
 13
40.9075
 23
51.05
 33
0.0
  0
SOLID
  5
4D2
100
AcDbEntity
  8
SOLDERMASK_PADS_TOP
100
AcDbTrace
 10
41.1925
 20
48.55
 30
0.0
 11
41.5425
 21
48.55
 31
0.0
 12
41.1925
 22
51.05
 32
0.0
 13
41.5425
 23
51.05
 33
0.0
  0
SOLID
  5
4D3
100
AcDbEntity
  8
SOLDERMASK_PADS_TOP
100
AcDbTrace
 10
41.8275
 20
48.55
 30
0.0
 11
42.1775
 21
48.55
 31
0.0
 12
41.8275
 22
51.05
 32
0.0
 13
42.1775
 23
51.05
 33
0.0
  0
SOLID
  5
4D4
100
AcDbEntity
  8
SOLDERMASK_PADS_TOP
100
AcDbTrace
 10
42.4625
 20
48.55
 30
0.0
 11
42.8125
 21
48.55
 31
0.0
 12
42.4625
 22
51.05
 32
0.0
 13
42.8125
 23
51.05
 33
0.0
  0
SOLID
  5
4D5
100
AcDbEntity
  8
SOLDERMASK_PADS_TOP
100
AcDbTrace
 10
43.0975
 20
48.55
 30
0.0
 11
43.4475
 21
48.55
 31
0.0
 12
43.0975
 22
51.05
 32
0.0
 13
43.4475
 23
51.05
 33
0.0
  0
SOLID
  5
4D6
100
AcDbEntity
  8
SOLDERMASK_PADS_TOP
100
AcDbTrace
 10
43.7325
 20
48.55
 30
0.0
 11
44.0825
 21
48.55
 31
0.0
 12
43.7325
 22
51.05
 32
0.0
 13
44.0825
 23
51.05
 33
0.0
  0
SOLID
  5
4D7
100
AcDbEntity
  8
SOLDERMASK_PADS_TOP
100
AcDbTrace
 10
44.3675
 20
48.55
 30
0.0
 11
44.7175
 21
48.55
 31
0.0
 12
44.3675
 22
51.05
 32
0.0
 13
44.7175
 23
51.05
 33
0.0
  0
SOLID
  5
4D8
100
AcDbEntity
  8
SOLDERMASK_PADS_TOP
100
AcDbTrace
 10
45.0025
 20
48.55
 30
0.0
 11
45.3525
 21
48.55
 31
0.0
 12
45.0025
 22
51.05
 32
0.0
 13
45.3525
 23
51.05
 33
0.0
  0
SOLID
  5
4D9
100
AcDbEntity
  8
SOLDERMASK_PADS_TOP
100
AcDbTrace
 10
45.6375
 20
48.55
 30
0.0
 11
45.9875
 21
48.55
 31
0.0
 12
45.6375
 22
51.05
 32
0.0
 13
45.9875
 23
51.05
 33
0.0
  0
SOLID
  5
4DA
100
AcDbEntity
  8
SOLDERMASK_PADS_TOP
100
AcDbTrace
 10
46.2725
 20
48.55
 30
0.0
 11
46.6225
 21
48.55
 31
0.0
 12
46.2725
 22
51.05
 32
0.0
 13
46.6225
 23
51.05
 33
0.0
  0
SOLID
  5
4DB
100
AcDbEntity
  8
SOLDERMASK_PADS_TOP
100
AcDbTrace
 10
46.9075
 20
48.55
 30
0.0
 11
47.2575
 21
48.55
 31
0.0
 12
46.9075
 22
51.05
 32
0.0
 13
47.2575
 23
51.05
 33
0.0
  0
SOLID
  5
4DC
100
AcDbEntity
  8
SOLDERMASK_PADS_TOP
100
AcDbTrace
 10
47.5425
 20
48.55
 30
0.0
 11
47.8925
 21
48.55
 31
0.0
 12
47.5425
 22
51.05
 32
0.0
 13
47.8925
 23
51.05
 33
0.0
  0
SOLID
  5
4DD
100
AcDbEntity
  8
SOLDERMASK_PADS_TOP
100
AcDbTrace
 10
48.1775
 20
48.55
 30
0.0
 11
48.5275
 21
48.55
 31
0.0
 12
48.1775
 22
51.05
 32
0.0
 13
48.5275
 23
51.05
 33
0.0
  0
SOLID
  5
4DE
100
AcDbEntity
  8
SOLDERMASK_PADS_TOP
100
AcDbTrace
 10
48.8125
 20
48.55
 30
0.0
 11
49.1625
 21
48.55
 31
0.0
 12
48.8125
 22
51.05
 32
0.0
 13
49.1625
 23
51.05
 33
0.0
  0
SOLID
  5
4DF
100
AcDbEntity
  8
SOLDERMASK_PADS_TOP
100
AcDbTrace
 10
49.4475
 20
48.55
 30
0.0
 11
49.7975
 21
48.55
 31
0.0
 12
49.4475
 22
51.05
 32
0.0
 13
49.7975
 23
51.05
 33
0.0
  0
SOLID
  5
4E0
100
AcDbEntity
  8
SOLDERMASK_PADS_TOP
100
AcDbTrace
 10
50.0825
 20
48.55
 30
0.0
 11
50.4325
 21
48.55
 31
0.0
 12
50.0825
 22
51.05
 32
0.0
 13
50.4325
 23
51.05
 33
0.0
  0
SOLID
  5
4E1
100
AcDbEntity
  8
SOLDERMASK_PADS_TOP
100
AcDbTrace
 10
50.7175
 20
48.55
 30
0.0
 11
51.0675
 21
48.55
 31
0.0
 12
50.7175
 22
51.05
 32
0.0
 13
51.0675
 23
51.05
 33
0.0
  0
SOLID
  5
4E2
100
AcDbEntity
  8
SOLDERMASK_PADS_TOP
100
AcDbTrace
 10
51.3525
 20
48.55
 30
0.0
 11
51.7025
 21
48.55
 31
0.0
 12
51.3525
 22
51.05
 32
0.0
 13
51.7025
 23
51.05
 33
0.0
  0
SOLID
  5
4E3
100
AcDbEntity
  8
SOLDERMASK_PADS_TOP
100
AcDbTrace
 10
51.9875
 20
48.55
 30
0.0
 11
52.3375
 21
48.55
 31
0.0
 12
51.9875
 22
51.05
 32
0.0
 13
52.3375
 23
51.05
 33
0.0
  0
SOLID
  5
4E4
100
AcDbEntity
  8
SOLDERMASK_PADS_TOP
100
AcDbTrace
 10
52.6225
 20
48.55
 30
0.0
 11
52.9725
 21
48.55
 31
0.0
 12
52.6225
 22
51.05
 32
0.0
 13
52.9725
 23
51.05
 33
0.0
  0
SOLID
  5
4E5
100
AcDbEntity
  8
SOLDERMASK_PADS_TOP
100
AcDbTrace
 10
53.2575
 20
48.55
 30
0.0
 11
53.6075
 21
48.55
 31
0.0
 12
53.2575
 22
51.05
 32
0.0
 13
53.6075
 23
51.05
 33
0.0
  0
SOLID
  5
4E6
100
AcDbEntity
  8
SOLDERMASK_PADS_TOP
100
AcDbTrace
 10
55.235
 20
46.6
 30
0.0
 11
57.735
 21
46.6
 31
0.0
 12
55.235
 22
48.6
 32
0.0
 13
57.735
 23
48.6
 33
0.0
  0
SOLID
  5
4E7
100
AcDbEntity
  8
SOLDERMASK_PADS_TOP
100
AcDbTrace
 10
-1.035
 20
46.6
 30
0.0
 11
1.465
 21
46.6
 31
0.0
 12
-1.035
 22
48.6
 32
0.0
 13
1.465
 23
48.6
 33
0.0
  0
SOLID
  5
4E8
100
AcDbEntity
  8
SOLDERMASK_PADS_TOP
100
AcDbTrace
 10
-1.03
 20
-1.0
 30
0.0
 11
1.47
 21
-1.0
 31
0.0
 12
-1.03
 22
1.0
 32
0.0
 13
1.47
 23
1.0
 33
0.0
  0
SOLID
  5
4E9
100
AcDbEntity
  8
SOLDERMASK_PADS_TOP
100
AcDbTrace
 10
55.23
 20
-1.0
 30
0.0
 11
57.73
 21
-1.0
 31
0.0
 12
55.23
 22
1.0
 32
0.0
 13
57.73
 23
1.0
 33
0.0
  0
SOLID
  5
4EA
100
AcDbEntity
  8
SOLDERPASTE_PADS_TOP
100
AcDbTrace
 10
3.1175
 20
-3.175
 30
0.0
 11
3.4175
 21
-3.175
 31
0.0
 12
3.1175
 22
-1.225
 32
0.0
 13
3.4175
 23
-1.225
 33
0.0
  0
SOLID
  5
4EB
100
AcDbEntity
  8
SOLDERPASTE_PADS_TOP
100
AcDbTrace
 10
3.7525
 20
-3.175
 30
0.0
 11
4.0525
 21
-3.175
 31
0.0
 12
3.7525
 22
-1.225
 32
0.0
 13
4.0525
 23
-1.225
 33
0.0
  0
SOLID
  5
4EC
100
AcDbEntity
  8
SOLDERPASTE_PADS_TOP
100
AcDbTrace
 10
4.3875
 20
-3.175
 30
0.0
 11
4.6875
 21
-3.175
 31
0.0
 12
4.3875
 22
-1.225
 32
0.0
 13
4.6875
 23
-1.225
 33
0.0
  0
SOLID
  5
4ED
100
AcDbEntity
  8
SOLDERPASTE_PADS_TOP
100
AcDbTrace
 10
5.0225
 20
-3.175
 30
0.0
 11
5.3225
 21
-3.175
 31
0.0
 12
5.0225
 22
-1.225
 32
0.0
 13
5.3225
 23
-1.225
 33
0.0
  0
SOLID
  5
4EE
100
AcDbEntity
  8
SOLDERPASTE_PADS_TOP
100
AcDbTrace
 10
5.6575
 20
-3.175
 30
0.0
 11
5.9575
 21
-3.175
 31
0.0
 12
5.6575
 22
-1.225
 32
0.0
 13
5.9575
 23
-1.225
 33
0.0
  0
SOLID
  5
4EF
100
AcDbEntity
  8
SOLDERPASTE_PADS_TOP
100
AcDbTrace
 10
6.2925
 20
-3.175
 30
0.0
 11
6.5925
 21
-3.175
 31
0.0
 12
6.2925
 22
-1.225
 32
0.0
 13
6.5925
 23
-1.225
 33
0.0
  0
SOLID
  5
4F0
100
AcDbEntity
  8
SOLDERPASTE_PADS_TOP
100
AcDbTrace
 10
6.9275
 20
-3.175
 30
0.0
 11
7.2275
 21
-3.175
 31
0.0
 12
6.9275
 22
-1.225
 32
0.0
 13
7.2275
 23
-1.225
 33
0.0
  0
SOLID
  5
4F1
100
AcDbEntity
  8
SOLDERPASTE_PADS_TOP
100
AcDbTrace
 10
7.5625
 20
-3.175
 30
0.0
 11
7.8625
 21
-3.175
 31
0.0
 12
7.5625
 22
-1.225
 32
0.0
 13
7.8625
 23
-1.225
 33
0.0
  0
SOLID
  5
4F2
100
AcDbEntity
  8
SOLDERPASTE_PADS_TOP
100
AcDbTrace
 10
8.1975
 20
-3.175
 30
0.0
 11
8.4975
 21
-3.175
 31
0.0
 12
8.1975
 22
-1.225
 32
0.0
 13
8.4975
 23
-1.225
 33
0.0
  0
SOLID
  5
4F3
100
AcDbEntity
  8
SOLDERPASTE_PADS_TOP
100
AcDbTrace
 10
8.8325
 20
-3.175
 30
0.0
 11
9.1325
 21
-3.175
 31
0.0
 12
8.8325
 22
-1.225
 32
0.0
 13
9.1325
 23
-1.225
 33
0.0
  0
SOLID
  5
4F4
100
AcDbEntity
  8
SOLDERPASTE_PADS_TOP
100
AcDbTrace
 10
9.4675
 20
-3.175
 30
0.0
 11
9.7675
 21
-3.175
 31
0.0
 12
9.4675
 22
-1.225
 32
0.0
 13
9.7675
 23
-1.225
 33
0.0
  0
SOLID
  5
4F5
100
AcDbEntity
  8
SOLDERPASTE_PADS_TOP
100
AcDbTrace
 10
10.1025
 20
-3.175
 30
0.0
 11
10.4025
 21
-3.175
 31
0.0
 12
10.1025
 22
-1.225
 32
0.0
 13
10.4025
 23
-1.225
 33
0.0
  0
SOLID
  5
4F6
100
AcDbEntity
  8
SOLDERPASTE_PADS_TOP
100
AcDbTrace
 10
10.7375
 20
-3.175
 30
0.0
 11
11.0375
 21
-3.175
 31
0.0
 12
10.7375
 22
-1.225
 32
0.0
 13
11.0375
 23
-1.225
 33
0.0
  0
SOLID
  5
4F7
100
AcDbEntity
  8
SOLDERPASTE_PADS_TOP
100
AcDbTrace
 10
11.3725
 20
-3.175
 30
0.0
 11
11.6725
 21
-3.175
 31
0.0
 12
11.3725
 22
-1.225
 32
0.0
 13
11.6725
 23
-1.225
 33
0.0
  0
SOLID
  5
4F8
100
AcDbEntity
  8
SOLDERPASTE_PADS_TOP
100
AcDbTrace
 10
12.0075
 20
-3.175
 30
0.0
 11
12.3075
 21
-3.175
 31
0.0
 12
12.0075
 22
-1.225
 32
0.0
 13
12.3075
 23
-1.225
 33
0.0
  0
SOLID
  5
4F9
100
AcDbEntity
  8
SOLDERPASTE_PADS_TOP
100
AcDbTrace
 10
12.6425
 20
-3.175
 30
0.0
 11
12.9425
 21
-3.175
 31
0.0
 12
12.6425
 22
-1.225
 32
0.0
 13
12.9425
 23
-1.225
 33
0.0
  0
SOLID
  5
4FA
100
AcDbEntity
  8
SOLDERPASTE_PADS_TOP
100
AcDbTrace
 10
13.2775
 20
-3.175
 30
0.0
 11
13.5775
 21
-3.175
 31
0.0
 12
13.2775
 22
-1.225
 32
0.0
 13
13.5775
 23
-1.225
 33
0.0
  0
SOLID
  5
4FB
100
AcDbEntity
  8
SOLDERPASTE_PADS_TOP
100
AcDbTrace
 10
13.9125
 20
-3.175
 30
0.0
 11
14.2125
 21
-3.175
 31
0.0
 12
13.9125
 22
-1.225
 32
0.0
 13
14.2125
 23
-1.225
 33
0.0
  0
SOLID
  5
4FC
100
AcDbEntity
  8
SOLDERPASTE_PADS_TOP
100
AcDbTrace
 10
14.5475
 20
-3.175
 30
0.0
 11
14.8475
 21
-3.175
 31
0.0
 12
14.5475
 22
-1.225
 32
0.0
 13
14.8475
 23
-1.225
 33
0.0
  0
SOLID
  5
4FD
100
AcDbEntity
  8
SOLDERPASTE_PADS_TOP
100
AcDbTrace
 10
15.1825
 20
-3.175
 30
0.0
 11
15.4825
 21
-3.175
 31
0.0
 12
15.1825
 22
-1.225
 32
0.0
 13
15.4825
 23
-1.225
 33
0.0
  0
SOLID
  5
4FE
100
AcDbEntity
  8
SOLDERPASTE_PADS_TOP
100
AcDbTrace
 10
15.8175
 20
-3.175
 30
0.0
 11
16.1175
 21
-3.175
 31
0.0
 12
15.8175
 22
-1.225
 32
0.0
 13
16.1175
 23
-1.225
 33
0.0
  0
SOLID
  5
4FF
100
AcDbEntity
  8
SOLDERPASTE_PADS_TOP
100
AcDbTrace
 10
16.4525
 20
-3.175
 30
0.0
 11
16.7525
 21
-3.175
 31
0.0
 12
16.4525
 22
-1.225
 32
0.0
 13
16.7525
 23
-1.225
 33
0.0
  0
SOLID
  5
500
100
AcDbEntity
  8
SOLDERPASTE_PADS_TOP
100
AcDbTrace
 10
17.0875
 20
-3.175
 30
0.0
 11
17.3875
 21
-3.175
 31
0.0
 12
17.0875
 22
-1.225
 32
0.0
 13
17.3875
 23
-1.225
 33
0.0
  0
SOLID
  5
501
100
AcDbEntity
  8
SOLDERPASTE_PADS_TOP
100
AcDbTrace
 10
17.7225
 20
-3.175
 30
0.0
 11
18.0225
 21
-3.175
 31
0.0
 12
17.7225
 22
-1.225
 32
0.0
 13
18.0225
 23
-1.225
 33
0.0
  0
SOLID
  5
502
100
AcDbEntity
  8
SOLDERPASTE_PADS_TOP
100
AcDbTrace
 10
18.3575
 20
-3.175
 30
0.0
 11
18.6575
 21
-3.175
 31
0.0
 12
18.3575
 22
-1.225
 32
0.0
 13
18.6575
 23
-1.225
 33
0.0
  0
SOLID
  5
503
100
AcDbEntity
  8
SOLDERPASTE_PADS_TOP
100
AcDbTrace
 10
18.9925
 20
-3.175
 30
0.0
 11
19.2925
 21
-3.175
 31
0.0
 12
18.9925
 22
-1.225
 32
0.0
 13
19.2925
 23
-1.225
 33
0.0
  0
SOLID
  5
504
100
AcDbEntity
  8
SOLDERPASTE_PADS_TOP
100
AcDbTrace
 10
19.6275
 20
-3.175
 30
0.0
 11
19.9275
 21
-3.175
 31
0.0
 12
19.6275
 22
-1.225
 32
0.0
 13
19.9275
 23
-1.225
 33
0.0
  0
SOLID
  5
505
100
AcDbEntity
  8
SOLDERPASTE_PADS_TOP
100
AcDbTrace
 10
20.2625
 20
-3.175
 30
0.0
 11
20.5625
 21
-3.175
 31
0.0
 12
20.2625
 22
-1.225
 32
0.0
 13
20.5625
 23
-1.225
 33
0.0
  0
SOLID
  5
506
100
AcDbEntity
  8
SOLDERPASTE_PADS_TOP
100
AcDbTrace
 10
20.8975
 20
-3.175
 30
0.0
 11
21.1975
 21
-3.175
 31
0.0
 12
20.8975
 22
-1.225
 32
0.0
 13
21.1975
 23
-1.225
 33
0.0
  0
SOLID
  5
507
100
AcDbEntity
  8
SOLDERPASTE_PADS_TOP
100
AcDbTrace
 10
21.5325
 20
-3.175
 30
0.0
 11
21.8325
 21
-3.175
 31
0.0
 12
21.5325
 22
-1.225
 32
0.0
 13
21.8325
 23
-1.225
 33
0.0
  0
SOLID
  5
508
100
AcDbEntity
  8
SOLDERPASTE_PADS_TOP
100
AcDbTrace
 10
22.1675
 20
-3.175
 30
0.0
 11
22.4675
 21
-3.175
 31
0.0
 12
22.1675
 22
-1.225
 32
0.0
 13
22.4675
 23
-1.225
 33
0.0
  0
SOLID
  5
509
100
AcDbEntity
  8
SOLDERPASTE_PADS_TOP
100
AcDbTrace
 10
22.8025
 20
-3.175
 30
0.0
 11
23.1025
 21
-3.175
 31
0.0
 12
22.8025
 22
-1.225
 32
0.0
 13
23.1025
 23
-1.225
 33
0.0
  0
SOLID
  5
50A
100
AcDbEntity
  8
SOLDERPASTE_PADS_TOP
100
AcDbTrace
 10
23.4375
 20
-3.175
 30
0.0
 11
23.7375
 21
-3.175
 31
0.0
 12
23.4375
 22
-1.225
 32
0.0
 13
23.7375
 23
-1.225
 33
0.0
  0
SOLID
  5
50B
100
AcDbEntity
  8
SOLDERPASTE_PADS_TOP
100
AcDbTrace
 10
24.0725
 20
-3.175
 30
0.0
 11
24.3725
 21
-3.175
 31
0.0
 12
24.0725
 22
-1.225
 32
0.0
 13
24.3725
 23
-1.225
 33
0.0
  0
SOLID
  5
50C
100
AcDbEntity
  8
SOLDERPASTE_PADS_TOP
100
AcDbTrace
 10
24.7075
 20
-3.175
 30
0.0
 11
25.0075
 21
-3.175
 31
0.0
 12
24.7075
 22
-1.225
 32
0.0
 13
25.0075
 23
-1.225
 33
0.0
  0
SOLID
  5
50D
100
AcDbEntity
  8
SOLDERPASTE_PADS_TOP
100
AcDbTrace
 10
25.3425
 20
-3.175
 30
0.0
 11
25.6425
 21
-3.175
 31
0.0
 12
25.3425
 22
-1.225
 32
0.0
 13
25.6425
 23
-1.225
 33
0.0
  0
SOLID
  5
50E
100
AcDbEntity
  8
SOLDERPASTE_PADS_TOP
100
AcDbTrace
 10
25.9775
 20
-3.175
 30
0.0
 11
26.2775
 21
-3.175
 31
0.0
 12
25.9775
 22
-1.225
 32
0.0
 13
26.2775
 23
-1.225
 33
0.0
  0
SOLID
  5
50F
100
AcDbEntity
  8
SOLDERPASTE_PADS_TOP
100
AcDbTrace
 10
26.6125
 20
-3.175
 30
0.0
 11
26.9125
 21
-3.175
 31
0.0
 12
26.6125
 22
-1.225
 32
0.0
 13
26.9125
 23
-1.225
 33
0.0
  0
SOLID
  5
510
100
AcDbEntity
  8
SOLDERPASTE_PADS_TOP
100
AcDbTrace
 10
27.2475
 20
-3.175
 30
0.0
 11
27.5475
 21
-3.175
 31
0.0
 12
27.2475
 22
-1.225
 32
0.0
 13
27.5475
 23
-1.225
 33
0.0
  0
SOLID
  5
511
100
AcDbEntity
  8
SOLDERPASTE_PADS_TOP
100
AcDbTrace
 10
27.8825
 20
-3.175
 30
0.0
 11
28.1825
 21
-3.175
 31
0.0
 12
27.8825
 22
-1.225
 32
0.0
 13
28.1825
 23
-1.225
 33
0.0
  0
SOLID
  5
512
100
AcDbEntity
  8
SOLDERPASTE_PADS_TOP
100
AcDbTrace
 10
28.5175
 20
-3.175
 30
0.0
 11
28.8175
 21
-3.175
 31
0.0
 12
28.5175
 22
-1.225
 32
0.0
 13
28.8175
 23
-1.225
 33
0.0
  0
SOLID
  5
513
100
AcDbEntity
  8
SOLDERPASTE_PADS_TOP
100
AcDbTrace
 10
29.1525
 20
-3.175
 30
0.0
 11
29.4525
 21
-3.175
 31
0.0
 12
29.1525
 22
-1.225
 32
0.0
 13
29.4525
 23
-1.225
 33
0.0
  0
SOLID
  5
514
100
AcDbEntity
  8
SOLDERPASTE_PADS_TOP
100
AcDbTrace
 10
29.7875
 20
-3.175
 30
0.0
 11
30.0875
 21
-3.175
 31
0.0
 12
29.7875
 22
-1.225
 32
0.0
 13
30.0875
 23
-1.225
 33
0.0
  0
SOLID
  5
515
100
AcDbEntity
  8
SOLDERPASTE_PADS_TOP
100
AcDbTrace
 10
30.4225
 20
-3.175
 30
0.0
 11
30.7225
 21
-3.175
 31
0.0
 12
30.4225
 22
-1.225
 32
0.0
 13
30.7225
 23
-1.225
 33
0.0
  0
SOLID
  5
516
100
AcDbEntity
  8
SOLDERPASTE_PADS_TOP
100
AcDbTrace
 10
31.0575
 20
-3.175
 30
0.0
 11
31.3575
 21
-3.175
 31
0.0
 12
31.0575
 22
-1.225
 32
0.0
 13
31.3575
 23
-1.225
 33
0.0
  0
SOLID
  5
517
100
AcDbEntity
  8
SOLDERPASTE_PADS_TOP
100
AcDbTrace
 10
31.6925
 20
-3.175
 30
0.0
 11
31.9925
 21
-3.175
 31
0.0
 12
31.6925
 22
-1.225
 32
0.0
 13
31.9925
 23
-1.225
 33
0.0
  0
SOLID
  5
518
100
AcDbEntity
  8
SOLDERPASTE_PADS_TOP
100
AcDbTrace
 10
32.3275
 20
-3.175
 30
0.0
 11
32.6275
 21
-3.175
 31
0.0
 12
32.3275
 22
-1.225
 32
0.0
 13
32.6275
 23
-1.225
 33
0.0
  0
SOLID
  5
519
100
AcDbEntity
  8
SOLDERPASTE_PADS_TOP
100
AcDbTrace
 10
32.9625
 20
-3.175
 30
0.0
 11
33.2625
 21
-3.175
 31
0.0
 12
32.9625
 22
-1.225
 32
0.0
 13
33.2625
 23
-1.225
 33
0.0
  0
SOLID
  5
51A
100
AcDbEntity
  8
SOLDERPASTE_PADS_TOP
100
AcDbTrace
 10
33.5975
 20
-3.175
 30
0.0
 11
33.8975
 21
-3.175
 31
0.0
 12
33.5975
 22
-1.225
 32
0.0
 13
33.8975
 23
-1.225
 33
0.0
  0
SOLID
  5
51B
100
AcDbEntity
  8
SOLDERPASTE_PADS_TOP
100
AcDbTrace
 10
34.2325
 20
-3.175
 30
0.0
 11
34.5325
 21
-3.175
 31
0.0
 12
34.2325
 22
-1.225
 32
0.0
 13
34.5325
 23
-1.225
 33
0.0
  0
SOLID
  5
51C
100
AcDbEntity
  8
SOLDERPASTE_PADS_TOP
100
AcDbTrace
 10
34.8675
 20
-3.175
 30
0.0
 11
35.1675
 21
-3.175
 31
0.0
 12
34.8675
 22
-1.225
 32
0.0
 13
35.1675
 23
-1.225
 33
0.0
  0
SOLID
  5
51D
100
AcDbEntity
  8
SOLDERPASTE_PADS_TOP
100
AcDbTrace
 10
35.5025
 20
-3.175
 30
0.0
 11
35.8025
 21
-3.175
 31
0.0
 12
35.5025
 22
-1.225
 32
0.0
 13
35.8025
 23
-1.225
 33
0.0
  0
SOLID
  5
51E
100
AcDbEntity
  8
SOLDERPASTE_PADS_TOP
100
AcDbTrace
 10
36.1375
 20
-3.175
 30
0.0
 11
36.4375
 21
-3.175
 31
0.0
 12
36.1375
 22
-1.225
 32
0.0
 13
36.4375
 23
-1.225
 33
0.0
  0
SOLID
  5
51F
100
AcDbEntity
  8
SOLDERPASTE_PADS_TOP
100
AcDbTrace
 10
36.7725
 20
-3.175
 30
0.0
 11
37.0725
 21
-3.175
 31
0.0
 12
36.7725
 22
-1.225
 32
0.0
 13
37.0725
 23
-1.225
 33
0.0
  0
SOLID
  5
520
100
AcDbEntity
  8
SOLDERPASTE_PADS_TOP
100
AcDbTrace
 10
37.4075
 20
-3.175
 30
0.0
 11
37.7075
 21
-3.175
 31
0.0
 12
37.4075
 22
-1.225
 32
0.0
 13
37.7075
 23
-1.225
 33
0.0
  0
SOLID
  5
521
100
AcDbEntity
  8
SOLDERPASTE_PADS_TOP
100
AcDbTrace
 10
38.0425
 20
-3.175
 30
0.0
 11
38.3425
 21
-3.175
 31
0.0
 12
38.0425
 22
-1.225
 32
0.0
 13
38.3425
 23
-1.225
 33
0.0
  0
SOLID
  5
522
100
AcDbEntity
  8
SOLDERPASTE_PADS_TOP
100
AcDbTrace
 10
38.6775
 20
-3.175
 30
0.0
 11
38.9775
 21
-3.175
 31
0.0
 12
38.6775
 22
-1.225
 32
0.0
 13
38.9775
 23
-1.225
 33
0.0
  0
SOLID
  5
523
100
AcDbEntity
  8
SOLDERPASTE_PADS_TOP
100
AcDbTrace
 10
39.3125
 20
-3.175
 30
0.0
 11
39.6125
 21
-3.175
 31
0.0
 12
39.3125
 22
-1.225
 32
0.0
 13
39.6125
 23
-1.225
 33
0.0
  0
SOLID
  5
524
100
AcDbEntity
  8
SOLDERPASTE_PADS_TOP
100
AcDbTrace
 10
39.9475
 20
-3.175
 30
0.0
 11
40.2475
 21
-3.175
 31
0.0
 12
39.9475
 22
-1.225
 32
0.0
 13
40.2475
 23
-1.225
 33
0.0
  0
SOLID
  5
525
100
AcDbEntity
  8
SOLDERPASTE_PADS_TOP
100
AcDbTrace
 10
40.5825
 20
-3.175
 30
0.0
 11
40.8825
 21
-3.175
 31
0.0
 12
40.5825
 22
-1.225
 32
0.0
 13
40.8825
 23
-1.225
 33
0.0
  0
SOLID
  5
526
100
AcDbEntity
  8
SOLDERPASTE_PADS_TOP
100
AcDbTrace
 10
41.2175
 20
-3.175
 30
0.0
 11
41.5175
 21
-3.175
 31
0.0
 12
41.2175
 22
-1.225
 32
0.0
 13
41.5175
 23
-1.225
 33
0.0
  0
SOLID
  5
527
100
AcDbEntity
  8
SOLDERPASTE_PADS_TOP
100
AcDbTrace
 10
41.8525
 20
-3.175
 30
0.0
 11
42.1525
 21
-3.175
 31
0.0
 12
41.8525
 22
-1.225
 32
0.0
 13
42.1525
 23
-1.225
 33
0.0
  0
SOLID
  5
528
100
AcDbEntity
  8
SOLDERPASTE_PADS_TOP
100
AcDbTrace
 10
42.4875
 20
-3.175
 30
0.0
 11
42.7875
 21
-3.175
 31
0.0
 12
42.4875
 22
-1.225
 32
0.0
 13
42.7875
 23
-1.225
 33
0.0
  0
SOLID
  5
529
100
AcDbEntity
  8
SOLDERPASTE_PADS_TOP
100
AcDbTrace
 10
43.1225
 20
-3.175
 30
0.0
 11
43.4225
 21
-3.175
 31
0.0
 12
43.1225
 22
-1.225
 32
0.0
 13
43.4225
 23
-1.225
 33
0.0
  0
SOLID
  5
52A
100
AcDbEntity
  8
SOLDERPASTE_PADS_TOP
100
AcDbTrace
 10
43.7575
 20
-3.175
 30
0.0
 11
44.0575
 21
-3.175
 31
0.0
 12
43.7575
 22
-1.225
 32
0.0
 13
44.0575
 23
-1.225
 33
0.0
  0
SOLID
  5
52B
100
AcDbEntity
  8
SOLDERPASTE_PADS_TOP
100
AcDbTrace
 10
44.3925
 20
-3.175
 30
0.0
 11
44.6925
 21
-3.175
 31
0.0
 12
44.3925
 22
-1.225
 32
0.0
 13
44.6925
 23
-1.225
 33
0.0
  0
SOLID
  5
52C
100
AcDbEntity
  8
SOLDERPASTE_PADS_TOP
100
AcDbTrace
 10
45.0275
 20
-3.175
 30
0.0
 11
45.3275
 21
-3.175
 31
0.0
 12
45.0275
 22
-1.225
 32
0.0
 13
45.3275
 23
-1.225
 33
0.0
  0
SOLID
  5
52D
100
AcDbEntity
  8
SOLDERPASTE_PADS_TOP
100
AcDbTrace
 10
45.6625
 20
-3.175
 30
0.0
 11
45.9625
 21
-3.175
 31
0.0
 12
45.6625
 22
-1.225
 32
0.0
 13
45.9625
 23
-1.225
 33
0.0
  0
SOLID
  5
52E
100
AcDbEntity
  8
SOLDERPASTE_PADS_TOP
100
AcDbTrace
 10
46.2975
 20
-3.175
 30
0.0
 11
46.5975
 21
-3.175
 31
0.0
 12
46.2975
 22
-1.225
 32
0.0
 13
46.5975
 23
-1.225
 33
0.0
  0
SOLID
  5
52F
100
AcDbEntity
  8
SOLDERPASTE_PADS_TOP
100
AcDbTrace
 10
46.9325
 20
-3.175
 30
0.0
 11
47.2325
 21
-3.175
 31
0.0
 12
46.9325
 22
-1.225
 32
0.0
 13
47.2325
 23
-1.225
 33
0.0
  0
SOLID
  5
530
100
AcDbEntity
  8
SOLDERPASTE_PADS_TOP
100
AcDbTrace
 10
47.5675
 20
-3.175
 30
0.0
 11
47.8675
 21
-3.175
 31
0.0
 12
47.5675
 22
-1.225
 32
0.0
 13
47.8675
 23
-1.225
 33
0.0
  0
SOLID
  5
531
100
AcDbEntity
  8
SOLDERPASTE_PADS_TOP
100
AcDbTrace
 10
48.2025
 20
-3.175
 30
0.0
 11
48.5025
 21
-3.175
 31
0.0
 12
48.2025
 22
-1.225
 32
0.0
 13
48.5025
 23
-1.225
 33
0.0
  0
SOLID
  5
532
100
AcDbEntity
  8
SOLDERPASTE_PADS_TOP
100
AcDbTrace
 10
48.8375
 20
-3.175
 30
0.0
 11
49.1375
 21
-3.175
 31
0.0
 12
48.8375
 22
-1.225
 32
0.0
 13
49.1375
 23
-1.225
 33
0.0
  0
SOLID
  5
533
100
AcDbEntity
  8
SOLDERPASTE_PADS_TOP
100
AcDbTrace
 10
49.4725
 20
-3.175
 30
0.0
 11
49.7725
 21
-3.175
 31
0.0
 12
49.4725
 22
-1.225
 32
0.0
 13
49.7725
 23
-1.225
 33
0.0
  0
SOLID
  5
534
100
AcDbEntity
  8
SOLDERPASTE_PADS_TOP
100
AcDbTrace
 10
50.1075
 20
-3.175
 30
0.0
 11
50.4075
 21
-3.175
 31
0.0
 12
50.1075
 22
-1.225
 32
0.0
 13
50.4075
 23
-1.225
 33
0.0
  0
SOLID
  5
535
100
AcDbEntity
  8
SOLDERPASTE_PADS_TOP
100
AcDbTrace
 10
50.7425
 20
-3.175
 30
0.0
 11
51.0425
 21
-3.175
 31
0.0
 12
50.7425
 22
-1.225
 32
0.0
 13
51.0425
 23
-1.225
 33
0.0
  0
SOLID
  5
536
100
AcDbEntity
  8
SOLDERPASTE_PADS_TOP
100
AcDbTrace
 10
51.3775
 20
-3.175
 30
0.0
 11
51.6775
 21
-3.175
 31
0.0
 12
51.3775
 22
-1.225
 32
0.0
 13
51.6775
 23
-1.225
 33
0.0
  0
SOLID
  5
537
100
AcDbEntity
  8
SOLDERPASTE_PADS_TOP
100
AcDbTrace
 10
52.0125
 20
-3.175
 30
0.0
 11
52.3125
 21
-3.175
 31
0.0
 12
52.0125
 22
-1.225
 32
0.0
 13
52.3125
 23
-1.225
 33
0.0
  0
SOLID
  5
538
100
AcDbEntity
  8
SOLDERPASTE_PADS_TOP
100
AcDbTrace
 10
52.6475
 20
-3.175
 30
0.0
 11
52.9475
 21
-3.175
 31
0.0
 12
52.6475
 22
-1.225
 32
0.0
 13
52.9475
 23
-1.225
 33
0.0
  0
SOLID
  5
539
100
AcDbEntity
  8
SOLDERPASTE_PADS_TOP
100
AcDbTrace
 10
53.2825
 20
-3.175
 30
0.0
 11
53.5825
 21
-3.175
 31
0.0
 12
53.2825
 22
-1.225
 32
0.0
 13
53.5825
 23
-1.225
 33
0.0
  0
SOLID
  5
53A
100
AcDbEntity
  8
SOLDERPASTE_PADS_TOP
100
AcDbTrace
 10
3.1175
 20
1.225
 30
0.0
 11
3.4175
 21
1.225
 31
0.0
 12
3.1175
 22
3.175
 32
0.0
 13
3.4175
 23
3.175
 33
0.0
  0
SOLID
  5
53B
100
AcDbEntity
  8
SOLDERPASTE_PADS_TOP
100
AcDbTrace
 10
3.7525
 20
1.225
 30
0.0
 11
4.0525
 21
1.225
 31
0.0
 12
3.7525
 22
3.175
 32
0.0
 13
4.0525
 23
3.175
 33
0.0
  0
SOLID
  5
53C
100
AcDbEntity
  8
SOLDERPASTE_PADS_TOP
100
AcDbTrace
 10
4.3875
 20
1.225
 30
0.0
 11
4.6875
 21
1.225
 31
0.0
 12
4.3875
 22
3.175
 32
0.0
 13
4.6875
 23
3.175
 33
0.0
  0
SOLID
  5
53D
100
AcDbEntity
  8
SOLDERPASTE_PADS_TOP
100
AcDbTrace
 10
5.0225
 20
1.225
 30
0.0
 11
5.3225
 21
1.225
 31
0.0
 12
5.0225
 22
3.175
 32
0.0
 13
5.3225
 23
3.175
 33
0.0
  0
SOLID
  5
53E
100
AcDbEntity
  8
SOLDERPASTE_PADS_TOP
100
AcDbTrace
 10
5.6575
 20
1.225
 30
0.0
 11
5.9575
 21
1.225
 31
0.0
 12
5.6575
 22
3.175
 32
0.0
 13
5.9575
 23
3.175
 33
0.0
  0
SOLID
  5
53F
100
AcDbEntity
  8
SOLDERPASTE_PADS_TOP
100
AcDbTrace
 10
6.2925
 20
1.225
 30
0.0
 11
6.5925
 21
1.225
 31
0.0
 12
6.2925
 22
3.175
 32
0.0
 13
6.5925
 23
3.175
 33
0.0
  0
SOLID
  5
540
100
AcDbEntity
  8
SOLDERPASTE_PADS_TOP
100
AcDbTrace
 10
6.9275
 20
1.225
 30
0.0
 11
7.2275
 21
1.225
 31
0.0
 12
6.9275
 22
3.175
 32
0.0
 13
7.2275
 23
3.175
 33
0.0
  0
SOLID
  5
541
100
AcDbEntity
  8
SOLDERPASTE_PADS_TOP
100
AcDbTrace
 10
7.5625
 20
1.225
 30
0.0
 11
7.8625
 21
1.225
 31
0.0
 12
7.5625
 22
3.175
 32
0.0
 13
7.8625
 23
3.175
 33
0.0
  0
SOLID
  5
542
100
AcDbEntity
  8
SOLDERPASTE_PADS_TOP
100
AcDbTrace
 10
8.1975
 20
1.225
 30
0.0
 11
8.4975
 21
1.225
 31
0.0
 12
8.1975
 22
3.175
 32
0.0
 13
8.4975
 23
3.175
 33
0.0
  0
SOLID
  5
543
100
AcDbEntity
  8
SOLDERPASTE_PADS_TOP
100
AcDbTrace
 10
8.8325
 20
1.225
 30
0.0
 11
9.1325
 21
1.225
 31
0.0
 12
8.8325
 22
3.175
 32
0.0
 13
9.1325
 23
3.175
 33
0.0
  0
SOLID
  5
544
100
AcDbEntity
  8
SOLDERPASTE_PADS_TOP
100
AcDbTrace
 10
9.4675
 20
1.225
 30
0.0
 11
9.7675
 21
1.225
 31
0.0
 12
9.4675
 22
3.175
 32
0.0
 13
9.7675
 23
3.175
 33
0.0
  0
SOLID
  5
545
100
AcDbEntity
  8
SOLDERPASTE_PADS_TOP
100
AcDbTrace
 10
10.1025
 20
1.225
 30
0.0
 11
10.4025
 21
1.225
 31
0.0
 12
10.1025
 22
3.175
 32
0.0
 13
10.4025
 23
3.175
 33
0.0
  0
SOLID
  5
546
100
AcDbEntity
  8
SOLDERPASTE_PADS_TOP
100
AcDbTrace
 10
10.7375
 20
1.225
 30
0.0
 11
11.0375
 21
1.225
 31
0.0
 12
10.7375
 22
3.175
 32
0.0
 13
11.0375
 23
3.175
 33
0.0
  0
SOLID
  5
547
100
AcDbEntity
  8
SOLDERPASTE_PADS_TOP
100
AcDbTrace
 10
11.3725
 20
1.225
 30
0.0
 11
11.6725
 21
1.225
 31
0.0
 12
11.3725
 22
3.175
 32
0.0
 13
11.6725
 23
3.175
 33
0.0
  0
SOLID
  5
548
100
AcDbEntity
  8
SOLDERPASTE_PADS_TOP
100
AcDbTrace
 10
12.0075
 20
1.225
 30
0.0
 11
12.3075
 21
1.225
 31
0.0
 12
12.0075
 22
3.175
 32
0.0
 13
12.3075
 23
3.175
 33
0.0
  0
SOLID
  5
549
100
AcDbEntity
  8
SOLDERPASTE_PADS_TOP
100
AcDbTrace
 10
12.6425
 20
1.225
 30
0.0
 11
12.9425
 21
1.225
 31
0.0
 12
12.6425
 22
3.175
 32
0.0
 13
12.9425
 23
3.175
 33
0.0
  0
SOLID
  5
54A
100
AcDbEntity
  8
SOLDERPASTE_PADS_TOP
100
AcDbTrace
 10
13.2775
 20
1.225
 30
0.0
 11
13.5775
 21
1.225
 31
0.0
 12
13.2775
 22
3.175
 32
0.0
 13
13.5775
 23
3.175
 33
0.0
  0
SOLID
  5
54B
100
AcDbEntity
  8
SOLDERPASTE_PADS_TOP
100
AcDbTrace
 10
13.9125
 20
1.225
 30
0.0
 11
14.2125
 21
1.225
 31
0.0
 12
13.9125
 22
3.175
 32
0.0
 13
14.2125
 23
3.175
 33
0.0
  0
SOLID
  5
54C
100
AcDbEntity
  8
SOLDERPASTE_PADS_TOP
100
AcDbTrace
 10
14.5475
 20
1.225
 30
0.0
 11
14.8475
 21
1.225
 31
0.0
 12
14.5475
 22
3.175
 32
0.0
 13
14.8475
 23
3.175
 33
0.0
  0
SOLID
  5
54D
100
AcDbEntity
  8
SOLDERPASTE_PADS_TOP
100
AcDbTrace
 10
15.1825
 20
1.225
 30
0.0
 11
15.4825
 21
1.225
 31
0.0
 12
15.1825
 22
3.175
 32
0.0
 13
15.4825
 23
3.175
 33
0.0
  0
SOLID
  5
54E
100
AcDbEntity
  8
SOLDERPASTE_PADS_TOP
100
AcDbTrace
 10
15.8175
 20
1.225
 30
0.0
 11
16.1175
 21
1.225
 31
0.0
 12
15.8175
 22
3.175
 32
0.0
 13
16.1175
 23
3.175
 33
0.0
  0
SOLID
  5
54F
100
AcDbEntity
  8
SOLDERPASTE_PADS_TOP
100
AcDbTrace
 10
16.4525
 20
1.225
 30
0.0
 11
16.7525
 21
1.225
 31
0.0
 12
16.4525
 22
3.175
 32
0.0
 13
16.7525
 23
3.175
 33
0.0
  0
SOLID
  5
550
100
AcDbEntity
  8
SOLDERPASTE_PADS_TOP
100
AcDbTrace
 10
17.0875
 20
1.225
 30
0.0
 11
17.3875
 21
1.225
 31
0.0
 12
17.0875
 22
3.175
 32
0.0
 13
17.3875
 23
3.175
 33
0.0
  0
SOLID
  5
551
100
AcDbEntity
  8
SOLDERPASTE_PADS_TOP
100
AcDbTrace
 10
17.7225
 20
1.225
 30
0.0
 11
18.0225
 21
1.225
 31
0.0
 12
17.7225
 22
3.175
 32
0.0
 13
18.0225
 23
3.175
 33
0.0
  0
SOLID
  5
552
100
AcDbEntity
  8
SOLDERPASTE_PADS_TOP
100
AcDbTrace
 10
18.3575
 20
1.225
 30
0.0
 11
18.6575
 21
1.225
 31
0.0
 12
18.3575
 22
3.175
 32
0.0
 13
18.6575
 23
3.175
 33
0.0
  0
SOLID
  5
553
100
AcDbEntity
  8
SOLDERPASTE_PADS_TOP
100
AcDbTrace
 10
18.9925
 20
1.225
 30
0.0
 11
19.2925
 21
1.225
 31
0.0
 12
18.9925
 22
3.175
 32
0.0
 13
19.2925
 23
3.175
 33
0.0
  0
SOLID
  5
554
100
AcDbEntity
  8
SOLDERPASTE_PADS_TOP
100
AcDbTrace
 10
19.6275
 20
1.225
 30
0.0
 11
19.9275
 21
1.225
 31
0.0
 12
19.6275
 22
3.175
 32
0.0
 13
19.9275
 23
3.175
 33
0.0
  0
SOLID
  5
555
100
AcDbEntity
  8
SOLDERPASTE_PADS_TOP
100
AcDbTrace
 10
20.2625
 20
1.225
 30
0.0
 11
20.5625
 21
1.225
 31
0.0
 12
20.2625
 22
3.175
 32
0.0
 13
20.5625
 23
3.175
 33
0.0
  0
SOLID
  5
556
100
AcDbEntity
  8
SOLDERPASTE_PADS_TOP
100
AcDbTrace
 10
20.8975
 20
1.225
 30
0.0
 11
21.1975
 21
1.225
 31
0.0
 12
20.8975
 22
3.175
 32
0.0
 13
21.1975
 23
3.175
 33
0.0
  0
SOLID
  5
557
100
AcDbEntity
  8
SOLDERPASTE_PADS_TOP
100
AcDbTrace
 10
21.5325
 20
1.225
 30
0.0
 11
21.8325
 21
1.225
 31
0.0
 12
21.5325
 22
3.175
 32
0.0
 13
21.8325
 23
3.175
 33
0.0
  0
SOLID
  5
558
100
AcDbEntity
  8
SOLDERPASTE_PADS_TOP
100
AcDbTrace
 10
22.1675
 20
1.225
 30
0.0
 11
22.4675
 21
1.225
 31
0.0
 12
22.1675
 22
3.175
 32
0.0
 13
22.4675
 23
3.175
 33
0.0
  0
SOLID
  5
559
100
AcDbEntity
  8
SOLDERPASTE_PADS_TOP
100
AcDbTrace
 10
22.8025
 20
1.225
 30
0.0
 11
23.1025
 21
1.225
 31
0.0
 12
22.8025
 22
3.175
 32
0.0
 13
23.1025
 23
3.175
 33
0.0
  0
SOLID
  5
55A
100
AcDbEntity
  8
SOLDERPASTE_PADS_TOP
100
AcDbTrace
 10
23.4375
 20
1.225
 30
0.0
 11
23.7375
 21
1.225
 31
0.0
 12
23.4375
 22
3.175
 32
0.0
 13
23.7375
 23
3.175
 33
0.0
  0
SOLID
  5
55B
100
AcDbEntity
  8
SOLDERPASTE_PADS_TOP
100
AcDbTrace
 10
24.0725
 20
1.225
 30
0.0
 11
24.3725
 21
1.225
 31
0.0
 12
24.0725
 22
3.175
 32
0.0
 13
24.3725
 23
3.175
 33
0.0
  0
SOLID
  5
55C
100
AcDbEntity
  8
SOLDERPASTE_PADS_TOP
100
AcDbTrace
 10
24.7075
 20
1.225
 30
0.0
 11
25.0075
 21
1.225
 31
0.0
 12
24.7075
 22
3.175
 32
0.0
 13
25.0075
 23
3.175
 33
0.0
  0
SOLID
  5
55D
100
AcDbEntity
  8
SOLDERPASTE_PADS_TOP
100
AcDbTrace
 10
25.3425
 20
1.225
 30
0.0
 11
25.6425
 21
1.225
 31
0.0
 12
25.3425
 22
3.175
 32
0.0
 13
25.6425
 23
3.175
 33
0.0
  0
SOLID
  5
55E
100
AcDbEntity
  8
SOLDERPASTE_PADS_TOP
100
AcDbTrace
 10
25.9775
 20
1.225
 30
0.0
 11
26.2775
 21
1.225
 31
0.0
 12
25.9775
 22
3.175
 32
0.0
 13
26.2775
 23
3.175
 33
0.0
  0
SOLID
  5
55F
100
AcDbEntity
  8
SOLDERPASTE_PADS_TOP
100
AcDbTrace
 10
26.6125
 20
1.225
 30
0.0
 11
26.9125
 21
1.225
 31
0.0
 12
26.6125
 22
3.175
 32
0.0
 13
26.9125
 23
3.175
 33
0.0
  0
SOLID
  5
560
100
AcDbEntity
  8
SOLDERPASTE_PADS_TOP
100
AcDbTrace
 10
27.2475
 20
1.225
 30
0.0
 11
27.5475
 21
1.225
 31
0.0
 12
27.2475
 22
3.175
 32
0.0
 13
27.5475
 23
3.175
 33
0.0
  0
SOLID
  5
561
100
AcDbEntity
  8
SOLDERPASTE_PADS_TOP
100
AcDbTrace
 10
27.8825
 20
1.225
 30
0.0
 11
28.1825
 21
1.225
 31
0.0
 12
27.8825
 22
3.175
 32
0.0
 13
28.1825
 23
3.175
 33
0.0
  0
SOLID
  5
562
100
AcDbEntity
  8
SOLDERPASTE_PADS_TOP
100
AcDbTrace
 10
28.5175
 20
1.225
 30
0.0
 11
28.8175
 21
1.225
 31
0.0
 12
28.5175
 22
3.175
 32
0.0
 13
28.8175
 23
3.175
 33
0.0
  0
SOLID
  5
563
100
AcDbEntity
  8
SOLDERPASTE_PADS_TOP
100
AcDbTrace
 10
29.1525
 20
1.225
 30
0.0
 11
29.4525
 21
1.225
 31
0.0
 12
29.1525
 22
3.175
 32
0.0
 13
29.4525
 23
3.175
 33
0.0
  0
SOLID
  5
564
100
AcDbEntity
  8
SOLDERPASTE_PADS_TOP
100
AcDbTrace
 10
29.7875
 20
1.225
 30
0.0
 11
30.0875
 21
1.225
 31
0.0
 12
29.7875
 22
3.175
 32
0.0
 13
30.0875
 23
3.175
 33
0.0
  0
SOLID
  5
565
100
AcDbEntity
  8
SOLDERPASTE_PADS_TOP
100
AcDbTrace
 10
30.4225
 20
1.225
 30
0.0
 11
30.7225
 21
1.225
 31
0.0
 12
30.4225
 22
3.175
 32
0.0
 13
30.7225
 23
3.175
 33
0.0
  0
SOLID
  5
566
100
AcDbEntity
  8
SOLDERPASTE_PADS_TOP
100
AcDbTrace
 10
31.0575
 20
1.225
 30
0.0
 11
31.3575
 21
1.225
 31
0.0
 12
31.0575
 22
3.175
 32
0.0
 13
31.3575
 23
3.175
 33
0.0
  0
SOLID
  5
567
100
AcDbEntity
  8
SOLDERPASTE_PADS_TOP
100
AcDbTrace
 10
31.6925
 20
1.225
 30
0.0
 11
31.9925
 21
1.225
 31
0.0
 12
31.6925
 22
3.175
 32
0.0
 13
31.9925
 23
3.175
 33
0.0
  0
SOLID
  5
568
100
AcDbEntity
  8
SOLDERPASTE_PADS_TOP
100
AcDbTrace
 10
32.3275
 20
1.225
 30
0.0
 11
32.6275
 21
1.225
 31
0.0
 12
32.3275
 22
3.175
 32
0.0
 13
32.6275
 23
3.175
 33
0.0
  0
SOLID
  5
569
100
AcDbEntity
  8
SOLDERPASTE_PADS_TOP
100
AcDbTrace
 10
32.9625
 20
1.225
 30
0.0
 11
33.2625
 21
1.225
 31
0.0
 12
32.9625
 22
3.175
 32
0.0
 13
33.2625
 23
3.175
 33
0.0
  0
SOLID
  5
56A
100
AcDbEntity
  8
SOLDERPASTE_PADS_TOP
100
AcDbTrace
 10
33.5975
 20
1.225
 30
0.0
 11
33.8975
 21
1.225
 31
0.0
 12
33.5975
 22
3.175
 32
0.0
 13
33.8975
 23
3.175
 33
0.0
  0
SOLID
  5
56B
100
AcDbEntity
  8
SOLDERPASTE_PADS_TOP
100
AcDbTrace
 10
34.2325
 20
1.225
 30
0.0
 11
34.5325
 21
1.225
 31
0.0
 12
34.2325
 22
3.175
 32
0.0
 13
34.5325
 23
3.175
 33
0.0
  0
SOLID
  5
56C
100
AcDbEntity
  8
SOLDERPASTE_PADS_TOP
100
AcDbTrace
 10
34.8675
 20
1.225
 30
0.0
 11
35.1675
 21
1.225
 31
0.0
 12
34.8675
 22
3.175
 32
0.0
 13
35.1675
 23
3.175
 33
0.0
  0
SOLID
  5
56D
100
AcDbEntity
  8
SOLDERPASTE_PADS_TOP
100
AcDbTrace
 10
35.5025
 20
1.225
 30
0.0
 11
35.8025
 21
1.225
 31
0.0
 12
35.5025
 22
3.175
 32
0.0
 13
35.8025
 23
3.175
 33
0.0
  0
SOLID
  5
56E
100
AcDbEntity
  8
SOLDERPASTE_PADS_TOP
100
AcDbTrace
 10
36.1375
 20
1.225
 30
0.0
 11
36.4375
 21
1.225
 31
0.0
 12
36.1375
 22
3.175
 32
0.0
 13
36.4375
 23
3.175
 33
0.0
  0
SOLID
  5
56F
100
AcDbEntity
  8
SOLDERPASTE_PADS_TOP
100
AcDbTrace
 10
36.7725
 20
1.225
 30
0.0
 11
37.0725
 21
1.225
 31
0.0
 12
36.7725
 22
3.175
 32
0.0
 13
37.0725
 23
3.175
 33
0.0
  0
SOLID
  5
570
100
AcDbEntity
  8
SOLDERPASTE_PADS_TOP
100
AcDbTrace
 10
37.4075
 20
1.225
 30
0.0
 11
37.7075
 21
1.225
 31
0.0
 12
37.4075
 22
3.175
 32
0.0
 13
37.7075
 23
3.175
 33
0.0
  0
SOLID
  5
571
100
AcDbEntity
  8
SOLDERPASTE_PADS_TOP
100
AcDbTrace
 10
38.0425
 20
1.225
 30
0.0
 11
38.3425
 21
1.225
 31
0.0
 12
38.0425
 22
3.175
 32
0.0
 13
38.3425
 23
3.175
 33
0.0
  0
SOLID
  5
572
100
AcDbEntity
  8
SOLDERPASTE_PADS_TOP
100
AcDbTrace
 10
38.6775
 20
1.225
 30
0.0
 11
38.9775
 21
1.225
 31
0.0
 12
38.6775
 22
3.175
 32
0.0
 13
38.9775
 23
3.175
 33
0.0
  0
SOLID
  5
573
100
AcDbEntity
  8
SOLDERPASTE_PADS_TOP
100
AcDbTrace
 10
39.3125
 20
1.225
 30
0.0
 11
39.6125
 21
1.225
 31
0.0
 12
39.3125
 22
3.175
 32
0.0
 13
39.6125
 23
3.175
 33
0.0
  0
SOLID
  5
574
100
AcDbEntity
  8
SOLDERPASTE_PADS_TOP
100
AcDbTrace
 10
39.9475
 20
1.225
 30
0.0
 11
40.2475
 21
1.225
 31
0.0
 12
39.9475
 22
3.175
 32
0.0
 13
40.2475
 23
3.175
 33
0.0
  0
SOLID
  5
575
100
AcDbEntity
  8
SOLDERPASTE_PADS_TOP
100
AcDbTrace
 10
40.5825
 20
1.225
 30
0.0
 11
40.8825
 21
1.225
 31
0.0
 12
40.5825
 22
3.175
 32
0.0
 13
40.8825
 23
3.175
 33
0.0
  0
SOLID
  5
576
100
AcDbEntity
  8
SOLDERPASTE_PADS_TOP
100
AcDbTrace
 10
41.2175
 20
1.225
 30
0.0
 11
41.5175
 21
1.225
 31
0.0
 12
41.2175
 22
3.175
 32
0.0
 13
41.5175
 23
3.175
 33
0.0
  0
SOLID
  5
577
100
AcDbEntity
  8
SOLDERPASTE_PADS_TOP
100
AcDbTrace
 10
41.8525
 20
1.225
 30
0.0
 11
42.1525
 21
1.225
 31
0.0
 12
41.8525
 22
3.175
 32
0.0
 13
42.1525
 23
3.175
 33
0.0
  0
SOLID
  5
578
100
AcDbEntity
  8
SOLDERPASTE_PADS_TOP
100
AcDbTrace
 10
42.4875
 20
1.225
 30
0.0
 11
42.7875
 21
1.225
 31
0.0
 12
42.4875
 22
3.175
 32
0.0
 13
42.7875
 23
3.175
 33
0.0
  0
SOLID
  5
579
100
AcDbEntity
  8
SOLDERPASTE_PADS_TOP
100
AcDbTrace
 10
43.1225
 20
1.225
 30
0.0
 11
43.4225
 21
1.225
 31
0.0
 12
43.1225
 22
3.175
 32
0.0
 13
43.4225
 23
3.175
 33
0.0
  0
SOLID
  5
57A
100
AcDbEntity
  8
SOLDERPASTE_PADS_TOP
100
AcDbTrace
 10
43.7575
 20
1.225
 30
0.0
 11
44.0575
 21
1.225
 31
0.0
 12
43.7575
 22
3.175
 32
0.0
 13
44.0575
 23
3.175
 33
0.0
  0
SOLID
  5
57B
100
AcDbEntity
  8
SOLDERPASTE_PADS_TOP
100
AcDbTrace
 10
44.3925
 20
1.225
 30
0.0
 11
44.6925
 21
1.225
 31
0.0
 12
44.3925
 22
3.175
 32
0.0
 13
44.6925
 23
3.175
 33
0.0
  0
SOLID
  5
57C
100
AcDbEntity
  8
SOLDERPASTE_PADS_TOP
100
AcDbTrace
 10
45.0275
 20
1.225
 30
0.0
 11
45.3275
 21
1.225
 31
0.0
 12
45.0275
 22
3.175
 32
0.0
 13
45.3275
 23
3.175
 33
0.0
  0
SOLID
  5
57D
100
AcDbEntity
  8
SOLDERPASTE_PADS_TOP
100
AcDbTrace
 10
45.6625
 20
1.225
 30
0.0
 11
45.9625
 21
1.225
 31
0.0
 12
45.6625
 22
3.175
 32
0.0
 13
45.9625
 23
3.175
 33
0.0
  0
SOLID
  5
57E
100
AcDbEntity
  8
SOLDERPASTE_PADS_TOP
100
AcDbTrace
 10
46.2975
 20
1.225
 30
0.0
 11
46.5975
 21
1.225
 31
0.0
 12
46.2975
 22
3.175
 32
0.0
 13
46.5975
 23
3.175
 33
0.0
  0
SOLID
  5
57F
100
AcDbEntity
  8
SOLDERPASTE_PADS_TOP
100
AcDbTrace
 10
46.9325
 20
1.225
 30
0.0
 11
47.2325
 21
1.225
 31
0.0
 12
46.9325
 22
3.175
 32
0.0
 13
47.2325
 23
3.175
 33
0.0
  0
SOLID
  5
580
100
AcDbEntity
  8
SOLDERPASTE_PADS_TOP
100
AcDbTrace
 10
47.5675
 20
1.225
 30
0.0
 11
47.8675
 21
1.225
 31
0.0
 12
47.5675
 22
3.175
 32
0.0
 13
47.8675
 23
3.175
 33
0.0
  0
SOLID
  5
581
100
AcDbEntity
  8
SOLDERPASTE_PADS_TOP
100
AcDbTrace
 10
48.2025
 20
1.225
 30
0.0
 11
48.5025
 21
1.225
 31
0.0
 12
48.2025
 22
3.175
 32
0.0
 13
48.5025
 23
3.175
 33
0.0
  0
SOLID
  5
582
100
AcDbEntity
  8
SOLDERPASTE_PADS_TOP
100
AcDbTrace
 10
48.8375
 20
1.225
 30
0.0
 11
49.1375
 21
1.225
 31
0.0
 12
48.8375
 22
3.175
 32
0.0
 13
49.1375
 23
3.175
 33
0.0
  0
SOLID
  5
583
100
AcDbEntity
  8
SOLDERPASTE_PADS_TOP
100
AcDbTrace
 10
49.4725
 20
1.225
 30
0.0
 11
49.7725
 21
1.225
 31
0.0
 12
49.4725
 22
3.175
 32
0.0
 13
49.7725
 23
3.175
 33
0.0
  0
SOLID
  5
584
100
AcDbEntity
  8
SOLDERPASTE_PADS_TOP
100
AcDbTrace
 10
50.1075
 20
1.225
 30
0.0
 11
50.4075
 21
1.225
 31
0.0
 12
50.1075
 22
3.175
 32
0.0
 13
50.4075
 23
3.175
 33
0.0
  0
SOLID
  5
585
100
AcDbEntity
  8
SOLDERPASTE_PADS_TOP
100
AcDbTrace
 10
50.7425
 20
1.225
 30
0.0
 11
51.0425
 21
1.225
 31
0.0
 12
50.7425
 22
3.175
 32
0.0
 13
51.0425
 23
3.175
 33
0.0
  0
SOLID
  5
586
100
AcDbEntity
  8
SOLDERPASTE_PADS_TOP
100
AcDbTrace
 10
51.3775
 20
1.225
 30
0.0
 11
51.6775
 21
1.225
 31
0.0
 12
51.3775
 22
3.175
 32
0.0
 13
51.6775
 23
3.175
 33
0.0
  0
SOLID
  5
587
100
AcDbEntity
  8
SOLDERPASTE_PADS_TOP
100
AcDbTrace
 10
52.0125
 20
1.225
 30
0.0
 11
52.3125
 21
1.225
 31
0.0
 12
52.0125
 22
3.175
 32
0.0
 13
52.3125
 23
3.175
 33
0.0
  0
SOLID
  5
588
100
AcDbEntity
  8
SOLDERPASTE_PADS_TOP
100
AcDbTrace
 10
52.6475
 20
1.225
 30
0.0
 11
52.9475
 21
1.225
 31
0.0
 12
52.6475
 22
3.175
 32
0.0
 13
52.9475
 23
3.175
 33
0.0
  0
SOLID
  5
589
100
AcDbEntity
  8
SOLDERPASTE_PADS_TOP
100
AcDbTrace
 10
53.2825
 20
1.225
 30
0.0
 11
53.5825
 21
1.225
 31
0.0
 12
53.2825
 22
3.175
 32
0.0
 13
53.5825
 23
3.175
 33
0.0
  0
SOLID
  5
58A
100
AcDbEntity
  8
SOLDERPASTE_PADS_TOP
100
AcDbTrace
 10
3.1175
 20
44.425
 30
0.0
 11
3.4175
 21
44.425
 31
0.0
 12
3.1175
 22
46.375
 32
0.0
 13
3.4175
 23
46.375
 33
0.0
  0
SOLID
  5
58B
100
AcDbEntity
  8
SOLDERPASTE_PADS_TOP
100
AcDbTrace
 10
3.7525
 20
44.425
 30
0.0
 11
4.0525
 21
44.425
 31
0.0
 12
3.7525
 22
46.375
 32
0.0
 13
4.0525
 23
46.375
 33
0.0
  0
SOLID
  5
58C
100
AcDbEntity
  8
SOLDERPASTE_PADS_TOP
100
AcDbTrace
 10
4.3875
 20
44.425
 30
0.0
 11
4.6875
 21
44.425
 31
0.0
 12
4.3875
 22
46.375
 32
0.0
 13
4.6875
 23
46.375
 33
0.0
  0
SOLID
  5
58D
100
AcDbEntity
  8
SOLDERPASTE_PADS_TOP
100
AcDbTrace
 10
5.0225
 20
44.425
 30
0.0
 11
5.3225
 21
44.425
 31
0.0
 12
5.0225
 22
46.375
 32
0.0
 13
5.3225
 23
46.375
 33
0.0
  0
SOLID
  5
58E
100
AcDbEntity
  8
SOLDERPASTE_PADS_TOP
100
AcDbTrace
 10
5.6575
 20
44.425
 30
0.0
 11
5.9575
 21
44.425
 31
0.0
 12
5.6575
 22
46.375
 32
0.0
 13
5.9575
 23
46.375
 33
0.0
  0
SOLID
  5
58F
100
AcDbEntity
  8
SOLDERPASTE_PADS_TOP
100
AcDbTrace
 10
6.2925
 20
44.425
 30
0.0
 11
6.5925
 21
44.425
 31
0.0
 12
6.2925
 22
46.375
 32
0.0
 13
6.5925
 23
46.375
 33
0.0
  0
SOLID
  5
590
100
AcDbEntity
  8
SOLDERPASTE_PADS_TOP
100
AcDbTrace
 10
6.9275
 20
44.425
 30
0.0
 11
7.2275
 21
44.425
 31
0.0
 12
6.9275
 22
46.375
 32
0.0
 13
7.2275
 23
46.375
 33
0.0
  0
SOLID
  5
591
100
AcDbEntity
  8
SOLDERPASTE_PADS_TOP
100
AcDbTrace
 10
7.5625
 20
44.425
 30
0.0
 11
7.8625
 21
44.425
 31
0.0
 12
7.5625
 22
46.375
 32
0.0
 13
7.8625
 23
46.375
 33
0.0
  0
SOLID
  5
592
100
AcDbEntity
  8
SOLDERPASTE_PADS_TOP
100
AcDbTrace
 10
8.1975
 20
44.425
 30
0.0
 11
8.4975
 21
44.425
 31
0.0
 12
8.1975
 22
46.375
 32
0.0
 13
8.4975
 23
46.375
 33
0.0
  0
SOLID
  5
593
100
AcDbEntity
  8
SOLDERPASTE_PADS_TOP
100
AcDbTrace
 10
8.8325
 20
44.425
 30
0.0
 11
9.1325
 21
44.425
 31
0.0
 12
8.8325
 22
46.375
 32
0.0
 13
9.1325
 23
46.375
 33
0.0
  0
SOLID
  5
594
100
AcDbEntity
  8
SOLDERPASTE_PADS_TOP
100
AcDbTrace
 10
9.4675
 20
44.425
 30
0.0
 11
9.7675
 21
44.425
 31
0.0
 12
9.4675
 22
46.375
 32
0.0
 13
9.7675
 23
46.375
 33
0.0
  0
SOLID
  5
595
100
AcDbEntity
  8
SOLDERPASTE_PADS_TOP
100
AcDbTrace
 10
10.1025
 20
44.425
 30
0.0
 11
10.4025
 21
44.425
 31
0.0
 12
10.1025
 22
46.375
 32
0.0
 13
10.4025
 23
46.375
 33
0.0
  0
SOLID
  5
596
100
AcDbEntity
  8
SOLDERPASTE_PADS_TOP
100
AcDbTrace
 10
10.7375
 20
44.425
 30
0.0
 11
11.0375
 21
44.425
 31
0.0
 12
10.7375
 22
46.375
 32
0.0
 13
11.0375
 23
46.375
 33
0.0
  0
SOLID
  5
597
100
AcDbEntity
  8
SOLDERPASTE_PADS_TOP
100
AcDbTrace
 10
11.3725
 20
44.425
 30
0.0
 11
11.6725
 21
44.425
 31
0.0
 12
11.3725
 22
46.375
 32
0.0
 13
11.6725
 23
46.375
 33
0.0
  0
SOLID
  5
598
100
AcDbEntity
  8
SOLDERPASTE_PADS_TOP
100
AcDbTrace
 10
12.0075
 20
44.425
 30
0.0
 11
12.3075
 21
44.425
 31
0.0
 12
12.0075
 22
46.375
 32
0.0
 13
12.3075
 23
46.375
 33
0.0
  0
SOLID
  5
599
100
AcDbEntity
  8
SOLDERPASTE_PADS_TOP
100
AcDbTrace
 10
12.6425
 20
44.425
 30
0.0
 11
12.9425
 21
44.425
 31
0.0
 12
12.6425
 22
46.375
 32
0.0
 13
12.9425
 23
46.375
 33
0.0
  0
SOLID
  5
59A
100
AcDbEntity
  8
SOLDERPASTE_PADS_TOP
100
AcDbTrace
 10
13.2775
 20
44.425
 30
0.0
 11
13.5775
 21
44.425
 31
0.0
 12
13.2775
 22
46.375
 32
0.0
 13
13.5775
 23
46.375
 33
0.0
  0
SOLID
  5
59B
100
AcDbEntity
  8
SOLDERPASTE_PADS_TOP
100
AcDbTrace
 10
13.9125
 20
44.425
 30
0.0
 11
14.2125
 21
44.425
 31
0.0
 12
13.9125
 22
46.375
 32
0.0
 13
14.2125
 23
46.375
 33
0.0
  0
SOLID
  5
59C
100
AcDbEntity
  8
SOLDERPASTE_PADS_TOP
100
AcDbTrace
 10
14.5475
 20
44.425
 30
0.0
 11
14.8475
 21
44.425
 31
0.0
 12
14.5475
 22
46.375
 32
0.0
 13
14.8475
 23
46.375
 33
0.0
  0
SOLID
  5
59D
100
AcDbEntity
  8
SOLDERPASTE_PADS_TOP
100
AcDbTrace
 10
15.1825
 20
44.425
 30
0.0
 11
15.4825
 21
44.425
 31
0.0
 12
15.1825
 22
46.375
 32
0.0
 13
15.4825
 23
46.375
 33
0.0
  0
SOLID
  5
59E
100
AcDbEntity
  8
SOLDERPASTE_PADS_TOP
100
AcDbTrace
 10
15.8175
 20
44.425
 30
0.0
 11
16.1175
 21
44.425
 31
0.0
 12
15.8175
 22
46.375
 32
0.0
 13
16.1175
 23
46.375
 33
0.0
  0
SOLID
  5
59F
100
AcDbEntity
  8
SOLDERPASTE_PADS_TOP
100
AcDbTrace
 10
16.4525
 20
44.425
 30
0.0
 11
16.7525
 21
44.425
 31
0.0
 12
16.4525
 22
46.375
 32
0.0
 13
16.7525
 23
46.375
 33
0.0
  0
SOLID
  5
5A0
100
AcDbEntity
  8
SOLDERPASTE_PADS_TOP
100
AcDbTrace
 10
17.0875
 20
44.425
 30
0.0
 11
17.3875
 21
44.425
 31
0.0
 12
17.0875
 22
46.375
 32
0.0
 13
17.3875
 23
46.375
 33
0.0
  0
SOLID
  5
5A1
100
AcDbEntity
  8
SOLDERPASTE_PADS_TOP
100
AcDbTrace
 10
17.7225
 20
44.425
 30
0.0
 11
18.0225
 21
44.425
 31
0.0
 12
17.7225
 22
46.375
 32
0.0
 13
18.0225
 23
46.375
 33
0.0
  0
SOLID
  5
5A2
100
AcDbEntity
  8
SOLDERPASTE_PADS_TOP
100
AcDbTrace
 10
18.3575
 20
44.425
 30
0.0
 11
18.6575
 21
44.425
 31
0.0
 12
18.3575
 22
46.375
 32
0.0
 13
18.6575
 23
46.375
 33
0.0
  0
SOLID
  5
5A3
100
AcDbEntity
  8
SOLDERPASTE_PADS_TOP
100
AcDbTrace
 10
18.9925
 20
44.425
 30
0.0
 11
19.2925
 21
44.425
 31
0.0
 12
18.9925
 22
46.375
 32
0.0
 13
19.2925
 23
46.375
 33
0.0
  0
SOLID
  5
5A4
100
AcDbEntity
  8
SOLDERPASTE_PADS_TOP
100
AcDbTrace
 10
19.6275
 20
44.425
 30
0.0
 11
19.9275
 21
44.425
 31
0.0
 12
19.6275
 22
46.375
 32
0.0
 13
19.9275
 23
46.375
 33
0.0
  0
SOLID
  5
5A5
100
AcDbEntity
  8
SOLDERPASTE_PADS_TOP
100
AcDbTrace
 10
20.2625
 20
44.425
 30
0.0
 11
20.5625
 21
44.425
 31
0.0
 12
20.2625
 22
46.375
 32
0.0
 13
20.5625
 23
46.375
 33
0.0
  0
SOLID
  5
5A6
100
AcDbEntity
  8
SOLDERPASTE_PADS_TOP
100
AcDbTrace
 10
20.8975
 20
44.425
 30
0.0
 11
21.1975
 21
44.425
 31
0.0
 12
20.8975
 22
46.375
 32
0.0
 13
21.1975
 23
46.375
 33
0.0
  0
SOLID
  5
5A7
100
AcDbEntity
  8
SOLDERPASTE_PADS_TOP
100
AcDbTrace
 10
21.5325
 20
44.425
 30
0.0
 11
21.8325
 21
44.425
 31
0.0
 12
21.5325
 22
46.375
 32
0.0
 13
21.8325
 23
46.375
 33
0.0
  0
SOLID
  5
5A8
100
AcDbEntity
  8
SOLDERPASTE_PADS_TOP
100
AcDbTrace
 10
22.1675
 20
44.425
 30
0.0
 11
22.4675
 21
44.425
 31
0.0
 12
22.1675
 22
46.375
 32
0.0
 13
22.4675
 23
46.375
 33
0.0
  0
SOLID
  5
5A9
100
AcDbEntity
  8
SOLDERPASTE_PADS_TOP
100
AcDbTrace
 10
22.8025
 20
44.425
 30
0.0
 11
23.1025
 21
44.425
 31
0.0
 12
22.8025
 22
46.375
 32
0.0
 13
23.1025
 23
46.375
 33
0.0
  0
SOLID
  5
5AA
100
AcDbEntity
  8
SOLDERPASTE_PADS_TOP
100
AcDbTrace
 10
23.4375
 20
44.425
 30
0.0
 11
23.7375
 21
44.425
 31
0.0
 12
23.4375
 22
46.375
 32
0.0
 13
23.7375
 23
46.375
 33
0.0
  0
SOLID
  5
5AB
100
AcDbEntity
  8
SOLDERPASTE_PADS_TOP
100
AcDbTrace
 10
24.0725
 20
44.425
 30
0.0
 11
24.3725
 21
44.425
 31
0.0
 12
24.0725
 22
46.375
 32
0.0
 13
24.3725
 23
46.375
 33
0.0
  0
SOLID
  5
5AC
100
AcDbEntity
  8
SOLDERPASTE_PADS_TOP
100
AcDbTrace
 10
24.7075
 20
44.425
 30
0.0
 11
25.0075
 21
44.425
 31
0.0
 12
24.7075
 22
46.375
 32
0.0
 13
25.0075
 23
46.375
 33
0.0
  0
SOLID
  5
5AD
100
AcDbEntity
  8
SOLDERPASTE_PADS_TOP
100
AcDbTrace
 10
25.3425
 20
44.425
 30
0.0
 11
25.6425
 21
44.425
 31
0.0
 12
25.3425
 22
46.375
 32
0.0
 13
25.6425
 23
46.375
 33
0.0
  0
SOLID
  5
5AE
100
AcDbEntity
  8
SOLDERPASTE_PADS_TOP
100
AcDbTrace
 10
25.9775
 20
44.425
 30
0.0
 11
26.2775
 21
44.425
 31
0.0
 12
25.9775
 22
46.375
 32
0.0
 13
26.2775
 23
46.375
 33
0.0
  0
SOLID
  5
5AF
100
AcDbEntity
  8
SOLDERPASTE_PADS_TOP
100
AcDbTrace
 10
26.6125
 20
44.425
 30
0.0
 11
26.9125
 21
44.425
 31
0.0
 12
26.6125
 22
46.375
 32
0.0
 13
26.9125
 23
46.375
 33
0.0
  0
SOLID
  5
5B0
100
AcDbEntity
  8
SOLDERPASTE_PADS_TOP
100
AcDbTrace
 10
27.2475
 20
44.425
 30
0.0
 11
27.5475
 21
44.425
 31
0.0
 12
27.2475
 22
46.375
 32
0.0
 13
27.5475
 23
46.375
 33
0.0
  0
SOLID
  5
5B1
100
AcDbEntity
  8
SOLDERPASTE_PADS_TOP
100
AcDbTrace
 10
27.8825
 20
44.425
 30
0.0
 11
28.1825
 21
44.425
 31
0.0
 12
27.8825
 22
46.375
 32
0.0
 13
28.1825
 23
46.375
 33
0.0
  0
SOLID
  5
5B2
100
AcDbEntity
  8
SOLDERPASTE_PADS_TOP
100
AcDbTrace
 10
28.5175
 20
44.425
 30
0.0
 11
28.8175
 21
44.425
 31
0.0
 12
28.5175
 22
46.375
 32
0.0
 13
28.8175
 23
46.375
 33
0.0
  0
SOLID
  5
5B3
100
AcDbEntity
  8
SOLDERPASTE_PADS_TOP
100
AcDbTrace
 10
29.1525
 20
44.425
 30
0.0
 11
29.4525
 21
44.425
 31
0.0
 12
29.1525
 22
46.375
 32
0.0
 13
29.4525
 23
46.375
 33
0.0
  0
SOLID
  5
5B4
100
AcDbEntity
  8
SOLDERPASTE_PADS_TOP
100
AcDbTrace
 10
29.7875
 20
44.425
 30
0.0
 11
30.0875
 21
44.425
 31
0.0
 12
29.7875
 22
46.375
 32
0.0
 13
30.0875
 23
46.375
 33
0.0
  0
SOLID
  5
5B5
100
AcDbEntity
  8
SOLDERPASTE_PADS_TOP
100
AcDbTrace
 10
30.4225
 20
44.425
 30
0.0
 11
30.7225
 21
44.425
 31
0.0
 12
30.4225
 22
46.375
 32
0.0
 13
30.7225
 23
46.375
 33
0.0
  0
SOLID
  5
5B6
100
AcDbEntity
  8
SOLDERPASTE_PADS_TOP
100
AcDbTrace
 10
31.0575
 20
44.425
 30
0.0
 11
31.3575
 21
44.425
 31
0.0
 12
31.0575
 22
46.375
 32
0.0
 13
31.3575
 23
46.375
 33
0.0
  0
SOLID
  5
5B7
100
AcDbEntity
  8
SOLDERPASTE_PADS_TOP
100
AcDbTrace
 10
31.6925
 20
44.425
 30
0.0
 11
31.9925
 21
44.425
 31
0.0
 12
31.6925
 22
46.375
 32
0.0
 13
31.9925
 23
46.375
 33
0.0
  0
SOLID
  5
5B8
100
AcDbEntity
  8
SOLDERPASTE_PADS_TOP
100
AcDbTrace
 10
32.3275
 20
44.425
 30
0.0
 11
32.6275
 21
44.425
 31
0.0
 12
32.3275
 22
46.375
 32
0.0
 13
32.6275
 23
46.375
 33
0.0
  0
SOLID
  5
5B9
100
AcDbEntity
  8
SOLDERPASTE_PADS_TOP
100
AcDbTrace
 10
32.9625
 20
44.425
 30
0.0
 11
33.2625
 21
44.425
 31
0.0
 12
32.9625
 22
46.375
 32
0.0
 13
33.2625
 23
46.375
 33
0.0
  0
SOLID
  5
5BA
100
AcDbEntity
  8
SOLDERPASTE_PADS_TOP
100
AcDbTrace
 10
33.5975
 20
44.425
 30
0.0
 11
33.8975
 21
44.425
 31
0.0
 12
33.5975
 22
46.375
 32
0.0
 13
33.8975
 23
46.375
 33
0.0
  0
SOLID
  5
5BB
100
AcDbEntity
  8
SOLDERPASTE_PADS_TOP
100
AcDbTrace
 10
34.2325
 20
44.425
 30
0.0
 11
34.5325
 21
44.425
 31
0.0
 12
34.2325
 22
46.375
 32
0.0
 13
34.5325
 23
46.375
 33
0.0
  0
SOLID
  5
5BC
100
AcDbEntity
  8
SOLDERPASTE_PADS_TOP
100
AcDbTrace
 10
34.8675
 20
44.425
 30
0.0
 11
35.1675
 21
44.425
 31
0.0
 12
34.8675
 22
46.375
 32
0.0
 13
35.1675
 23
46.375
 33
0.0
  0
SOLID
  5
5BD
100
AcDbEntity
  8
SOLDERPASTE_PADS_TOP
100
AcDbTrace
 10
35.5025
 20
44.425
 30
0.0
 11
35.8025
 21
44.425
 31
0.0
 12
35.5025
 22
46.375
 32
0.0
 13
35.8025
 23
46.375
 33
0.0
  0
SOLID
  5
5BE
100
AcDbEntity
  8
SOLDERPASTE_PADS_TOP
100
AcDbTrace
 10
36.1375
 20
44.425
 30
0.0
 11
36.4375
 21
44.425
 31
0.0
 12
36.1375
 22
46.375
 32
0.0
 13
36.4375
 23
46.375
 33
0.0
  0
SOLID
  5
5BF
100
AcDbEntity
  8
SOLDERPASTE_PADS_TOP
100
AcDbTrace
 10
36.7725
 20
44.425
 30
0.0
 11
37.0725
 21
44.425
 31
0.0
 12
36.7725
 22
46.375
 32
0.0
 13
37.0725
 23
46.375
 33
0.0
  0
SOLID
  5
5C0
100
AcDbEntity
  8
SOLDERPASTE_PADS_TOP
100
AcDbTrace
 10
37.4075
 20
44.425
 30
0.0
 11
37.7075
 21
44.425
 31
0.0
 12
37.4075
 22
46.375
 32
0.0
 13
37.7075
 23
46.375
 33
0.0
  0
SOLID
  5
5C1
100
AcDbEntity
  8
SOLDERPASTE_PADS_TOP
100
AcDbTrace
 10
38.0425
 20
44.425
 30
0.0
 11
38.3425
 21
44.425
 31
0.0
 12
38.0425
 22
46.375
 32
0.0
 13
38.3425
 23
46.375
 33
0.0
  0
SOLID
  5
5C2
100
AcDbEntity
  8
SOLDERPASTE_PADS_TOP
100
AcDbTrace
 10
38.6775
 20
44.425
 30
0.0
 11
38.9775
 21
44.425
 31
0.0
 12
38.6775
 22
46.375
 32
0.0
 13
38.9775
 23
46.375
 33
0.0
  0
SOLID
  5
5C3
100
AcDbEntity
  8
SOLDERPASTE_PADS_TOP
100
AcDbTrace
 10
39.3125
 20
44.425
 30
0.0
 11
39.6125
 21
44.425
 31
0.0
 12
39.3125
 22
46.375
 32
0.0
 13
39.6125
 23
46.375
 33
0.0
  0
SOLID
  5
5C4
100
AcDbEntity
  8
SOLDERPASTE_PADS_TOP
100
AcDbTrace
 10
39.9475
 20
44.425
 30
0.0
 11
40.2475
 21
44.425
 31
0.0
 12
39.9475
 22
46.375
 32
0.0
 13
40.2475
 23
46.375
 33
0.0
  0
SOLID
  5
5C5
100
AcDbEntity
  8
SOLDERPASTE_PADS_TOP
100
AcDbTrace
 10
40.5825
 20
44.425
 30
0.0
 11
40.8825
 21
44.425
 31
0.0
 12
40.5825
 22
46.375
 32
0.0
 13
40.8825
 23
46.375
 33
0.0
  0
SOLID
  5
5C6
100
AcDbEntity
  8
SOLDERPASTE_PADS_TOP
100
AcDbTrace
 10
41.2175
 20
44.425
 30
0.0
 11
41.5175
 21
44.425
 31
0.0
 12
41.2175
 22
46.375
 32
0.0
 13
41.5175
 23
46.375
 33
0.0
  0
SOLID
  5
5C7
100
AcDbEntity
  8
SOLDERPASTE_PADS_TOP
100
AcDbTrace
 10
41.8525
 20
44.425
 30
0.0
 11
42.1525
 21
44.425
 31
0.0
 12
41.8525
 22
46.375
 32
0.0
 13
42.1525
 23
46.375
 33
0.0
  0
SOLID
  5
5C8
100
AcDbEntity
  8
SOLDERPASTE_PADS_TOP
100
AcDbTrace
 10
42.4875
 20
44.425
 30
0.0
 11
42.7875
 21
44.425
 31
0.0
 12
42.4875
 22
46.375
 32
0.0
 13
42.7875
 23
46.375
 33
0.0
  0
SOLID
  5
5C9
100
AcDbEntity
  8
SOLDERPASTE_PADS_TOP
100
AcDbTrace
 10
43.1225
 20
44.425
 30
0.0
 11
43.4225
 21
44.425
 31
0.0
 12
43.1225
 22
46.375
 32
0.0
 13
43.4225
 23
46.375
 33
0.0
  0
SOLID
  5
5CA
100
AcDbEntity
  8
SOLDERPASTE_PADS_TOP
100
AcDbTrace
 10
43.7575
 20
44.425
 30
0.0
 11
44.0575
 21
44.425
 31
0.0
 12
43.7575
 22
46.375
 32
0.0
 13
44.0575
 23
46.375
 33
0.0
  0
SOLID
  5
5CB
100
AcDbEntity
  8
SOLDERPASTE_PADS_TOP
100
AcDbTrace
 10
44.3925
 20
44.425
 30
0.0
 11
44.6925
 21
44.425
 31
0.0
 12
44.3925
 22
46.375
 32
0.0
 13
44.6925
 23
46.375
 33
0.0
  0
SOLID
  5
5CC
100
AcDbEntity
  8
SOLDERPASTE_PADS_TOP
100
AcDbTrace
 10
45.0275
 20
44.425
 30
0.0
 11
45.3275
 21
44.425
 31
0.0
 12
45.0275
 22
46.375
 32
0.0
 13
45.3275
 23
46.375
 33
0.0
  0
SOLID
  5
5CD
100
AcDbEntity
  8
SOLDERPASTE_PADS_TOP
100
AcDbTrace
 10
45.6625
 20
44.425
 30
0.0
 11
45.9625
 21
44.425
 31
0.0
 12
45.6625
 22
46.375
 32
0.0
 13
45.9625
 23
46.375
 33
0.0
  0
SOLID
  5
5CE
100
AcDbEntity
  8
SOLDERPASTE_PADS_TOP
100
AcDbTrace
 10
46.2975
 20
44.425
 30
0.0
 11
46.5975
 21
44.425
 31
0.0
 12
46.2975
 22
46.375
 32
0.0
 13
46.5975
 23
46.375
 33
0.0
  0
SOLID
  5
5CF
100
AcDbEntity
  8
SOLDERPASTE_PADS_TOP
100
AcDbTrace
 10
46.9325
 20
44.425
 30
0.0
 11
47.2325
 21
44.425
 31
0.0
 12
46.9325
 22
46.375
 32
0.0
 13
47.2325
 23
46.375
 33
0.0
  0
SOLID
  5
5D0
100
AcDbEntity
  8
SOLDERPASTE_PADS_TOP
100
AcDbTrace
 10
47.5675
 20
44.425
 30
0.0
 11
47.8675
 21
44.425
 31
0.0
 12
47.5675
 22
46.375
 32
0.0
 13
47.8675
 23
46.375
 33
0.0
  0
SOLID
  5
5D1
100
AcDbEntity
  8
SOLDERPASTE_PADS_TOP
100
AcDbTrace
 10
48.2025
 20
44.425
 30
0.0
 11
48.5025
 21
44.425
 31
0.0
 12
48.2025
 22
46.375
 32
0.0
 13
48.5025
 23
46.375
 33
0.0
  0
SOLID
  5
5D2
100
AcDbEntity
  8
SOLDERPASTE_PADS_TOP
100
AcDbTrace
 10
48.8375
 20
44.425
 30
0.0
 11
49.1375
 21
44.425
 31
0.0
 12
48.8375
 22
46.375
 32
0.0
 13
49.1375
 23
46.375
 33
0.0
  0
SOLID
  5
5D3
100
AcDbEntity
  8
SOLDERPASTE_PADS_TOP
100
AcDbTrace
 10
49.4725
 20
44.425
 30
0.0
 11
49.7725
 21
44.425
 31
0.0
 12
49.4725
 22
46.375
 32
0.0
 13
49.7725
 23
46.375
 33
0.0
  0
SOLID
  5
5D4
100
AcDbEntity
  8
SOLDERPASTE_PADS_TOP
100
AcDbTrace
 10
50.1075
 20
44.425
 30
0.0
 11
50.4075
 21
44.425
 31
0.0
 12
50.1075
 22
46.375
 32
0.0
 13
50.4075
 23
46.375
 33
0.0
  0
SOLID
  5
5D5
100
AcDbEntity
  8
SOLDERPASTE_PADS_TOP
100
AcDbTrace
 10
50.7425
 20
44.425
 30
0.0
 11
51.0425
 21
44.425
 31
0.0
 12
50.7425
 22
46.375
 32
0.0
 13
51.0425
 23
46.375
 33
0.0
  0
SOLID
  5
5D6
100
AcDbEntity
  8
SOLDERPASTE_PADS_TOP
100
AcDbTrace
 10
51.3775
 20
44.425
 30
0.0
 11
51.6775
 21
44.425
 31
0.0
 12
51.3775
 22
46.375
 32
0.0
 13
51.6775
 23
46.375
 33
0.0
  0
SOLID
  5
5D7
100
AcDbEntity
  8
SOLDERPASTE_PADS_TOP
100
AcDbTrace
 10
52.0125
 20
44.425
 30
0.0
 11
52.3125
 21
44.425
 31
0.0
 12
52.0125
 22
46.375
 32
0.0
 13
52.3125
 23
46.375
 33
0.0
  0
SOLID
  5
5D8
100
AcDbEntity
  8
SOLDERPASTE_PADS_TOP
100
AcDbTrace
 10
52.6475
 20
44.425
 30
0.0
 11
52.9475
 21
44.425
 31
0.0
 12
52.6475
 22
46.375
 32
0.0
 13
52.9475
 23
46.375
 33
0.0
  0
SOLID
  5
5D9
100
AcDbEntity
  8
SOLDERPASTE_PADS_TOP
100
AcDbTrace
 10
53.2825
 20
44.425
 30
0.0
 11
53.5825
 21
44.425
 31
0.0
 12
53.2825
 22
46.375
 32
0.0
 13
53.5825
 23
46.375
 33
0.0
  0
SOLID
  5
5DA
100
AcDbEntity
  8
SOLDERPASTE_PADS_TOP
100
AcDbTrace
 10
3.1175
 20
48.825
 30
0.0
 11
3.4175
 21
48.825
 31
0.0
 12
3.1175
 22
50.775
 32
0.0
 13
3.4175
 23
50.775
 33
0.0
  0
SOLID
  5
5DB
100
AcDbEntity
  8
SOLDERPASTE_PADS_TOP
100
AcDbTrace
 10
3.7525
 20
48.825
 30
0.0
 11
4.0525
 21
48.825
 31
0.0
 12
3.7525
 22
50.775
 32
0.0
 13
4.0525
 23
50.775
 33
0.0
  0
SOLID
  5
5DC
100
AcDbEntity
  8
SOLDERPASTE_PADS_TOP
100
AcDbTrace
 10
4.3875
 20
48.825
 30
0.0
 11
4.6875
 21
48.825
 31
0.0
 12
4.3875
 22
50.775
 32
0.0
 13
4.6875
 23
50.775
 33
0.0
  0
SOLID
  5
5DD
100
AcDbEntity
  8
SOLDERPASTE_PADS_TOP
100
AcDbTrace
 10
5.0225
 20
48.825
 30
0.0
 11
5.3225
 21
48.825
 31
0.0
 12
5.0225
 22
50.775
 32
0.0
 13
5.3225
 23
50.775
 33
0.0
  0
SOLID
  5
5DE
100
AcDbEntity
  8
SOLDERPASTE_PADS_TOP
100
AcDbTrace
 10
5.6575
 20
48.825
 30
0.0
 11
5.9575
 21
48.825
 31
0.0
 12
5.6575
 22
50.775
 32
0.0
 13
5.9575
 23
50.775
 33
0.0
  0
SOLID
  5
5DF
100
AcDbEntity
  8
SOLDERPASTE_PADS_TOP
100
AcDbTrace
 10
6.2925
 20
48.825
 30
0.0
 11
6.5925
 21
48.825
 31
0.0
 12
6.2925
 22
50.775
 32
0.0
 13
6.5925
 23
50.775
 33
0.0
  0
SOLID
  5
5E0
100
AcDbEntity
  8
SOLDERPASTE_PADS_TOP
100
AcDbTrace
 10
6.9275
 20
48.825
 30
0.0
 11
7.2275
 21
48.825
 31
0.0
 12
6.9275
 22
50.775
 32
0.0
 13
7.2275
 23
50.775
 33
0.0
  0
SOLID
  5
5E1
100
AcDbEntity
  8
SOLDERPASTE_PADS_TOP
100
AcDbTrace
 10
7.5625
 20
48.825
 30
0.0
 11
7.8625
 21
48.825
 31
0.0
 12
7.5625
 22
50.775
 32
0.0
 13
7.8625
 23
50.775
 33
0.0
  0
SOLID
  5
5E2
100
AcDbEntity
  8
SOLDERPASTE_PADS_TOP
100
AcDbTrace
 10
8.1975
 20
48.825
 30
0.0
 11
8.4975
 21
48.825
 31
0.0
 12
8.1975
 22
50.775
 32
0.0
 13
8.4975
 23
50.775
 33
0.0
  0
SOLID
  5
5E3
100
AcDbEntity
  8
SOLDERPASTE_PADS_TOP
100
AcDbTrace
 10
8.8325
 20
48.825
 30
0.0
 11
9.1325
 21
48.825
 31
0.0
 12
8.8325
 22
50.775
 32
0.0
 13
9.1325
 23
50.775
 33
0.0
  0
SOLID
  5
5E4
100
AcDbEntity
  8
SOLDERPASTE_PADS_TOP
100
AcDbTrace
 10
9.4675
 20
48.825
 30
0.0
 11
9.7675
 21
48.825
 31
0.0
 12
9.4675
 22
50.775
 32
0.0
 13
9.7675
 23
50.775
 33
0.0
  0
SOLID
  5
5E5
100
AcDbEntity
  8
SOLDERPASTE_PADS_TOP
100
AcDbTrace
 10
10.1025
 20
48.825
 30
0.0
 11
10.4025
 21
48.825
 31
0.0
 12
10.1025
 22
50.775
 32
0.0
 13
10.4025
 23
50.775
 33
0.0
  0
SOLID
  5
5E6
100
AcDbEntity
  8
SOLDERPASTE_PADS_TOP
100
AcDbTrace
 10
10.7375
 20
48.825
 30
0.0
 11
11.0375
 21
48.825
 31
0.0
 12
10.7375
 22
50.775
 32
0.0
 13
11.0375
 23
50.775
 33
0.0
  0
SOLID
  5
5E7
100
AcDbEntity
  8
SOLDERPASTE_PADS_TOP
100
AcDbTrace
 10
11.3725
 20
48.825
 30
0.0
 11
11.6725
 21
48.825
 31
0.0
 12
11.3725
 22
50.775
 32
0.0
 13
11.6725
 23
50.775
 33
0.0
  0
SOLID
  5
5E8
100
AcDbEntity
  8
SOLDERPASTE_PADS_TOP
100
AcDbTrace
 10
12.0075
 20
48.825
 30
0.0
 11
12.3075
 21
48.825
 31
0.0
 12
12.0075
 22
50.775
 32
0.0
 13
12.3075
 23
50.775
 33
0.0
  0
SOLID
  5
5E9
100
AcDbEntity
  8
SOLDERPASTE_PADS_TOP
100
AcDbTrace
 10
12.6425
 20
48.825
 30
0.0
 11
12.9425
 21
48.825
 31
0.0
 12
12.6425
 22
50.775
 32
0.0
 13
12.9425
 23
50.775
 33
0.0
  0
SOLID
  5
5EA
100
AcDbEntity
  8
SOLDERPASTE_PADS_TOP
100
AcDbTrace
 10
13.2775
 20
48.825
 30
0.0
 11
13.5775
 21
48.825
 31
0.0
 12
13.2775
 22
50.775
 32
0.0
 13
13.5775
 23
50.775
 33
0.0
  0
SOLID
  5
5EB
100
AcDbEntity
  8
SOLDERPASTE_PADS_TOP
100
AcDbTrace
 10
13.9125
 20
48.825
 30
0.0
 11
14.2125
 21
48.825
 31
0.0
 12
13.9125
 22
50.775
 32
0.0
 13
14.2125
 23
50.775
 33
0.0
  0
SOLID
  5
5EC
100
AcDbEntity
  8
SOLDERPASTE_PADS_TOP
100
AcDbTrace
 10
14.5475
 20
48.825
 30
0.0
 11
14.8475
 21
48.825
 31
0.0
 12
14.5475
 22
50.775
 32
0.0
 13
14.8475
 23
50.775
 33
0.0
  0
SOLID
  5
5ED
100
AcDbEntity
  8
SOLDERPASTE_PADS_TOP
100
AcDbTrace
 10
15.1825
 20
48.825
 30
0.0
 11
15.4825
 21
48.825
 31
0.0
 12
15.1825
 22
50.775
 32
0.0
 13
15.4825
 23
50.775
 33
0.0
  0
SOLID
  5
5EE
100
AcDbEntity
  8
SOLDERPASTE_PADS_TOP
100
AcDbTrace
 10
15.8175
 20
48.825
 30
0.0
 11
16.1175
 21
48.825
 31
0.0
 12
15.8175
 22
50.775
 32
0.0
 13
16.1175
 23
50.775
 33
0.0
  0
SOLID
  5
5EF
100
AcDbEntity
  8
SOLDERPASTE_PADS_TOP
100
AcDbTrace
 10
16.4525
 20
48.825
 30
0.0
 11
16.7525
 21
48.825
 31
0.0
 12
16.4525
 22
50.775
 32
0.0
 13
16.7525
 23
50.775
 33
0.0
  0
SOLID
  5
5F0
100
AcDbEntity
  8
SOLDERPASTE_PADS_TOP
100
AcDbTrace
 10
17.0875
 20
48.825
 30
0.0
 11
17.3875
 21
48.825
 31
0.0
 12
17.0875
 22
50.775
 32
0.0
 13
17.3875
 23
50.775
 33
0.0
  0
SOLID
  5
5F1
100
AcDbEntity
  8
SOLDERPASTE_PADS_TOP
100
AcDbTrace
 10
17.7225
 20
48.825
 30
0.0
 11
18.0225
 21
48.825
 31
0.0
 12
17.7225
 22
50.775
 32
0.0
 13
18.0225
 23
50.775
 33
0.0
  0
SOLID
  5
5F2
100
AcDbEntity
  8
SOLDERPASTE_PADS_TOP
100
AcDbTrace
 10
18.3575
 20
48.825
 30
0.0
 11
18.6575
 21
48.825
 31
0.0
 12
18.3575
 22
50.775
 32
0.0
 13
18.6575
 23
50.775
 33
0.0
  0
SOLID
  5
5F3
100
AcDbEntity
  8
SOLDERPASTE_PADS_TOP
100
AcDbTrace
 10
18.9925
 20
48.825
 30
0.0
 11
19.2925
 21
48.825
 31
0.0
 12
18.9925
 22
50.775
 32
0.0
 13
19.2925
 23
50.775
 33
0.0
  0
SOLID
  5
5F4
100
AcDbEntity
  8
SOLDERPASTE_PADS_TOP
100
AcDbTrace
 10
19.6275
 20
48.825
 30
0.0
 11
19.9275
 21
48.825
 31
0.0
 12
19.6275
 22
50.775
 32
0.0
 13
19.9275
 23
50.775
 33
0.0
  0
SOLID
  5
5F5
100
AcDbEntity
  8
SOLDERPASTE_PADS_TOP
100
AcDbTrace
 10
20.2625
 20
48.825
 30
0.0
 11
20.5625
 21
48.825
 31
0.0
 12
20.2625
 22
50.775
 32
0.0
 13
20.5625
 23
50.775
 33
0.0
  0
SOLID
  5
5F6
100
AcDbEntity
  8
SOLDERPASTE_PADS_TOP
100
AcDbTrace
 10
20.8975
 20
48.825
 30
0.0
 11
21.1975
 21
48.825
 31
0.0
 12
20.8975
 22
50.775
 32
0.0
 13
21.1975
 23
50.775
 33
0.0
  0
SOLID
  5
5F7
100
AcDbEntity
  8
SOLDERPASTE_PADS_TOP
100
AcDbTrace
 10
21.5325
 20
48.825
 30
0.0
 11
21.8325
 21
48.825
 31
0.0
 12
21.5325
 22
50.775
 32
0.0
 13
21.8325
 23
50.775
 33
0.0
  0
SOLID
  5
5F8
100
AcDbEntity
  8
SOLDERPASTE_PADS_TOP
100
AcDbTrace
 10
22.1675
 20
48.825
 30
0.0
 11
22.4675
 21
48.825
 31
0.0
 12
22.1675
 22
50.775
 32
0.0
 13
22.4675
 23
50.775
 33
0.0
  0
SOLID
  5
5F9
100
AcDbEntity
  8
SOLDERPASTE_PADS_TOP
100
AcDbTrace
 10
22.8025
 20
48.825
 30
0.0
 11
23.1025
 21
48.825
 31
0.0
 12
22.8025
 22
50.775
 32
0.0
 13
23.1025
 23
50.775
 33
0.0
  0
SOLID
  5
5FA
100
AcDbEntity
  8
SOLDERPASTE_PADS_TOP
100
AcDbTrace
 10
23.4375
 20
48.825
 30
0.0
 11
23.7375
 21
48.825
 31
0.0
 12
23.4375
 22
50.775
 32
0.0
 13
23.7375
 23
50.775
 33
0.0
  0
SOLID
  5
5FB
100
AcDbEntity
  8
SOLDERPASTE_PADS_TOP
100
AcDbTrace
 10
24.0725
 20
48.825
 30
0.0
 11
24.3725
 21
48.825
 31
0.0
 12
24.0725
 22
50.775
 32
0.0
 13
24.3725
 23
50.775
 33
0.0
  0
SOLID
  5
5FC
100
AcDbEntity
  8
SOLDERPASTE_PADS_TOP
100
AcDbTrace
 10
24.7075
 20
48.825
 30
0.0
 11
25.0075
 21
48.825
 31
0.0
 12
24.7075
 22
50.775
 32
0.0
 13
25.0075
 23
50.775
 33
0.0
  0
SOLID
  5
5FD
100
AcDbEntity
  8
SOLDERPASTE_PADS_TOP
100
AcDbTrace
 10
25.3425
 20
48.825
 30
0.0
 11
25.6425
 21
48.825
 31
0.0
 12
25.3425
 22
50.775
 32
0.0
 13
25.6425
 23
50.775
 33
0.0
  0
SOLID
  5
5FE
100
AcDbEntity
  8
SOLDERPASTE_PADS_TOP
100
AcDbTrace
 10
25.9775
 20
48.825
 30
0.0
 11
26.2775
 21
48.825
 31
0.0
 12
25.9775
 22
50.775
 32
0.0
 13
26.2775
 23
50.775
 33
0.0
  0
SOLID
  5
5FF
100
AcDbEntity
  8
SOLDERPASTE_PADS_TOP
100
AcDbTrace
 10
26.6125
 20
48.825
 30
0.0
 11
26.9125
 21
48.825
 31
0.0
 12
26.6125
 22
50.775
 32
0.0
 13
26.9125
 23
50.775
 33
0.0
  0
SOLID
  5
600
100
AcDbEntity
  8
SOLDERPASTE_PADS_TOP
100
AcDbTrace
 10
27.2475
 20
48.825
 30
0.0
 11
27.5475
 21
48.825
 31
0.0
 12
27.2475
 22
50.775
 32
0.0
 13
27.5475
 23
50.775
 33
0.0
  0
SOLID
  5
601
100
AcDbEntity
  8
SOLDERPASTE_PADS_TOP
100
AcDbTrace
 10
27.8825
 20
48.825
 30
0.0
 11
28.1825
 21
48.825
 31
0.0
 12
27.8825
 22
50.775
 32
0.0
 13
28.1825
 23
50.775
 33
0.0
  0
SOLID
  5
602
100
AcDbEntity
  8
SOLDERPASTE_PADS_TOP
100
AcDbTrace
 10
28.5175
 20
48.825
 30
0.0
 11
28.8175
 21
48.825
 31
0.0
 12
28.5175
 22
50.775
 32
0.0
 13
28.8175
 23
50.775
 33
0.0
  0
SOLID
  5
603
100
AcDbEntity
  8
SOLDERPASTE_PADS_TOP
100
AcDbTrace
 10
29.1525
 20
48.825
 30
0.0
 11
29.4525
 21
48.825
 31
0.0
 12
29.1525
 22
50.775
 32
0.0
 13
29.4525
 23
50.775
 33
0.0
  0
SOLID
  5
604
100
AcDbEntity
  8
SOLDERPASTE_PADS_TOP
100
AcDbTrace
 10
29.7875
 20
48.825
 30
0.0
 11
30.0875
 21
48.825
 31
0.0
 12
29.7875
 22
50.775
 32
0.0
 13
30.0875
 23
50.775
 33
0.0
  0
SOLID
  5
605
100
AcDbEntity
  8
SOLDERPASTE_PADS_TOP
100
AcDbTrace
 10
30.4225
 20
48.825
 30
0.0
 11
30.7225
 21
48.825
 31
0.0
 12
30.4225
 22
50.775
 32
0.0
 13
30.7225
 23
50.775
 33
0.0
  0
SOLID
  5
606
100
AcDbEntity
  8
SOLDERPASTE_PADS_TOP
100
AcDbTrace
 10
31.0575
 20
48.825
 30
0.0
 11
31.3575
 21
48.825
 31
0.0
 12
31.0575
 22
50.775
 32
0.0
 13
31.3575
 23
50.775
 33
0.0
  0
SOLID
  5
607
100
AcDbEntity
  8
SOLDERPASTE_PADS_TOP
100
AcDbTrace
 10
31.6925
 20
48.825
 30
0.0
 11
31.9925
 21
48.825
 31
0.0
 12
31.6925
 22
50.775
 32
0.0
 13
31.9925
 23
50.775
 33
0.0
  0
SOLID
  5
608
100
AcDbEntity
  8
SOLDERPASTE_PADS_TOP
100
AcDbTrace
 10
32.3275
 20
48.825
 30
0.0
 11
32.6275
 21
48.825
 31
0.0
 12
32.3275
 22
50.775
 32
0.0
 13
32.6275
 23
50.775
 33
0.0
  0
SOLID
  5
609
100
AcDbEntity
  8
SOLDERPASTE_PADS_TOP
100
AcDbTrace
 10
32.9625
 20
48.825
 30
0.0
 11
33.2625
 21
48.825
 31
0.0
 12
32.9625
 22
50.775
 32
0.0
 13
33.2625
 23
50.775
 33
0.0
  0
SOLID
  5
60A
100
AcDbEntity
  8
SOLDERPASTE_PADS_TOP
100
AcDbTrace
 10
33.5975
 20
48.825
 30
0.0
 11
33.8975
 21
48.825
 31
0.0
 12
33.5975
 22
50.775
 32
0.0
 13
33.8975
 23
50.775
 33
0.0
  0
SOLID
  5
60B
100
AcDbEntity
  8
SOLDERPASTE_PADS_TOP
100
AcDbTrace
 10
34.2325
 20
48.825
 30
0.0
 11
34.5325
 21
48.825
 31
0.0
 12
34.2325
 22
50.775
 32
0.0
 13
34.5325
 23
50.775
 33
0.0
  0
SOLID
  5
60C
100
AcDbEntity
  8
SOLDERPASTE_PADS_TOP
100
AcDbTrace
 10
34.8675
 20
48.825
 30
0.0
 11
35.1675
 21
48.825
 31
0.0
 12
34.8675
 22
50.775
 32
0.0
 13
35.1675
 23
50.775
 33
0.0
  0
SOLID
  5
60D
100
AcDbEntity
  8
SOLDERPASTE_PADS_TOP
100
AcDbTrace
 10
35.5025
 20
48.825
 30
0.0
 11
35.8025
 21
48.825
 31
0.0
 12
35.5025
 22
50.775
 32
0.0
 13
35.8025
 23
50.775
 33
0.0
  0
SOLID
  5
60E
100
AcDbEntity
  8
SOLDERPASTE_PADS_TOP
100
AcDbTrace
 10
36.1375
 20
48.825
 30
0.0
 11
36.4375
 21
48.825
 31
0.0
 12
36.1375
 22
50.775
 32
0.0
 13
36.4375
 23
50.775
 33
0.0
  0
SOLID
  5
60F
100
AcDbEntity
  8
SOLDERPASTE_PADS_TOP
100
AcDbTrace
 10
36.7725
 20
48.825
 30
0.0
 11
37.0725
 21
48.825
 31
0.0
 12
36.7725
 22
50.775
 32
0.0
 13
37.0725
 23
50.775
 33
0.0
  0
SOLID
  5
610
100
AcDbEntity
  8
SOLDERPASTE_PADS_TOP
100
AcDbTrace
 10
37.4075
 20
48.825
 30
0.0
 11
37.7075
 21
48.825
 31
0.0
 12
37.4075
 22
50.775
 32
0.0
 13
37.7075
 23
50.775
 33
0.0
  0
SOLID
  5
611
100
AcDbEntity
  8
SOLDERPASTE_PADS_TOP
100
AcDbTrace
 10
38.0425
 20
48.825
 30
0.0
 11
38.3425
 21
48.825
 31
0.0
 12
38.0425
 22
50.775
 32
0.0
 13
38.3425
 23
50.775
 33
0.0
  0
SOLID
  5
612
100
AcDbEntity
  8
SOLDERPASTE_PADS_TOP
100
AcDbTrace
 10
38.6775
 20
48.825
 30
0.0
 11
38.9775
 21
48.825
 31
0.0
 12
38.6775
 22
50.775
 32
0.0
 13
38.9775
 23
50.775
 33
0.0
  0
SOLID
  5
613
100
AcDbEntity
  8
SOLDERPASTE_PADS_TOP
100
AcDbTrace
 10
39.3125
 20
48.825
 30
0.0
 11
39.6125
 21
48.825
 31
0.0
 12
39.3125
 22
50.775
 32
0.0
 13
39.6125
 23
50.775
 33
0.0
  0
SOLID
  5
614
100
AcDbEntity
  8
SOLDERPASTE_PADS_TOP
100
AcDbTrace
 10
39.9475
 20
48.825
 30
0.0
 11
40.2475
 21
48.825
 31
0.0
 12
39.9475
 22
50.775
 32
0.0
 13
40.2475
 23
50.775
 33
0.0
  0
SOLID
  5
615
100
AcDbEntity
  8
SOLDERPASTE_PADS_TOP
100
AcDbTrace
 10
40.5825
 20
48.825
 30
0.0
 11
40.8825
 21
48.825
 31
0.0
 12
40.5825
 22
50.775
 32
0.0
 13
40.8825
 23
50.775
 33
0.0
  0
SOLID
  5
616
100
AcDbEntity
  8
SOLDERPASTE_PADS_TOP
100
AcDbTrace
 10
41.2175
 20
48.825
 30
0.0
 11
41.5175
 21
48.825
 31
0.0
 12
41.2175
 22
50.775
 32
0.0
 13
41.5175
 23
50.775
 33
0.0
  0
SOLID
  5
617
100
AcDbEntity
  8
SOLDERPASTE_PADS_TOP
100
AcDbTrace
 10
41.8525
 20
48.825
 30
0.0
 11
42.1525
 21
48.825
 31
0.0
 12
41.8525
 22
50.775
 32
0.0
 13
42.1525
 23
50.775
 33
0.0
  0
SOLID
  5
618
100
AcDbEntity
  8
SOLDERPASTE_PADS_TOP
100
AcDbTrace
 10
42.4875
 20
48.825
 30
0.0
 11
42.7875
 21
48.825
 31
0.0
 12
42.4875
 22
50.775
 32
0.0
 13
42.7875
 23
50.775
 33
0.0
  0
SOLID
  5
619
100
AcDbEntity
  8
SOLDERPASTE_PADS_TOP
100
AcDbTrace
 10
43.1225
 20
48.825
 30
0.0
 11
43.4225
 21
48.825
 31
0.0
 12
43.1225
 22
50.775
 32
0.0
 13
43.4225
 23
50.775
 33
0.0
  0
SOLID
  5
61A
100
AcDbEntity
  8
SOLDERPASTE_PADS_TOP
100
AcDbTrace
 10
43.7575
 20
48.825
 30
0.0
 11
44.0575
 21
48.825
 31
0.0
 12
43.7575
 22
50.775
 32
0.0
 13
44.0575
 23
50.775
 33
0.0
  0
SOLID
  5
61B
100
AcDbEntity
  8
SOLDERPASTE_PADS_TOP
100
AcDbTrace
 10
44.3925
 20
48.825
 30
0.0
 11
44.6925
 21
48.825
 31
0.0
 12
44.3925
 22
50.775
 32
0.0
 13
44.6925
 23
50.775
 33
0.0
  0
SOLID
  5
61C
100
AcDbEntity
  8
SOLDERPASTE_PADS_TOP
100
AcDbTrace
 10
45.0275
 20
48.825
 30
0.0
 11
45.3275
 21
48.825
 31
0.0
 12
45.0275
 22
50.775
 32
0.0
 13
45.3275
 23
50.775
 33
0.0
  0
SOLID
  5
61D
100
AcDbEntity
  8
SOLDERPASTE_PADS_TOP
100
AcDbTrace
 10
45.6625
 20
48.825
 30
0.0
 11
45.9625
 21
48.825
 31
0.0
 12
45.6625
 22
50.775
 32
0.0
 13
45.9625
 23
50.775
 33
0.0
  0
SOLID
  5
61E
100
AcDbEntity
  8
SOLDERPASTE_PADS_TOP
100
AcDbTrace
 10
46.2975
 20
48.825
 30
0.0
 11
46.5975
 21
48.825
 31
0.0
 12
46.2975
 22
50.775
 32
0.0
 13
46.5975
 23
50.775
 33
0.0
  0
SOLID
  5
61F
100
AcDbEntity
  8
SOLDERPASTE_PADS_TOP
100
AcDbTrace
 10
46.9325
 20
48.825
 30
0.0
 11
47.2325
 21
48.825
 31
0.0
 12
46.9325
 22
50.775
 32
0.0
 13
47.2325
 23
50.775
 33
0.0
  0
SOLID
  5
620
100
AcDbEntity
  8
SOLDERPASTE_PADS_TOP
100
AcDbTrace
 10
47.5675
 20
48.825
 30
0.0
 11
47.8675
 21
48.825
 31
0.0
 12
47.5675
 22
50.775
 32
0.0
 13
47.8675
 23
50.775
 33
0.0
  0
SOLID
  5
621
100
AcDbEntity
  8
SOLDERPASTE_PADS_TOP
100
AcDbTrace
 10
48.2025
 20
48.825
 30
0.0
 11
48.5025
 21
48.825
 31
0.0
 12
48.2025
 22
50.775
 32
0.0
 13
48.5025
 23
50.775
 33
0.0
  0
SOLID
  5
622
100
AcDbEntity
  8
SOLDERPASTE_PADS_TOP
100
AcDbTrace
 10
48.8375
 20
48.825
 30
0.0
 11
49.1375
 21
48.825
 31
0.0
 12
48.8375
 22
50.775
 32
0.0
 13
49.1375
 23
50.775
 33
0.0
  0
SOLID
  5
623
100
AcDbEntity
  8
SOLDERPASTE_PADS_TOP
100
AcDbTrace
 10
49.4725
 20
48.825
 30
0.0
 11
49.7725
 21
48.825
 31
0.0
 12
49.4725
 22
50.775
 32
0.0
 13
49.7725
 23
50.775
 33
0.0
  0
SOLID
  5
624
100
AcDbEntity
  8
SOLDERPASTE_PADS_TOP
100
AcDbTrace
 10
50.1075
 20
48.825
 30
0.0
 11
50.4075
 21
48.825
 31
0.0
 12
50.1075
 22
50.775
 32
0.0
 13
50.4075
 23
50.775
 33
0.0
  0
SOLID
  5
625
100
AcDbEntity
  8
SOLDERPASTE_PADS_TOP
100
AcDbTrace
 10
50.7425
 20
48.825
 30
0.0
 11
51.0425
 21
48.825
 31
0.0
 12
50.7425
 22
50.775
 32
0.0
 13
51.0425
 23
50.775
 33
0.0
  0
SOLID
  5
626
100
AcDbEntity
  8
SOLDERPASTE_PADS_TOP
100
AcDbTrace
 10
51.3775
 20
48.825
 30
0.0
 11
51.6775
 21
48.825
 31
0.0
 12
51.3775
 22
50.775
 32
0.0
 13
51.6775
 23
50.775
 33
0.0
  0
SOLID
  5
627
100
AcDbEntity
  8
SOLDERPASTE_PADS_TOP
100
AcDbTrace
 10
52.0125
 20
48.825
 30
0.0
 11
52.3125
 21
48.825
 31
0.0
 12
52.0125
 22
50.775
 32
0.0
 13
52.3125
 23
50.775
 33
0.0
  0
SOLID
  5
628
100
AcDbEntity
  8
SOLDERPASTE_PADS_TOP
100
AcDbTrace
 10
52.6475
 20
48.825
 30
0.0
 11
52.9475
 21
48.825
 31
0.0
 12
52.6475
 22
50.775
 32
0.0
 13
52.9475
 23
50.775
 33
0.0
  0
SOLID
  5
629
100
AcDbEntity
  8
SOLDERPASTE_PADS_TOP
100
AcDbTrace
 10
53.2825
 20
48.825
 30
0.0
 11
53.5825
 21
48.825
 31
0.0
 12
53.2825
 22
50.775
 32
0.0
 13
53.5825
 23
50.775
 33
0.0
  0
SOLID
  5
62A
100
AcDbEntity
  8
SOLDERPASTE_PADS_TOP
100
AcDbTrace
 10
55.285
 20
46.7
 30
0.0
 11
57.685
 21
46.7
 31
0.0
 12
55.285
 22
48.5
 32
0.0
 13
57.685
 23
48.5
 33
0.0
  0
SOLID
  5
62B
100
AcDbEntity
  8
SOLDERPASTE_PADS_TOP
100
AcDbTrace
 10
-0.985
 20
46.7
 30
0.0
 11
1.415
 21
46.7
 31
0.0
 12
-0.985
 22
48.5
 32
0.0
 13
1.415
 23
48.5
 33
0.0
  0
SOLID
  5
62C
100
AcDbEntity
  8
SOLDERPASTE_PADS_TOP
100
AcDbTrace
 10
-0.98
 20
-0.9
 30
0.0
 11
1.42
 21
-0.9
 31
0.0
 12
-0.98
 22
0.9
 32
0.0
 13
1.42
 23
0.9
 33
0.0
  0
SOLID
  5
62D
100
AcDbEntity
  8
SOLDERPASTE_PADS_TOP
100
AcDbTrace
 10
55.28
 20
-0.9
 30
0.0
 11
57.68
 21
-0.9
 31
0.0
 12
55.28
 22
0.9
 32
0.0
 13
57.68
 23
0.9
 33
0.0
  0
ENDSEC
  0
SECTION
  2
OBJECTS
  0
DICTIONARY
  5
19
100
AcDbDictionary
  3
ACAD_GROUP
350
1A
  3
ACAD_MLINESTYLE
350
1B
  0
DICTIONARY
  5
1A
102
{ACAD_REACTORS
330
19
102
}
100
AcDbDictionary
  0
DICTIONARY
  5
1B
102
{ACAD_REACTORS
330
19
102
}
100
AcDbDictionary
  3
STANDARD
350
1C
  0
MLINESTYLE
  5
1C
102
{ACAD_REACTORS
330
1B
102
}
100
AcDbMlineStyle
  2
STANDARD
 70
         0
  3

 62
         0
 51
90.0
 52
90.0
 71
         2
 49
0.5
 62
       256
  6
BYLAYER
 49
-0.5
 62
       256
  6
BYLAYER
  0
DICTIONARY
  5
22
102
{ACAD_REACTORS
330
19
102
}
100
AcDbDictionary
  0
ENDSEC
  0
EOF
