  0
SECTION
  2
HEADER
  9
$ACADVER
  1
AC1014
  9
$ACADMAINTVER
 70
         0
  9
$DWGCODEPAGE
  3
ANSI_1252
  9
$INSBASE
 10
0.0
 20
0.0
 30
0.0
  9
$EXTMIN
 10
-22.98
 20
-53.86
 30
0.0
  9
$EXTMAX
 10
52.65
 20
12.38
 30
0.0
  9
$LIMMIN
 10
0.0
 20
0.0
  9
$LIMMAX
 10
0.0
 20
0.0
  9
$ORTHOMODE
 70
         0
  9
$REGENMODE
 70
         1
  9
$FILLMODE
 70
         1
  9
$QTEXTMODE
 70
         0
  9
$MIRRTEXT
 70
         1
  9
$DRAGMODE
 70
         2
  9
$LTSCALE
 40
1.0
  9
$OSMODE
 70
         0
  9
$ATTMODE
 70
         1
  9
$TEXTSIZE
 40
0.2
  9
$TRACEWID
 40
0.05
  9
$TEXTSTYLE
  7
STANDARD
  9
$CLAYER
  8
0
  9
$CELTYPE
  6
CONTINUOUS
  9
$CECOLOR
 62
       256
  9
$CELTSCALE
 40
1.0
  9
$DELOBJ
 70
         1
  9
$DISPSILH
 70
         0
  9
$DIMSCALE
 40
1.0
  9
$DIMASZ
 40
0.18
  9
$DIMEXO
 40
0.0625
  9
$DIMDLI
 40
0.38
  9
$DIMRND
 40
0.0
  9
$DIMDLE
 40
0.0
  9
$DIMEXE
 40
0.18
  9
$DIMTP
 40
0.0
  9
$DIMTM
 40
0.0
  9
$DIMTXT
 40
0.18
  9
$DIMCEN
 40
0.09
  9
$DIMTSZ
 40
0.0
  9
$DIMTOL
 70
         0
  9
$DIMLIM
 70
         0
  9
$DIMTIH
 70
         1
  9
$DIMTOH
 70
         1
  9
$DIMSE1
 70
         0
  9
$DIMSE2
 70
         0
  9
$DIMTAD
 70
         0
  9
$DIMZIN
 70
         0
  9
$DIMBLK
  1

  9
$DIMASO
 70
         1
  9
$DIMSHO
 70
         1
  9
$DIMPOST
  1

  9
$DIMAPOST
  1

  9
$DIMALT
 70
         0
  9
$DIMALTD
 70
         2
  9
$DIMALTF
 40
25.4
  9
$DIMLFAC
 40
1.0
  9
$DIMTOFL
 70
         0
  9
$DIMTVP
 40
0.0
  9
$DIMTIX
 70
         0
  9
$DIMSOXD
 70
         0
  9
$DIMSAH
 70
         0
  9
$DIMBLK1
  1

  9
$DIMBLK2
  1

  9
$DIMSTYLE
  2
STANDARD
  9
$DIMCLRD
 70
         0
  9
$DIMCLRE
 70
         0
  9
$DIMCLRT
 70
         0
  9
$DIMTFAC
 40
1.0
  9
$DIMGAP
 40
0.09
  9
$DIMJUST
 70
         0
  9
$DIMSD1
 70
         0
  9
$DIMSD2
 70
         0
  9
$DIMTOLJ
 70
         1
  9
$DIMTZIN
 70
         0
  9
$DIMALTZ
 70
         0
  9
$DIMALTTZ
 70
         0
  9
$DIMFIT
 70
         3
  9
$DIMUPT
 70
         0
  9
$DIMUNIT
 70
         2
  9
$DIMDEC
 70
         4
  9
$DIMTDEC
 70
         4
  9
$DIMALTU
 70
         2
  9
$DIMALTTD
 70
         2
  9
$DIMTXSTY
  7
STANDARD
  9
$DIMAUNIT
 70
         0
  9
$LUNITS
 70
         2
  9
$LUPREC
 70
         4
  9
$SKETCHINC
 40
0.1
  9
$FILLETRAD
 40
0.0
  9
$AUNITS
 70
         0
  9
$AUPREC
 70
         0
  9
$MENU
  1
acad
  9
$ELEVATION
 40
0.0
  9
$PELEVATION
 40
0.0
  9
$THICKNESS
 40
0.0
  9
$LIMCHECK
 70
         0
  9
$BLIPMODE
 70
         1
  9
$CHAMFERA
 40
0.0
  9
$CHAMFERB
 40
0.0
  9
$CHAMFERC
 40
0.0
  9
$CHAMFERD
 40
0.0
  9
$SKPOLY
 70
         0
  9
$TDCREATE
 40
2455422.398240741
  9
$TDUPDATE
 40
0.000000000
  9
$TDINDWG
 40
0.0000000000
  9
$TDUSRTIMER
 40
0.0000000000
  9
$USRTIMER
 70
         1
  9
$ANGBASE
 50
0.0
  9
$ANGDIR
 70
         0
  9
$PDMODE
 70
         0
  9
$PDSIZE
 40
0.0
  9
$PLINEWID
 40
0.0
  9
$COORDS
 70
         0
  9
$SPLFRAME
 70
         0
  9
$SPLINETYPE
 70
         6
  9
$SPLINESEGS
 70
         8
  9
$ATTDIA
 70
         0
  9
$ATTREQ
 70
         1
  9
$HANDLING
 70
         1
  9
$HANDSEED
  5
433
  9
$SURFTAB1
 70
         6
  9
$SURFTAB2
 70
         6
  9
$SURFTYPE
 70
         6
  9
$SURFU
 70
         6
  9
$SURFV
 70
         6
  9
$UCSNAME
  2

  9
$UCSORG
 10
0.0
 20
0.0
 30
0.0
  9
$UCSXDIR
 10
1.0
 20
0.0
 30
0.0
  9
$UCSYDIR
 10
0.0
 20
1.0
 30
0.0
  9
$PUCSNAME
  2

  9
$PUCSORG
 10
0.0
 20
0.0
 30
0.0
  9
$PUCSXDIR
 10
1.0
 20
0.0
 30
0.0
  9
$PUCSYDIR
 10
0.0
 20
1.0
 30
0.0
  9
$USERI1
 70
        -3
  9
$USERI2
 70
         0
  9
$USERI3
 70
         0
  9
$USERI4
 70
         0
  9
$USERI5
 70
         0
  9
$USERR1
 40
0.0
  9
$USERR2
 40
0.0
  9
$USERR3
 40
0.0
  9
$USERR4
 40
0.0
  9
$USERR5
 40
0.0
  9
$WORLDVIEW
 70
         1
  9
$SHADEDGE
 70
         3
  9
$SHADEDIF
 70
        70
  9
$TILEMODE
 70
         1
  9
$MAXACTVP
 70
        16
  9
$PINSBASE
 10
0.0
 20
0.0
 30
0.0
  9
$PLIMCHECK
 70
         0
  9
$PEXTMIN
 10
1.0000000000E+20
 20
1.0000000000E+20
 30
1.0000000000E+20
  9
$PEXTMAX
 10
-1.0000000000E+20
 20
-1.0000000000E+20
 30
-1.0000000000E+20
  9
$PLIMMIN
 10
0.0
 20
0.0
  9
$PLIMMAX
 10
12.0
 20
9.0
  9
$UNITMODE
 70
         0
  9
$VISRETAIN
 70
         0
  9
$PLINEGEN
 70
         1
  9
$PSLTSCALE
 70
         0
  9
$TREEDEPTH
 70
      3020
  9
$PICKSTYLE
 70
         1
  9
$CMLSTYLE
  2
STANDARD
  9
$CMLJUST
 70
         0
  9
$CMLSCALE
 40
1.0
  9
$PROXYGRAPHICS
 70
         0
  9
$MEASUREMENT
 70
         0
  0
ENDSEC
  0
SECTION
  2
CLASSES
  0
CLASS
  1
LWPOLYLINE
  2
AcDbPolyline
  3
"AutoCAD"
 90
        0
280
         0
281
         1
  0
CLASS
  1
IMAGE
  2
AcDbRasterImage
  3
ISM
 90
      127
280
         0
281
         1
  0
CLASS
  1
OLE2FRAME
  2
AcDbOle2Frame
  3
""
 90
        0
280
         0
281
         1
  0
CLASS
  1
HATCH
  2
AcDbHatch
  3
"ACAD_SEDONA"
 90
        0
280
         0
281
         1
  0
CLASS
  1
DICTIONARYVAR
  2
AcDbDictionaryVar
  3
"AutoCAD"
 90
        0
280
         0
281
         0
  0
CLASS
  1
RASTERVARIABLES
  2
AcDbRasterVariables
  3
ISM
 90
        0
280
         0
281
         0
  0
CLASS
  1
IMAGEDEF
  2
AcDbRasterImageDef
  3
ISM
 90
        0
280
         0
281
         0
  0
CLASS
  1
IMAGEDEF_REACTOR
  2
AcDbRasterImageDefReactor
  3
ISM
 90
        1
280
         0
281
         0
  0
CLASS
  1
IDBUFFER
  2
AcDbIdBuffer
  3
"Acad"
 90
        0
280
         0
281
         0
  0
CLASS
  1
SPATIAL_FILTER
  2
AcDbSpatialFilter
  3
"Acad"
 90
        0
280
         0
281
         0
  0
CLASS
  1
XRECORD
  2
AcDbXrecord
  3
"<Built In>"
 90
        0
280
         0
281
         0
  0
CLASS
  1
SORTENTSTABLE
  2
AcDbSortentsTable
  3
"AutoCAD"
 90
        0
280
         0
281
         0
  0
CLASS
  1
LAYER_INDEX
  2
AcDbLayerIndex
  3
"Acad"
 90
        0
280
         0
281
         0
  0
CLASS
  1
SPATIAL_INDEX
  2
AcDbSpatialIndex
  3
"Acad"
 90
        0
280
         0
281
         0
  0
CLASS
  1
OBJECT_PTR
  2
CAseDLPNTableRecord
  3
"ASE-LPNTableRecord"
 90
        1
280
         0
281
         0
  0
CLASS
  1
LAYOUT
  2
AcDbLayout
  3
"AutoCAD 2000"
 90
        0
280
         0
281
         0
  0
CLASS
  1
PLOTSETTINGS
  2
AcDbPlotSettings
  3
"AutoCAD 2000"
 90
        0
280
         0
281
         0
  0
CLASS
  1
ACDBDICTIONARYWDFLT
  2
AcDbDictionaryWithDefault
  3
"AutoCAD 2000"
 90
        0
280
         0
281
         0
  0
CLASS
  1
ACDBPLACEHOLDER
  2
AcDbPlaceHolder
  3
"AutoCAD 2000"
 90
        0
280
         0
281
         0
  0
CLASS
  1
VBA_PROJECT
  2
AcDbVbaProject
  3
"acadvba"
 90
        0
280
         0
281
         0
  0
CLASS
  1
WIPEOUT
  2
AcDbWipeout
  3
WipeOut|AutoCAD Express Tool|expresstools@autodesk.com
 90
      127
280
         0
281
         1
  0
CLASS
  1
WIPEOUTVARIABLES
  2
AcDbWipeoutVariables
  3
WipeOut|AutoCAD Express Tool|expresstools@autodesk.com
 90
        0
280
         0
281
         0
  0
CLASS
  1
RTEXT
  2
RText
  3
RText|AutoCAD Express Tool|expresstools@autodesk.com
 90
        0
280
         0
281
         1
  0
CLASS
  1
ARCALIGNEDTEXT
  2
AcDbArcAlignedText
  3
ATEXT|AutoCAD Express Tool|expresstools@autodesk.com
 90
        0
280
         0
281
         1
  0
ENDSEC
  0
SECTION
  2
TABLES
  0
TABLE
  2
VPORT
  5
7
100
AcDbSymbolTable
 70
         1
  0
VPORT
  5
15
100
AcDbSymbolTableRecord
100
AcDbViewportTableRecord
  2
*ACTIVE
 70
         0
 10
0.0
 20
0.0
 11
1.0
 21
1.0
 12
6.591288
 22
4.579184
 13
0.0
 23
0.0
 14
1.0
 24
1.0
 15
0.0
 25
0.0
 16
0.0
 26
0.0
 36
1.0
 17
0.0
 27
0.0
 37
0.0
 40
9.158369
 41
0.688564
 42
50.0
 43
0.0
 44
0.0
 50
0.0
 51
0.0
 71
         0
 72
       100
 73
         1
 74
         1
 75
         0
 76
         0
 77
         0
 78
         0
  0
ENDTAB
  0
TABLE
  2
LTYPE
  5
4
100
AcDbSymbolTable
 70
         3
  0
LTYPE
  5
11
100
AcDbSymbolTableRecord
100
AcDbLinetypeTableRecord
  2
BYBLOCK
 70
        64
  3

 72
        65
 73
         0
 40
0.0
  0
LTYPE
  5
12
100
AcDbSymbolTableRecord
100
AcDbLinetypeTableRecord
  2
BYLAYER
 70
        64
  3

 72
        65
 73
         0
 40
0.0
  0
LTYPE
  5
13
100
AcDbSymbolTableRecord
100
AcDbLinetypeTableRecord
  2
CONTINUOUS
 70
        64
  3
Solid line
 72
        65
 73
         0
 40
0.0
  0
ENDTAB
  0
TABLE
  2
LAYER
  5
2
100
AcDbSymbolTable
 70
        20
  0
LAYER
  5
14
100
AcDbSymbolTableRecord
100
AcDbLayerTableRecord
  2
0
 70
         0
 62
         7
  6
CONTINUOUS
  0
LAYER
  5
24
100
AcDbSymbolTableRecord
100
AcDbLayerTableRecord
  2
ASSEMBLY_OUTLINES_TOP
 70
         0
 62
       104
  6
CONTINUOUS
  0
LAYER
  5
25
100
AcDbSymbolTableRecord
100
AcDbLayerTableRecord
  2
ASSEMBLY_PART_NUMBERS_TOP
 70
         0
 62
       200
  6
CONTINUOUS
  0
LAYER
  5
26
100
AcDbSymbolTableRecord
100
AcDbLayerTableRecord
  2
ASSEMBLY_REF_DES_TOP
 70
         0
 62
        30
  6
CONTINUOUS
  0
LAYER
  5
27
100
AcDbSymbolTableRecord
100
AcDbLayerTableRecord
  2
DIMENSION
 70
         0
 62
        10
  6
CONTINUOUS
  0
LAYER
  5
28
100
AcDbSymbolTableRecord
100
AcDbLayerTableRecord
  2
MOUNTING_HOLES_LAYER_TOP
 70
         0
 62
       104
  6
CONTINUOUS
  0
LAYER
  5
29
100
AcDbSymbolTableRecord
100
AcDbLayerTableRecord
  2
MOUNTING_HOLES_LAYER_BOTT6
 70
         0
 62
       104
  6
CONTINUOUS
  0
LAYER
  5
2A
100
AcDbSymbolTableRecord
100
AcDbLayerTableRecord
  2
NC_DRILL_ORIGIN
 70
         0
 62
       244
  6
CONTINUOUS
  0
LAYER
  5
2B
100
AcDbSymbolTableRecord
100
AcDbLayerTableRecord
  2
PART_HOLES_LAYER_TOP
 70
         0
 62
       170
  6
CONTINUOUS
  0
LAYER
  5
2C
100
AcDbSymbolTableRecord
100
AcDbLayerTableRecord
  2
PART_HOLES_LAYER_BOTTOM
 70
         0
 62
       170
  6
CONTINUOUS
  0
LAYER
  5
2D
100
AcDbSymbolTableRecord
100
AcDbLayerTableRecord
  2
PART_PADS_LAYER_TOP
 70
         0
 62
       170
  6
CONTINUOUS
  0
LAYER
  5
2E
100
AcDbSymbolTableRecord
100
AcDbLayerTableRecord
  2
PART_PADS_LAYER_BOTTOM
 70
         0
 62
       221
  6
CONTINUOUS
  0
LAYER
  5
2F
100
AcDbSymbolTableRecord
100
AcDbLayerTableRecord
  2
PART_PADS_SMD_TOP
 70
         0
 62
       170
  6
CONTINUOUS
  0
LAYER
  5
30
100
AcDbSymbolTableRecord
100
AcDbLayerTableRecord
  2
PIN_NUMBERS_TOP
 70
         0
 62
         8
  6
CONTINUOUS
  0
LAYER
  5
31
100
AcDbSymbolTableRecord
100
AcDbLayerTableRecord
  2
PLACEMENT_OUTLINES_TOP
 70
         0
 62
       150
  6
CONTINUOUS
  0
LAYER
  5
32
100
AcDbSymbolTableRecord
100
AcDbLayerTableRecord
  2
SILKSCREEN_OUTLINES_TOP
 70
         0
 62
       104
  6
CONTINUOUS
  0
LAYER
  5
33
100
AcDbSymbolTableRecord
100
AcDbLayerTableRecord
  2
SILKSCREEN_REF_DES_TOP
 70
         0
 62
        10
  6
CONTINUOUS
  0
LAYER
  5
34
100
AcDbSymbolTableRecord
100
AcDbLayerTableRecord
  2
SOLDERMASK_PADS_BTM
 70
         0
 62
       151
  6
CONTINUOUS
  0
LAYER
  5
35
100
AcDbSymbolTableRecord
100
AcDbLayerTableRecord
  2
SOLDERMASK_PADS_TOP
 70
         0
 62
        81
  6
CONTINUOUS
  0
LAYER
  5
36
100
AcDbSymbolTableRecord
100
AcDbLayerTableRecord
  2
SOLDERPASTE_PADS_TOP
 70
         0
 62
        81
  6
CONTINUOUS
  0
ENDTAB
  0
TABLE
  2
STYLE
  5
3
100
AcDbSymbolTable
 70
         4
  0
STYLE
  5
17
100
AcDbSymbolTableRecord
100
AcDbTextStyleTableRecord
  2
STANDARD
 70
         0
 40
0.0
 41
1.0
 50
0.0
 71
         0
 42
0.0
  3
txt
  4

  0
STYLE
  5
3C
100
AcDbSymbolTableRecord
100
AcDbTextStyleTableRecord
  2
ARIAL
 70
         0
 40
0.0
 41
1.0
 50
0.0
 71
         0
 42
0.0
  3
ARIAL.TTF
  4

  0
STYLE
  5
1B9
100
AcDbSymbolTableRecord
100
AcDbTextStyleTableRecord
  2
COURIER_NEW
 70
         0
 40
0.0
 41
1.0
 50
0.0
 71
         0
 42
0.0
  3
COUR.TTF
  4

  0
STYLE
  5
291
100
AcDbSymbolTableRecord
100
AcDbTextStyleTableRecord
  2
VERIBEST_GERBER_0
 70
         0
 40
0.0
 41
1.0
 50
0.0
 71
         0
 42
0.0
  3
COUR.TTF
  4

  0
ENDTAB
  0
TABLE
  2
VIEW
  5
5
100
AcDbSymbolTable
 70
         0
  0
ENDTAB
  0
TABLE
  2
UCS
  5
6
100
AcDbSymbolTable
 70
         0
  0
ENDTAB
  0
TABLE
  2
APPID
  5
8
100
AcDbSymbolTable
 70
         1
  0
APPID
  5
16
100
AcDbSymbolTableRecord
100
AcDbRegAppTableRecord
  2
ACAD
 70
         0
  0
ENDTAB
  0
TABLE
  2
DIMSTYLE
  5
9
100
AcDbSymbolTable
 70
         1
  0
DIMSTYLE
105
18
100
AcDbSymbolTableRecord
100
AcDbDimStyleTableRecord
  2
STANDARD
 70
         0
  3

  4

  5

  6

  7

 40
1.0
 41
0.18
 42
0.0625
 43
0.38
 44
0.18
 45
0.0
 46
0.0
 47
0.0
 48
0.0
 71
         0
 72
         0
 73
         1
 74
         1
 75
         0
 76
         0
 77
         0
 78
         0
140
0.18
141
0.09
142
0.0
143
25.4
144
1.0
145
0.0
146
1.0
147
0.09
170
         0
171
         2
172
         0
173
         0
174
         0
175
         0
176
         0
177
         0
178
         0
270
         2
271
         4
272
         4
273
         2
274
         2
275
         0
280
         0
281
         0
282
         0
283
         1
284
         0
285
         0
286
         0
287
         3
288
         0
340
17
  0
ENDTAB
  0
TABLE
  2
BLOCK_RECORD
  5
1
100
AcDbSymbolTable
 70
         0
  0
BLOCK_RECORD
  5
A
100
AcDbSymbolTableRecord
100
AcDbBlockTableRecord
  2
*MODEL_SPACE
  0
BLOCK_RECORD
  5
B
100
AcDbSymbolTableRecord
100
AcDbBlockTableRecord
  2
*PAPER_SPACE
  0
ENDTAB
  0
ENDSEC
  0
SECTION
  2
BLOCKS
  0
BLOCK
  5
D
100
AcDbEntity
  8
0
100
AcDbBlockBegin
  2
*MODEL_SPACE
 70
         0
 10
0.0
 20
0.0
 30
0.0
  3
*MODEL_SPACE
  1

  0
ENDBLK
  5
E
100
AcDbEntity
  8
0
100
AcDbBlockEnd
  0
BLOCK
  5
F
100
AcDbEntity
 67
         1
  8
0
100
AcDbBlockBegin
  2
*PAPER_SPACE
 70
         0
 10
0.0
 20
0.0
 30
0.0
  3
*PAPER_SPACE
  1

  0
ENDBLK
  5
10
100
AcDbEntity
 67
         1
  8
0
100
AcDbBlockEnd
  0
ENDSEC
  0
SECTION
  2
ENTITIES
  0
LWPOLYLINE
  5
37
100
AcDbEntity
  8
ASSEMBLY_OUTLINES_TOP
100
AcDbPolyline
 90
        4
 70
         1
 43
0.2
 10
43.815
 20
-39.75
 10
43.815
 20
1.905
 10
51.415
 20
1.905
 10
51.415
 20
-39.75
  0
LWPOLYLINE
  5
38
100
AcDbEntity
  8
ASSEMBLY_OUTLINES_TOP
100
AcDbPolyline
 90
        2
 70
         0
 43
0.2
 10
2.0
 20
1.75
 10
3.75
 20
-0.25
  0
LWPOLYLINE
  5
39
100
AcDbEntity
  8
ASSEMBLY_OUTLINES_TOP
100
AcDbPolyline
 90
        2
 70
         0
 43
0.2
 10
49.5
 20
1.75
 10
51.25
 20
-0.25
  0
LWPOLYLINE
  5
3A
100
AcDbEntity
  8
ASSEMBLY_OUTLINES_TOP
100
AcDbPolyline
 90
        4
 70
         1
 43
0.2
 10
-4.2
 20
-45.4
 10
-4.2
 20
7.4
 10
51.8
 20
7.4
 10
51.8
 20
-45.4
  0
LWPOLYLINE
  5
3B
100
AcDbEntity
  8
ASSEMBLY_OUTLINES_TOP
100
AcDbPolyline
 90
        4
 70
         1
 43
0.2
 10
-3.81
 20
-39.75
 10
-3.81
 20
1.905
 10
3.79
 20
1.905
 10
3.79
 20
-39.75
  0
TEXT
  5
3D
100
AcDbEntity
  8
ASSEMBLY_PART_NUMBERS_TOP
100
AcDbText
 10
42.46501
 20
-44.125
 30
0.0
 40
1.0
  1
Part No
  7
ARIAL
 72
         2
 11
47.31001
 21
-44.125
 31
0.0
100
AcDbText
 73
         1
  0
TEXT
  5
3E
100
AcDbEntity
  8
ASSEMBLY_REF_DES_TOP
100
AcDbText
 10
0.107
 20
-0.53
 30
0.0
 40
1.0
  1
Ref Des
  7
ARIAL
 72
         2
 11
5.27
 21
-0.53
 31
0.0
100
AcDbText
 73
         1
  0
TEXT
  5
3F
100
AcDbEntity
  8
DIMENSION
100
AcDbText
 10
52.636534
 20
-50.5716
 30
0.0
 40
1.27
  1
1.5mm
  7
ARIAL
 72
         1
 11
55.409579
 21
-49.9112
 31
0.0
100
AcDbText
 73
         2
  0
TEXT
  5
40
100
AcDbEntity
  8
DIMENSION
100
AcDbText
 10
20.52213
 20
-50.4104
 30
0.0
 40
1.27
  1
47.6mm
  7
ARIAL
 72
         1
 11
23.8
 21
-49.75
 31
0.0
100
AcDbText
 73
         2
  0
TEXT
  5
41
100
AcDbEntity
  8
DIMENSION
100
AcDbText
 10
20.005305
 20
-53.910399
 30
0.0
 40
1.27
  1
50.58mm
  7
ARIAL
 72
         1
 11
23.788
 21
-53.249999
 31
0.0
100
AcDbText
 73
         2
  0
TEXT
  5
42
100
AcDbEntity
  8
DIMENSION
100
AcDbText
 10
36.834008
 20
-36.110002
 30
0.0
 40
1.27
  1
4.2mm
  7
ARIAL
 72
         1
 11
39.607053
 21
-35.449602
 31
0.0
100
AcDbText
 73
         2
  0
TEXT
  5
43
100
AcDbEntity
  8
DIMENSION
100
AcDbText
 10
36.834008
 20
-3.1604
 30
0.0
 40
1.27
  1
2.1mm
  7
ARIAL
 72
         1
 11
39.607053
 21
-2.5
 31
0.0
100
AcDbText
 73
         2
  0
TEXT
  5
44
100
AcDbEntity
  8
DIMENSION
100
AcDbText
 10
-6.01869
 20
-12.162115
 30
0.0
 40
1.27
  1
0.635mm
 50
90.0
  7
ARIAL
 72
         1
 11
-6.67909
 21
-8.37942
 31
0.0
100
AcDbText
 73
         2
  0
TEXT
  5
45
100
AcDbEntity
  8
DIMENSION
100
AcDbText
 10
13.302668
 20
3.5896
 30
0.0
 40
1.27
  1
D2.7mm
  7
ARIAL
 72
         1
 11
16.731033
 21
4.25
 31
0.0
100
AcDbText
 73
         2
  0
TEXT
  5
46
100
AcDbEntity
  8
DIMENSION
100
AcDbText
 10
-9.020632
 20
-23.112519
 30
0.0
 40
1.27
  1
31.115mm
 50
90.0
  7
ARIAL
 72
         1
 11
-9.681032
 21
-18.824999
 31
0.0
100
AcDbText
 73
         2
  0
TEXT
  5
47
100
AcDbEntity
  8
DIMENSION
100
AcDbText
 10
11.802668
 20
-36.40745
 30
0.0
 40
1.27
  1
D0.7mm
  7
ARIAL
 72
         1
 11
15.231033
 21
-35.74705
 31
0.0
100
AcDbText
 73
         2
  0
TEXT
  5
48
100
AcDbEntity
  8
DIMENSION
100
AcDbText
 10
11.802668
 20
-2.9275
 30
0.0
 40
1.27
  1
D0.9mm
  7
ARIAL
 72
         1
 11
15.231033
 21
-2.2671
 31
0.0
100
AcDbText
 73
         2
  0
TEXT
  5
49
100
AcDbEntity
  8
DIMENSION
100
AcDbText
 10
-11.530964
 20
-22.607704
 30
0.0
 40
1.27
  1
33.62mm
 50
90.0
  7
ARIAL
 72
         1
 11
-12.191364
 21
-18.825009
 31
0.0
100
AcDbText
 73
         2
  0
TEXT
  5
4A
100
AcDbEntity
  8
DIMENSION
100
AcDbText
 10
-10.165992
 20
-50.425191
 30
0.0
 40
1.27
  1
1.5mm
  7
ARIAL
 72
         1
 11
-7.392947
 21
-49.764791
 31
0.0
100
AcDbText
 73
         2
  0
TEXT
  5
4B
100
AcDbEntity
  8
DIMENSION
100
AcDbText
 10
-13.946712
 20
-22.611544
 30
0.0
 40
1.27
  1
37.22mm
 50
90.0
  7
ARIAL
 72
         1
 11
-14.607112
 21
-18.828849
 31
0.0
100
AcDbText
 73
         2
  0
TEXT
  5
4C
100
AcDbEntity
  8
DIMENSION
100
AcDbText
 10
-16.806524
 20
-22.712194
 30
0.0
 40
1.27
  1
46.48mm
 50
90.0
  7
ARIAL
 72
         1
 11
-17.466924
 21
-18.929499
 31
0.0
100
AcDbText
 73
         2
  0
TEXT
  5
4D
100
AcDbEntity
  8
DIMENSION
100
AcDbText
 10
-21.43
 20
-25.13
 30
0.0
 40
1.5
  1
A +/- 0,2mm
 50
90.0
  7
ARIAL
 11
-22.99
 21
-25.13
 31
0.0
100
AcDbText
 73
         3
  0
TEXT
  5
4E
100
AcDbEntity
  8
DIMENSION
100
AcDbText
 10
-22.08
 20
-9.52
 30
0.0
 40
1.5
  1
C +/- 0,2mm
 50
90.0
  7
ARIAL
 11
-23.64
 21
-9.52
 31
0.0
100
AcDbText
 73
         3
  0
TEXT
  5
4F
100
AcDbEntity
  8
DIMENSION
100
AcDbText
 10
18.73
 20
13.36
 30
0.0
 40
1.5
  1
B +/- 0,2mm
  7
ARIAL
 11
18.73
 21
14.92
 31
0.0
100
AcDbText
 73
         3
  0
TEXT
  5
50
100
AcDbEntity
  8
DIMENSION
100
AcDbText
 10
0.57
 20
8.62
 30
0.0
 40
1.5
  1
D +/- 0,2mm
  7
ARIAL
 11
0.57
 21
10.18
 31
0.0
100
AcDbText
 73
         3
  0
TEXT
  5
51
100
AcDbEntity
  8
DIMENSION
100
AcDbText
 10
57.56
 20
-34.0
 30
0.0
 40
1.5
  1
alle maße mit einer Toleranz von +/- 0,1mm
 50
90.0
  7
ARIAL
 11
56.0
 21
-34.0
 31
0.0
100
AcDbText
 73
         3
  0
LWPOLYLINE
  5
52
100
AcDbEntity
  8
DIMENSION
100
AcDbPolyline
 90
        2
 70
         0
 43
0.15
 10
-1.45
 20
4.32
 10
-1.45
 20
9.32
  0
LWPOLYLINE
  5
53
100
AcDbEntity
  8
DIMENSION
100
AcDbPolyline
 90
        2
 70
         0
 43
0.15
 10
-1.45
 20
9.32
 10
-4.19
 20
9.32
  0
LWPOLYLINE
  5
54
100
AcDbEntity
  8
DIMENSION
100
AcDbPolyline
 90
        2
 70
         0
 43
0.15
 10
51.8
 20
11.8
 10
-4.2
 20
11.8
  0
LWPOLYLINE
  5
55
100
AcDbEntity
  8
DIMENSION
100
AcDbPolyline
 90
        2
 70
         0
 43
0.15
 10
-4.2
 20
7.4
 10
-4.2
 20
11.8
  0
LWPOLYLINE
  5
56
100
AcDbEntity
  8
DIMENSION
100
AcDbPolyline
 90
        2
 70
         0
 43
0.15
 10
51.8
 20
7.4
 10
51.8
 20
11.8
  0
LWPOLYLINE
  5
57
100
AcDbEntity
  8
DIMENSION
100
AcDbPolyline
 90
        3
 70
         1
 10
-0.42
 20
9.88
 10
-0.42
 20
8.73
 10
-1.57
 20
9.31
  0
HATCH
  5
58
100
AcDbEntity
  8
DIMENSION
100
AcDbHatch
 10
0.0
 20
0.0
 30
0.0
210
0.0
220
0.0
230
1.0
  2
SOLID
 70
         1
 71
         1
 91
        1
 92
        2
 72
         0
 73
         1
 93
        3
 10
-0.42
 20
9.8800000000000008
 10
-0.42
 20
8.7300000000000004
 10
-1.5700000000000001
 20
9.3100000000000005
 97
        1
330
57
 75
         0
 76
         1
 98
        1
 10
0.0
 20
0.0
  0
LWPOLYLINE
  5
59
100
AcDbEntity
  8
DIMENSION
100
AcDbPolyline
 90
        3
 70
         1
 10
-5.2
 20
9.9
 10
-5.2
 20
8.75
 10
-4.05
 20
9.33
  0
HATCH
  5
5A
100
AcDbEntity
  8
DIMENSION
100
AcDbHatch
 10
0.0
 20
0.0
 30
0.0
210
0.0
220
0.0
230
1.0
  2
SOLID
 70
         1
 71
         1
 91
        1
 92
        2
 72
         0
 73
         1
 93
        3
 10
-5.2000000000000002
 20
9.9000000000000004
 10
-5.2000000000000002
 20
8.75
 10
-4.0499999999999998
 20
9.3300000000000001
 97
        1
330
59
 75
         0
 76
         1
 98
        1
 10
0.0
 20
0.0
  0
LWPOLYLINE
  5
5B
100
AcDbEntity
  8
DIMENSION
100
AcDbPolyline
 90
        3
 70
         1
 10
50.69
 20
12.38
 10
50.69
 20
11.23
 10
51.84
 20
11.81
  0
HATCH
  5
5C
100
AcDbEntity
  8
DIMENSION
100
AcDbHatch
 10
0.0
 20
0.0
 30
0.0
210
0.0
220
0.0
230
1.0
  2
SOLID
 70
         1
 71
         1
 91
        1
 92
        2
 72
         0
 73
         1
 93
        3
 10
50.689999999999998
 20
12.380000000000001
 10
50.689999999999998
 20
11.23
 10
51.840000000000003
 20
11.81
 97
        1
330
5B
 75
         0
 76
         1
 98
        1
 10
0.0
 20
0.0
  0
LWPOLYLINE
  5
5D
100
AcDbEntity
  8
DIMENSION
100
AcDbPolyline
 90
        3
 70
         1
 10
-3.07
 20
12.38
 10
-3.07
 20
11.23
 10
-4.22
 20
11.81
  0
HATCH
  5
5E
100
AcDbEntity
  8
DIMENSION
100
AcDbHatch
 10
0.0
 20
0.0
 30
0.0
210
0.0
220
0.0
230
1.0
  2
SOLID
 70
         1
 71
         1
 91
        1
 92
        2
 72
         0
 73
         1
 93
        3
 10
-3.0699999999999998
 20
12.380000000000001
 10
-3.0699999999999998
 20
11.23
 10
-4.2199999999999998
 20
11.81
 97
        1
330
5D
 75
         0
 76
         1
 98
        1
 10
0.0
 20
0.0
  0
LWPOLYLINE
  5
5F
100
AcDbEntity
  8
DIMENSION
100
AcDbPolyline
 90
        2
 70
         0
 43
0.15
 10
-4.16
 20
-45.39
 10
-19.75
 20
-45.39
  0
LWPOLYLINE
  5
60
100
AcDbEntity
  8
DIMENSION
100
AcDbPolyline
 90
        2
 70
         0
 43
0.15
 10
-19.75
 20
7.4
 10
-19.75
 20
-45.38
  0
LWPOLYLINE
  5
61
100
AcDbEntity
  8
DIMENSION
100
AcDbPolyline
 90
        3
 70
         1
 10
-20.32
 20
-44.27
 10
-19.17
 20
-44.27
 10
-19.75
 20
-45.42
  0
HATCH
  5
62
100
AcDbEntity
  8
DIMENSION
100
AcDbHatch
 10
0.0
 20
0.0
 30
0.0
210
0.0
220
0.0
230
1.0
  2
SOLID
 70
         1
 71
         1
 91
        1
 92
        2
 72
         0
 73
         1
 93
        3
 10
-20.32
 20
-44.270000000000003
 10
-19.170000000000002
 20
-44.270000000000003
 10
-19.75
 20
-45.420000000000002
 97
        1
330
61
 75
         0
 76
         1
 98
        1
 10
0.0
 20
0.0
  0
LWPOLYLINE
  5
63
100
AcDbEntity
  8
DIMENSION
100
AcDbPolyline
 90
        3
 70
         1
 10
-20.33
 20
6.31
 10
-19.18
 20
6.31
 10
-19.76
 20
7.46
  0
HATCH
  5
64
100
AcDbEntity
  8
DIMENSION
100
AcDbHatch
 10
0.0
 20
0.0
 30
0.0
210
0.0
220
0.0
230
1.0
  2
SOLID
 70
         1
 71
         1
 91
        1
 92
        2
 72
         0
 73
         1
 93
        3
 10
-20.329999999999998
 20
6.3099999999999996
 10
-19.18
 20
6.3099999999999996
 10
-19.760000000000002
 20
7.46
 97
        1
330
63
 75
         0
 76
         1
 98
        1
 10
0.0
 20
0.0
  0
LWPOLYLINE
  5
65
100
AcDbEntity
  8
DIMENSION
100
AcDbPolyline
 90
        2
 70
         0
 43
0.15
 10
-4.17
 20
7.4
 10
-19.76
 20
7.4
  0
LWPOLYLINE
  5
66
100
AcDbEntity
  8
DIMENSION
100
AcDbPolyline
 90
        2
 70
         0
 43
0.15
 10
-17.82
 20
4.31
 10
-22.41
 20
4.31
  0
LWPOLYLINE
  5
67
100
AcDbEntity
  8
DIMENSION
100
AcDbPolyline
 90
        2
 70
         0
 43
0.15
 10
-17.82
 20
7.41
 10
-22.41
 20
7.41
  0
LWPOLYLINE
  5
68
100
AcDbEntity
  8
DIMENSION
100
AcDbPolyline
 90
        2
 70
         0
 43
0.15
 10
-22.41
 20
7.41
 10
-22.41
 20
4.33
  0
LWPOLYLINE
  5
69
100
AcDbEntity
  8
DIMENSION
100
AcDbPolyline
 90
        3
 70
         1
 10
-22.98
 20
3.31
 10
-21.83
 20
3.31
 10
-22.41
 20
4.46
  0
HATCH
  5
6A
100
AcDbEntity
  8
DIMENSION
100
AcDbHatch
 10
0.0
 20
0.0
 30
0.0
210
0.0
220
0.0
230
1.0
  2
SOLID
 70
         1
 71
         1
 91
        1
 92
        2
 72
         0
 73
         1
 93
        3
 10
-22.98
 20
3.3100000000000001
 10
-21.829999999999998
 20
3.3100000000000001
 10
-22.41
 20
4.46
 97
        1
330
69
 75
         0
 76
         1
 98
        1
 10
0.0
 20
0.0
  0
LWPOLYLINE
  5
6B
100
AcDbEntity
  8
DIMENSION
100
AcDbPolyline
 90
        3
 70
         1
 10
-22.97
 20
8.42
 10
-21.82
 20
8.42
 10
-22.4
 20
7.27
  0
HATCH
  5
6C
100
AcDbEntity
  8
DIMENSION
100
AcDbHatch
 10
0.0
 20
0.0
 30
0.0
210
0.0
220
0.0
230
1.0
  2
SOLID
 70
         1
 71
         1
 91
        1
 92
        2
 72
         0
 73
         1
 93
        3
 10
-22.969999999999999
 20
8.4199999999999999
 10
-21.82
 20
8.4199999999999999
 10
-22.399999999999999
 20
7.2699999999999996
 97
        1
330
6B
 75
         0
 76
         1
 98
        1
 10
0.0
 20
0.0
  0
LWPOLYLINE
  5
6D
100
AcDbEntity
  8
DIMENSION
100
AcDbPolyline
 90
        2
 70
         0
 43
0.2
 10
-2.01
 20
4.311
 10
-17.976924
 20
4.311
  0
LWPOLYLINE
  5
6E
100
AcDbEntity
  8
DIMENSION
100
AcDbPolyline
 90
        2
 70
         0
 43
0.2
 10
-2.01
 20
-42.17
 10
-17.976924
 20
-42.17
  0
LWPOLYLINE
  5
6F
100
AcDbEntity
  8
DIMENSION
100
AcDbPolyline
 90
        2
 70
         0
 43
0.2
 10
-17.466924
 20
3.741
 10
-17.466924
 20
-14.72642
  0
LWPOLYLINE
  5
70
100
AcDbEntity
  8
DIMENSION
100
AcDbPolyline
 90
        2
 70
         0
 43
0.2
 10
-17.466924
 20
-23.132579
 10
-17.466924
 20
-41.6
  0
LWPOLYLINE
  5
71
100
AcDbEntity
  8
DIMENSION
100
AcDbPolyline
 90
        3
 70
         1
 10
-17.466924
 20
4.311
 10
-16.896925
 20
3.171
 10
-18.036924
 20
3.171
  0
HATCH
  5
72
100
AcDbEntity
  8
DIMENSION
100
AcDbHatch
 10
0.0
 20
0.0
 30
0.0
210
0.0
220
0.0
230
1.0
  2
SOLID
 70
         1
 71
         1
 91
        1
 92
        2
 72
         0
 73
         1
 93
        3
 10
-17.466923999999999
 20
4.3109999999999999
 10
-16.896925
 20
3.1709999999999998
 10
-18.036923999999999
 20
3.1709999999999998
 97
        1
330
71
 75
         0
 76
         1
 98
        1
 10
0.0
 20
0.0
  0
LWPOLYLINE
  5
73
100
AcDbEntity
  8
DIMENSION
100
AcDbPolyline
 90
        3
 70
         1
 10
-17.466924
 20
-42.17
 10
-18.036924
 20
-41.03
 10
-16.896924
 20
-41.03
  0
HATCH
  5
74
100
AcDbEntity
  8
DIMENSION
100
AcDbHatch
 10
0.0
 20
0.0
 30
0.0
210
0.0
220
0.0
230
1.0
  2
SOLID
 70
         1
 71
         1
 91
        1
 92
        2
 72
         0
 73
         1
 93
        3
 10
-17.466923999999999
 20
-42.170000000000002
 10
-18.036923999999999
 20
-41.030000000000001
 10
-16.896923999999999
 20
-41.030000000000001
 97
        1
330
73
 75
         0
 76
         1
 98
        1
 10
0.0
 20
0.0
  0
LWPOLYLINE
  5
75
100
AcDbEntity
  8
DIMENSION
100
AcDbPolyline
 90
        2
 70
         0
 43
0.2
 10
-0.51
 20
-0.22
 10
-15.117113
 20
-0.22
  0
LWPOLYLINE
  5
76
100
AcDbEntity
  8
DIMENSION
100
AcDbPolyline
 90
        2
 70
         0
 43
0.2
 10
-0.51
 20
-37.4377
 10
-15.117113
 20
-37.4377
  0
LWPOLYLINE
  5
77
100
AcDbEntity
  8
DIMENSION
100
AcDbPolyline
 90
        2
 70
         0
 43
0.2
 10
-14.607113
 20
-0.79
 10
-14.607113
 20
-14.62577
  0
LWPOLYLINE
  5
78
100
AcDbEntity
  8
DIMENSION
100
AcDbPolyline
 90
        2
 70
         0
 43
0.2
 10
-14.607113
 20
-23.031929
 10
-14.607113
 20
-36.8677
  0
LWPOLYLINE
  5
79
100
AcDbEntity
  8
DIMENSION
100
AcDbPolyline
 90
        3
 70
         1
 10
-14.607113
 20
-0.22
 10
-14.037114
 20
-1.36
 10
-15.177113
 20
-1.36
  0
HATCH
  5
7A
100
AcDbEntity
  8
DIMENSION
100
AcDbHatch
 10
0.0
 20
0.0
 30
0.0
210
0.0
220
0.0
230
1.0
  2
SOLID
 70
         1
 71
         1
 91
        1
 92
        2
 72
         0
 73
         1
 93
        3
 10
-14.607113
 20
-0.22
 10
-14.037114000000001
 20
-1.3600000000000001
 10
-15.177113
 20
-1.3600000000000001
 97
        1
330
79
 75
         0
 76
         1
 98
        1
 10
0.0
 20
0.0
  0
LWPOLYLINE
  5
7B
100
AcDbEntity
  8
DIMENSION
100
AcDbPolyline
 90
        3
 70
         1
 10
-14.607113
 20
-37.4377
 10
-15.177113
 20
-36.2977
 10
-14.037113
 20
-36.2977
  0
HATCH
  5
7C
100
AcDbEntity
  8
DIMENSION
100
AcDbHatch
 10
0.0
 20
0.0
 30
0.0
210
0.0
220
0.0
230
1.0
  2
SOLID
 70
         1
 71
         1
 91
        1
 92
        2
 72
         0
 73
         1
 93
        3
 10
-14.607113
 20
-37.4377
 10
-15.177113
 20
-36.297699999999999
 10
-14.037113
 20
-36.297699999999999
 97
        1
330
7B
 75
         0
 76
         1
 98
        1
 10
0.0
 20
0.0
  0
LWPOLYLINE
  5
7D
100
AcDbEntity
  8
DIMENSION
100
AcDbPolyline
 90
        2
 70
         0
 43
0.2
 10
-1.5
 20
-42.68
 10
-1.5
 20
-50.274791
  0
LWPOLYLINE
  5
7E
100
AcDbEntity
  8
DIMENSION
100
AcDbPolyline
 90
        2
 70
         0
 43
0.2
 10
0.0
 20
-37.9477
 10
0.0
 20
-50.274791
  0
LWPOLYLINE
  5
7F
100
AcDbEntity
  8
DIMENSION
100
AcDbPolyline
 90
        2
 70
         0
 43
0.2
 10
-2.07
 20
-49.764791
 10
-4.35
 20
-49.764791
  0
LWPOLYLINE
  5
80
100
AcDbEntity
  8
DIMENSION
100
AcDbPolyline
 90
        2
 70
         0
 43
0.2
 10
0.57
 20
-49.764791
 10
2.85
 20
-49.764791
  0
LWPOLYLINE
  5
81
100
AcDbEntity
  8
DIMENSION
100
AcDbPolyline
 90
        3
 70
         1
 10
-1.5
 20
-49.764791
 10
-2.64
 20
-50.334791
 10
-2.64
 20
-49.194791
  0
HATCH
  5
82
100
AcDbEntity
  8
DIMENSION
100
AcDbHatch
 10
0.0
 20
0.0
 30
0.0
210
0.0
220
0.0
230
1.0
  2
SOLID
 70
         1
 71
         1
 91
        1
 92
        2
 72
         0
 73
         1
 93
        3
 10
-1.5
 20
-49.764791000000002
 10
-2.6400000000000001
 20
-50.334791000000003
 10
-2.6400000000000001
 20
-49.194791000000002
 97
        1
330
81
 75
         0
 76
         1
 98
        1
 10
0.0
 20
0.0
  0
LWPOLYLINE
  5
83
100
AcDbEntity
  8
DIMENSION
100
AcDbPolyline
 90
        3
 70
         1
 10
0.0
 20
-49.764791
 10
1.14
 20
-49.194791
 10
1.14
 20
-50.334791
  0
HATCH
  5
84
100
AcDbEntity
  8
DIMENSION
100
AcDbHatch
 10
0.0
 20
0.0
 30
0.0
210
0.0
220
0.0
230
1.0
  2
SOLID
 70
         1
 71
         1
 91
        1
 92
        2
 72
         0
 73
         1
 93
        3
 10
0.0
 20
-49.764791000000002
 10
1.1399999999999999
 20
-49.194791000000002
 10
1.1399999999999999
 20
-50.334791000000003
 97
        1
330
83
 75
         0
 76
         1
 98
        1
 10
0.0
 20
0.0
  0
LWPOLYLINE
  5
85
100
AcDbEntity
  8
DIMENSION
100
AcDbPolyline
 90
        2
 70
         0
 43
0.2
 10
-0.51
 20
-2.0171
 10
-12.701365
 20
-2.0171
  0
LWPOLYLINE
  5
86
100
AcDbEntity
  8
DIMENSION
100
AcDbPolyline
 90
        2
 70
         0
 43
0.2
 10
-0.51
 20
-35.63292
 10
-12.701365
 20
-35.63292
  0
LWPOLYLINE
  5
87
100
AcDbEntity
  8
DIMENSION
100
AcDbPolyline
 90
        2
 70
         0
 43
0.2
 10
-12.191365
 20
-2.5871
 10
-12.191365
 20
-14.62193
  0
LWPOLYLINE
  5
88
100
AcDbEntity
  8
DIMENSION
100
AcDbPolyline
 90
        2
 70
         0
 43
0.2
 10
-12.191365
 20
-23.028089
 10
-12.191365
 20
-35.06292
  0
LWPOLYLINE
  5
89
100
AcDbEntity
  8
DIMENSION
100
AcDbPolyline
 90
        3
 70
         1
 10
-12.191365
 20
-2.0171
 10
-11.621366
 20
-3.1571
 10
-12.761365
 20
-3.1571
  0
HATCH
  5
8A
100
AcDbEntity
  8
DIMENSION
100
AcDbHatch
 10
0.0
 20
0.0
 30
0.0
210
0.0
220
0.0
230
1.0
  2
SOLID
 70
         1
 71
         1
 91
        1
 92
        2
 72
         0
 73
         1
 93
        3
 10
-12.191364999999999
 20
-2.0171000000000001
 10
-11.621366
 20
-3.1570999999999998
 10
-12.761365
 20
-3.1570999999999998
 97
        1
330
89
 75
         0
 76
         1
 98
        1
 10
0.0
 20
0.0
  0
LWPOLYLINE
  5
8B
100
AcDbEntity
  8
DIMENSION
100
AcDbPolyline
 90
        3
 70
         1
 10
-12.191365
 20
-35.63292
 10
-12.761365
 20
-34.49292
 10
-11.621365
 20
-34.49292
  0
HATCH
  5
8C
100
AcDbEntity
  8
DIMENSION
100
AcDbHatch
 10
0.0
 20
0.0
 30
0.0
210
0.0
220
0.0
230
1.0
  2
SOLID
 70
         1
 71
         1
 91
        1
 92
        2
 72
         0
 73
         1
 93
        3
 10
-12.191364999999999
 20
-35.632919999999999
 10
-12.761365
 20
-34.492919999999998
 10
-11.621365000000001
 20
-34.492919999999998
 97
        1
330
8B
 75
         0
 76
         1
 98
        1
 10
0.0
 20
0.0
  0
LWPOLYLINE
  5
8D
100
AcDbEntity
  8
DIMENSION
100
AcDbPolyline
 90
        2
 70
         0
 43
0.2
 10
11.0
 20
-2.2671
 10
7.19
 20
-2.2671
  0
LWPOLYLINE
  5
8E
100
AcDbEntity
  8
DIMENSION
100
AcDbPolyline
 90
        2
 70
         0
 43
0.2
 10
7.19
 20
-2.2671
 10
0.449728
 20
-2.032737
  0
LWPOLYLINE
  5
8F
100
AcDbEntity
  8
DIMENSION
100
AcDbPolyline
 90
        3
 70
         1
 10
0.449728
 20
-2.032737
 10
1.608846
 20
-1.502696
 10
1.569232
 20
-2.642007
  0
HATCH
  5
90
100
AcDbEntity
  8
DIMENSION
100
AcDbHatch
 10
0.0
 20
0.0
 30
0.0
210
0.0
220
0.0
230
1.0
  2
SOLID
 70
         1
 71
         1
 91
        1
 92
        2
 72
         0
 73
         1
 93
        3
 10
0.449728
 20
-2.032737
 10
1.608846
 20
-1.502696
 10
1.569232
 20
-2.642007
 97
        1
330
8F
 75
         0
 76
         1
 98
        1
 10
0.0
 20
0.0
  0
LWPOLYLINE
  5
91
100
AcDbEntity
  8
DIMENSION
100
AcDbPolyline
 90
        2
 70
         0
 43
0.2
 10
11.0
 20
-35.74705
 10
7.19
 20
-35.74705
  0
LWPOLYLINE
  5
92
100
AcDbEntity
  8
DIMENSION
100
AcDbPolyline
 90
        2
 70
         0
 43
0.2
 10
7.19
 20
-35.74705
 10
0.349955
 20
-35.638475
  0
LWPOLYLINE
  5
93
100
AcDbEntity
  8
DIMENSION
100
AcDbPolyline
 90
        3
 70
         1
 10
0.349955
 20
-35.638475
 10
1.498858
 20
-35.086641
 10
1.480764
 20
-36.226496
  0
HATCH
  5
94
100
AcDbEntity
  8
DIMENSION
100
AcDbHatch
 10
0.0
 20
0.0
 30
0.0
210
0.0
220
0.0
230
1.0
  2
SOLID
 70
         1
 71
         1
 91
        1
 92
        2
 72
         0
 73
         1
 93
        3
 10
0.349955
 20
-35.638475
 10
1.498858
 20
-35.086641
 10
1.480764
 20
-36.226495999999997
 97
        1
330
93
 75
         0
 76
         1
 98
        1
 10
0.0
 20
0.0
  0
LWPOLYLINE
  5
95
100
AcDbEntity
  8
DIMENSION
100
AcDbPolyline
 90
        2
 70
         0
 43
0.2
 10
-2.61
 20
-3.2675
 10
-10.191032
 20
-3.2675
  0
LWPOLYLINE
  5
96
100
AcDbEntity
  8
DIMENSION
100
AcDbPolyline
 90
        2
 70
         0
 43
0.2
 10
-2.61
 20
-34.3825
 10
-10.191032
 20
-34.3825
  0
LWPOLYLINE
  5
97
100
AcDbEntity
  8
DIMENSION
100
AcDbPolyline
 90
        2
 70
         0
 43
0.2
 10
-9.681032
 20
-3.8375
 10
-9.681032
 20
-14.091854
  0
LWPOLYLINE
  5
98
100
AcDbEntity
  8
DIMENSION
100
AcDbPolyline
 90
        2
 70
         0
 43
0.2
 10
-9.681032
 20
-23.558145
 10
-9.681032
 20
-33.8125
  0
LWPOLYLINE
  5
99
100
AcDbEntity
  8
DIMENSION
100
AcDbPolyline
 90
        3
 70
         1
 10
-9.681032
 20
-3.2675
 10
-9.111033
 20
-4.4075
 10
-10.251032
 20
-4.4075
  0
HATCH
  5
9A
100
AcDbEntity
  8
DIMENSION
100
AcDbHatch
 10
0.0
 20
0.0
 30
0.0
210
0.0
220
0.0
230
1.0
  2
SOLID
 70
         1
 71
         1
 91
        1
 92
        2
 72
         0
 73
         1
 93
        3
 10
-9.6810320000000001
 20
-3.2675000000000001
 10
-9.1110330000000008
 20
-4.4074999999999998
 10
-10.251032
 20
-4.4074999999999998
 97
        1
330
99
 75
         0
 76
         1
 98
        1
 10
0.0
 20
0.0
  0
LWPOLYLINE
  5
9B
100
AcDbEntity
  8
DIMENSION
100
AcDbPolyline
 90
        3
 70
         1
 10
-9.681032
 20
-34.3825
 10
-10.251032
 20
-33.2425
 10
-9.111032
 20
-33.2425
  0
HATCH
  5
9C
100
AcDbEntity
  8
DIMENSION
100
AcDbHatch
 10
0.0
 20
0.0
 30
0.0
210
0.0
220
0.0
230
1.0
  2
SOLID
 70
         1
 71
         1
 91
        1
 92
        2
 72
         0
 73
         1
 93
        3
 10
-9.6810320000000001
 20
-34.3825
 10
-10.251032
 20
-33.2425
 10
-9.1110319999999998
 20
-33.2425
 97
        1
330
9B
 75
         0
 76
         1
 98
        1
 10
0.0
 20
0.0
  0
LWPOLYLINE
  5
9D
100
AcDbEntity
  8
DIMENSION
100
AcDbPolyline
 90
        2
 70
         0
 43
0.2
 10
12.5
 20
4.25
 10
8.69
 20
4.25
  0
LWPOLYLINE
  5
9E
100
AcDbEntity
  8
DIMENSION
100
AcDbPolyline
 90
        2
 70
         0
 43
0.2
 10
8.69
 20
4.25
 10
-0.150024
 20
4.302918
  0
LWPOLYLINE
  5
9F
100
AcDbEntity
  8
DIMENSION
100
AcDbPolyline
 90
        3
 70
         1
 10
-0.150024
 20
4.302918
 10
0.993367
 20
4.866083
 10
0.986543
 20
3.726105
  0
HATCH
  5
A0
100
AcDbEntity
  8
DIMENSION
100
AcDbHatch
 10
0.0
 20
0.0
 30
0.0
210
0.0
220
0.0
230
1.0
  2
SOLID
 70
         1
 71
         1
 91
        1
 92
        2
 72
         0
 73
         1
 93
        3
 10
-0.150024
 20
4.302918
 10
0.993367
 20
4.8660829999999997
 10
0.986543
 20
3.726105
 97
        1
330
9F
 75
         0
 76
         1
 98
        1
 10
0.0
 20
0.0
  0
LWPOLYLINE
  5
A1
100
AcDbEntity
  8
DIMENSION
100
AcDbPolyline
 90
        2
 70
         0
 43
0.2
 10
1.59
 20
-15.3325
 10
-7.18909
 20
-15.3325
  0
LWPOLYLINE
  5
A2
100
AcDbEntity
  8
DIMENSION
100
AcDbPolyline
 90
        2
 70
         0
 43
0.2
 10
1.59
 20
-15.9675
 10
-7.18909
 20
-15.9675
  0
LWPOLYLINE
  5
A3
100
AcDbEntity
  8
DIMENSION
100
AcDbPolyline
 90
        2
 70
         0
 43
0.2
 10
-6.67909
 20
-14.7625
 10
-6.67909
 20
-12.4825
  0
LWPOLYLINE
  5
A4
100
AcDbEntity
  8
DIMENSION
100
AcDbPolyline
 90
        2
 70
         0
 43
0.2
 10
-6.67909
 20
-16.5375
 10
-6.67909
 20
-18.8175
  0
LWPOLYLINE
  5
A5
100
AcDbEntity
  8
DIMENSION
100
AcDbPolyline
 90
        3
 70
         1
 10
-6.67909
 20
-15.3325
 10
-7.24909
 20
-14.1925
 10
-6.10909
 20
-14.1925
  0
HATCH
  5
A6
100
AcDbEntity
  8
DIMENSION
100
AcDbHatch
 10
0.0
 20
0.0
 30
0.0
210
0.0
220
0.0
230
1.0
  2
SOLID
 70
         1
 71
         1
 91
        1
 92
        2
 72
         0
 73
         1
 93
        3
 10
-6.6790900000000004
 20
-15.3325
 10
-7.2490899999999998
 20
-14.192500000000001
 10
-6.1090900000000001
 20
-14.192500000000001
 97
        1
330
A5
 75
         0
 76
         1
 98
        1
 10
0.0
 20
0.0
  0
LWPOLYLINE
  5
A7
100
AcDbEntity
  8
DIMENSION
100
AcDbPolyline
 90
        3
 70
         1
 10
-6.67909
 20
-15.9675
 10
-6.109091
 20
-17.1075
 10
-7.24909
 20
-17.1075
  0
HATCH
  5
A8
100
AcDbEntity
  8
DIMENSION
100
AcDbHatch
 10
0.0
 20
0.0
 30
0.0
210
0.0
220
0.0
230
1.0
  2
SOLID
 70
         1
 71
         1
 91
        1
 92
        2
 72
         0
 73
         1
 93
        3
 10
-6.6790900000000004
 20
-15.967499999999999
 10
-6.1090910000000003
 20
-17.107500000000002
 10
-7.2490899999999998
 20
-17.107500000000002
 97
        1
330
A7
 75
         0
 76
         1
 98
        1
 10
0.0
 20
0.0
  0
LWPOLYLINE
  5
A9
100
AcDbEntity
  8
DIMENSION
100
AcDbPolyline
 90
        2
 70
         0
 43
0.2
 10
45.5
 20
-2.7575
 10
45.5
 20
-1.99
  0
LWPOLYLINE
  5
AA
100
AcDbEntity
  8
DIMENSION
100
AcDbPolyline
 90
        2
 70
         0
 43
0.2
 10
47.6
 20
-2.53
 10
47.6
 20
-3.01
  0
LWPOLYLINE
  5
AB
100
AcDbEntity
  8
DIMENSION
100
AcDbPolyline
 90
        2
 70
         0
 43
0.2
 10
44.93
 20
-2.5
 10
42.65
 20
-2.5
  0
LWPOLYLINE
  5
AC
100
AcDbEntity
  8
DIMENSION
100
AcDbPolyline
 90
        2
 70
         0
 43
0.2
 10
48.17
 20
-2.5
 10
50.45
 20
-2.5
  0
LWPOLYLINE
  5
AD
100
AcDbEntity
  8
DIMENSION
100
AcDbPolyline
 90
        3
 70
         1
 10
45.5
 20
-2.5
 10
44.36
 20
-3.07
 10
44.36
 20
-1.93
  0
HATCH
  5
AE
100
AcDbEntity
  8
DIMENSION
100
AcDbHatch
 10
0.0
 20
0.0
 30
0.0
210
0.0
220
0.0
230
1.0
  2
SOLID
 70
         1
 71
         1
 91
        1
 92
        2
 72
         0
 73
         1
 93
        3
 10
45.5
 20
-2.5
 10
44.359999999999999
 20
-3.0699999999999998
 10
44.359999999999999
 20
-1.9299999999999999
 97
        1
330
AD
 75
         0
 76
         1
 98
        1
 10
0.0
 20
0.0
  0
LWPOLYLINE
  5
AF
100
AcDbEntity
  8
DIMENSION
100
AcDbPolyline
 90
        3
 70
         1
 10
47.6
 20
-2.5
 10
48.74
 20
-1.93
 10
48.74
 20
-3.07
  0
HATCH
  5
B0
100
AcDbEntity
  8
DIMENSION
100
AcDbHatch
 10
0.0
 20
0.0
 30
0.0
210
0.0
220
0.0
230
1.0
  2
SOLID
 70
         1
 71
         1
 91
        1
 92
        2
 72
         0
 73
         1
 93
        3
 10
47.600000000000001
 20
-2.5
 10
48.740000000000002
 20
-1.9299999999999999
 10
48.740000000000002
 20
-3.0699999999999998
 97
        1
330
AF
 75
         0
 76
         1
 98
        1
 10
0.0
 20
0.0
  0
LWPOLYLINE
  5
B1
100
AcDbEntity
  8
DIMENSION
100
AcDbPolyline
 90
        2
 70
         0
 43
0.2
 10
45.5
 20
-34.8925
 10
45.5
 20
-35.959602
  0
LWPOLYLINE
  5
B2
100
AcDbEntity
  8
DIMENSION
100
AcDbPolyline
 90
        2
 70
         0
 43
0.2
 10
49.7
 20
-34.8925
 10
49.7
 20
-35.959602
  0
LWPOLYLINE
  5
B3
100
AcDbEntity
  8
DIMENSION
100
AcDbPolyline
 90
        2
 70
         0
 43
0.2
 10
44.93
 20
-35.449602
 10
42.65
 20
-35.449602
  0
LWPOLYLINE
  5
B4
100
AcDbEntity
  8
DIMENSION
100
AcDbPolyline
 90
        2
 70
         0
 43
0.2
 10
50.27
 20
-35.449602
 10
52.55
 20
-35.449602
  0
LWPOLYLINE
  5
B5
100
AcDbEntity
  8
DIMENSION
100
AcDbPolyline
 90
        3
 70
         1
 10
45.5
 20
-35.449602
 10
44.36
 20
-36.019602
 10
44.36
 20
-34.879602
  0
HATCH
  5
B6
100
AcDbEntity
  8
DIMENSION
100
AcDbHatch
 10
0.0
 20
0.0
 30
0.0
210
0.0
220
0.0
230
1.0
  2
SOLID
 70
         1
 71
         1
 91
        1
 92
        2
 72
         0
 73
         1
 93
        3
 10
45.5
 20
-35.449601999999999
 10
44.359999999999999
 20
-36.019601999999999
 10
44.359999999999999
 20
-34.879601999999998
 97
        1
330
B5
 75
         0
 76
         1
 98
        1
 10
0.0
 20
0.0
  0
LWPOLYLINE
  5
B7
100
AcDbEntity
  8
DIMENSION
100
AcDbPolyline
 90
        3
 70
         1
 10
49.7
 20
-35.449602
 10
50.84
 20
-34.879602
 10
50.84
 20
-36.019602
  0
HATCH
  5
B8
100
AcDbEntity
  8
DIMENSION
100
AcDbHatch
 10
0.0
 20
0.0
 30
0.0
210
0.0
220
0.0
230
1.0
  2
SOLID
 70
         1
 71
         1
 91
        1
 92
        2
 72
         0
 73
         1
 93
        3
 10
49.700000000000003
 20
-35.449601999999999
 10
50.840000000000003
 20
-34.879601999999998
 10
50.840000000000003
 20
-36.019601999999999
 97
        1
330
B7
 75
         0
 76
         1
 98
        1
 10
0.0
 20
0.0
  0
LWPOLYLINE
  5
B9
100
AcDbEntity
  8
DIMENSION
100
AcDbPolyline
 90
        2
 70
         0
 43
0.2
 10
-1.5
 20
-42.68
 10
-1.5
 20
-53.76
  0
LWPOLYLINE
  5
BA
100
AcDbEntity
  8
DIMENSION
100
AcDbPolyline
 90
        2
 70
         0
 43
0.2
 10
49.076
 20
-42.682
 10
49.076
 20
-53.76
  0
LWPOLYLINE
  5
BB
100
AcDbEntity
  8
DIMENSION
100
AcDbPolyline
 90
        2
 70
         0
 43
0.2
 10
-0.93
 20
-53.25
 10
19.58492
 20
-53.25
  0
LWPOLYLINE
  5
BC
100
AcDbEntity
  8
DIMENSION
100
AcDbPolyline
 90
        2
 70
         0
 43
0.2
 10
27.99108
 20
-53.25
 10
48.506
 20
-53.25
  0
LWPOLYLINE
  5
BD
100
AcDbEntity
  8
DIMENSION
100
AcDbPolyline
 90
        3
 70
         1
 10
-1.5
 20
-53.25
 10
-0.36
 20
-52.68
 10
-0.36
 20
-53.82
  0
HATCH
  5
BE
100
AcDbEntity
  8
DIMENSION
100
AcDbHatch
 10
0.0
 20
0.0
 30
0.0
210
0.0
220
0.0
230
1.0
  2
SOLID
 70
         1
 71
         1
 91
        1
 92
        2
 72
         0
 73
         1
 93
        3
 10
-1.5
 20
-53.25
 10
-0.36
 20
-52.68
 10
-0.36
 20
-53.82
 97
        1
330
BD
 75
         0
 76
         1
 98
        1
 10
0.0
 20
0.0
  0
LWPOLYLINE
  5
BF
100
AcDbEntity
  8
DIMENSION
100
AcDbPolyline
 90
        3
 70
         1
 10
49.076
 20
-53.25
 10
47.936
 20
-53.82
 10
47.936
 20
-52.68
  0
HATCH
  5
C0
100
AcDbEntity
  8
DIMENSION
100
AcDbHatch
 10
0.0
 20
0.0
 30
0.0
210
0.0
220
0.0
230
1.0
  2
SOLID
 70
         1
 71
         1
 91
        1
 92
        2
 72
         0
 73
         1
 93
        3
 10
49.076000000000001
 20
-53.25
 10
47.936
 20
-53.82
 10
47.936
 20
-52.68
 97
        1
330
BF
 75
         0
 76
         1
 98
        1
 10
0.0
 20
0.0
  0
LWPOLYLINE
  5
C1
100
AcDbEntity
  8
DIMENSION
100
AcDbPolyline
 90
        2
 70
         0
 43
0.2
 10
0.0
 20
-37.9477
 10
0.0
 20
-50.26
  0
LWPOLYLINE
  5
C2
100
AcDbEntity
  8
DIMENSION
100
AcDbPolyline
 90
        2
 70
         0
 43
0.2
 10
47.6
 20
-37.95
 10
47.6
 20
-50.26
  0
LWPOLYLINE
  5
C3
100
AcDbEntity
  8
DIMENSION
100
AcDbPolyline
 90
        2
 70
         0
 43
0.2
 10
0.57
 20
-49.75
 10
20.126987
 20
-49.75
  0
LWPOLYLINE
  5
C4
100
AcDbEntity
  8
DIMENSION
100
AcDbPolyline
 90
        2
 70
         0
 43
0.2
 10
27.473014
 20
-49.75
 10
47.03
 20
-49.75
  0
LWPOLYLINE
  5
C5
100
AcDbEntity
  8
DIMENSION
100
AcDbPolyline
 90
        3
 70
         1
 10
0.0
 20
-49.75
 10
1.14
 20
-49.18
 10
1.14
 20
-50.32
  0
HATCH
  5
C6
100
AcDbEntity
  8
DIMENSION
100
AcDbHatch
 10
0.0
 20
0.0
 30
0.0
210
0.0
220
0.0
230
1.0
  2
SOLID
 70
         1
 71
         1
 91
        1
 92
        2
 72
         0
 73
         1
 93
        3
 10
0.0
 20
-49.75
 10
1.1399999999999999
 20
-49.18
 10
1.1399999999999999
 20
-50.32
 97
        1
330
C5
 75
         0
 76
         1
 98
        1
 10
0.0
 20
0.0
  0
LWPOLYLINE
  5
C7
100
AcDbEntity
  8
DIMENSION
100
AcDbPolyline
 90
        3
 70
         1
 10
47.6
 20
-49.75
 10
46.46
 20
-50.32
 10
46.46
 20
-49.18
  0
HATCH
  5
C8
100
AcDbEntity
  8
DIMENSION
100
AcDbHatch
 10
0.0
 20
0.0
 30
0.0
210
0.0
220
0.0
230
1.0
  2
SOLID
 70
         1
 71
         1
 91
        1
 92
        2
 72
         0
 73
         1
 93
        3
 10
47.600000000000001
 20
-49.75
 10
46.460000000000001
 20
-50.32
 10
46.460000000000001
 20
-49.18
 97
        1
330
C7
 75
         0
 76
         1
 98
        1
 10
0.0
 20
0.0
  0
LWPOLYLINE
  5
C9
100
AcDbEntity
  8
DIMENSION
100
AcDbPolyline
 90
        2
 70
         0
 43
0.2
 10
47.6
 20
-37.95
 10
47.6
 20
-50.241544
  0
LWPOLYLINE
  5
CA
100
AcDbEntity
  8
DIMENSION
100
AcDbPolyline
 90
        2
 70
         0
 43
0.2
 10
49.076
 20
-42.682
 10
49.076
 20
-50.241544
  0
LWPOLYLINE
  5
CB
100
AcDbEntity
  8
DIMENSION
100
AcDbPolyline
 90
        2
 70
         0
 43
0.2
 10
47.03
 20
-49.731544
 10
44.75
 20
-49.731544
  0
LWPOLYLINE
  5
CC
100
AcDbEntity
  8
DIMENSION
100
AcDbPolyline
 90
        2
 70
         0
 43
0.2
 10
49.646
 20
-49.731544
 10
51.926
 20
-49.731544
  0
LWPOLYLINE
  5
CD
100
AcDbEntity
  8
DIMENSION
100
AcDbPolyline
 90
        3
 70
         1
 10
47.6
 20
-49.731544
 10
46.46
 20
-50.301544
 10
46.46
 20
-49.161544
  0
HATCH
  5
CE
100
AcDbEntity
  8
DIMENSION
100
AcDbHatch
 10
0.0
 20
0.0
 30
0.0
210
0.0
220
0.0
230
1.0
  2
SOLID
 70
         1
 71
         1
 91
        1
 92
        2
 72
         0
 73
         1
 93
        3
 10
47.600000000000001
 20
-49.731544
 10
46.460000000000001
 20
-50.301544
 10
46.460000000000001
 20
-49.161543999999999
 97
        1
330
CD
 75
         0
 76
         1
 98
        1
 10
0.0
 20
0.0
  0
LWPOLYLINE
  5
CF
100
AcDbEntity
  8
DIMENSION
100
AcDbPolyline
 90
        3
 70
         1
 10
49.076
 20
-49.731544
 10
50.216
 20
-49.161544
 10
50.216
 20
-50.301544
  0
HATCH
  5
D0
100
AcDbEntity
  8
DIMENSION
100
AcDbHatch
 10
0.0
 20
0.0
 30
0.0
210
0.0
220
0.0
230
1.0
  2
SOLID
 70
         1
 71
         1
 91
        1
 92
        2
 72
         0
 73
         1
 93
        3
 10
49.076000000000001
 20
-49.731544
 10
50.216000000000001
 20
-49.161543999999999
 10
50.216000000000001
 20
-50.301544
 97
        1
330
CF
 75
         0
 76
         1
 98
        1
 10
0.0
 20
0.0
  0
LWPOLYLINE
  5
D1
100
AcDbEntity
  8
MOUNTING_HOLES_LAYER_TOP
100
AcDbPolyline
 90
        2
 70
         1
 43
0.35
 10
47.425
 20
-35.63
 42
-1.0
 10
47.775
 20
-35.63
 42
-1.0
  0
LWPOLYLINE
  5
D2
100
AcDbEntity
  8
MOUNTING_HOLES_LAYER_TOP
100
AcDbPolyline
 90
        2
 70
         1
 43
0.45
 10
47.375
 20
-2.02
 42
-1.0
 10
47.825
 20
-2.02
 42
-1.0
  0
LWPOLYLINE
  5
D3
100
AcDbEntity
  8
MOUNTING_HOLES_LAYER_TOP
100
AcDbPolyline
 90
        2
 70
         1
 43
0.45
 10
-0.225
 20
-2.0171
 42
-1.0
 10
0.225
 20
-2.0171
 42
-1.0
  0
LWPOLYLINE
  5
D4
100
AcDbEntity
  8
MOUNTING_HOLES_LAYER_TOP
100
AcDbPolyline
 90
        2
 70
         1
 43
0.35
 10
-0.175
 20
-35.63292
 42
-1.0
 10
0.175
 20
-35.63292
 42
-1.0
  0
LWPOLYLINE
  5
D5
100
AcDbEntity
  8
MOUNTING_HOLES_LAYER_BOTT6
100
AcDbPolyline
 90
        2
 70
         1
 43
0.35
 10
47.425
 20
-35.63
 42
-1.0
 10
47.775
 20
-35.63
 42
-1.0
  0
LWPOLYLINE
  5
D6
100
AcDbEntity
  8
MOUNTING_HOLES_LAYER_BOTT6
100
AcDbPolyline
 90
        2
 70
         1
 43
0.45
 10
47.375
 20
-2.02
 42
-1.0
 10
47.825
 20
-2.02
 42
-1.0
  0
LWPOLYLINE
  5
D7
100
AcDbEntity
  8
MOUNTING_HOLES_LAYER_BOTT6
100
AcDbPolyline
 90
        2
 70
         1
 43
0.45
 10
-0.225
 20
-2.0171
 42
-1.0
 10
0.225
 20
-2.0171
 42
-1.0
  0
LWPOLYLINE
  5
D8
100
AcDbEntity
  8
MOUNTING_HOLES_LAYER_BOTT6
100
AcDbPolyline
 90
        2
 70
         1
 43
0.35
 10
-0.175
 20
-35.63292
 42
-1.0
 10
0.175
 20
-35.63292
 42
-1.0
  0
LWPOLYLINE
  5
D9
100
AcDbEntity
  8
NC_DRILL_ORIGIN
100
AcDbPolyline
 90
        2
 70
         0
 43
0.127
 10
-1.905
 20
0.0
 10
1.905
 20
0.0
  0
LWPOLYLINE
  5
DA
100
AcDbEntity
  8
NC_DRILL_ORIGIN
100
AcDbPolyline
 90
        2
 70
         0
 43
0.127
 10
0.0
 20
-1.905
 10
0.0
 20
1.905
  0
LWPOLYLINE
  5
DB
100
AcDbEntity
  8
NC_DRILL_ORIGIN
100
AcDbPolyline
 90
        4
 70
         1
 43
0.127
 10
-1.0
 20
-1.0
 10
-1.0
 20
1.0
 10
1.0
 20
1.0
 10
1.0
 20
-1.0
  0
TEXT
  5
DC
100
AcDbEntity
  8
NC_DRILL_ORIGIN
100
AcDbText
 10
0.127
 20
0.127
 30
0.0
 40
1.0
  1
D
  7
ARIAL
 11
0.127
 21
0.127
 31
0.0
100
AcDbText
 73
         1
  0
LWPOLYLINE
  5
DD
100
AcDbEntity
  8
PART_HOLES_LAYER_TOP
100
AcDbPolyline
 90
        2
 70
         1
 43
1.35
 10
-2.175
 20
4.311
 42
-1.0
 10
-0.825
 20
4.311
 42
-1.0
  0
LWPOLYLINE
  5
DE
100
AcDbEntity
  8
PART_HOLES_LAYER_TOP
100
AcDbPolyline
 90
        2
 70
         1
 43
1.35
 10
48.401
 20
-42.172
 42
-1.0
 10
49.751
 20
-42.172
 42
-1.0
  0
LWPOLYLINE
  5
DF
100
AcDbEntity
  8
PART_HOLES_LAYER_TOP
100
AcDbPolyline
 90
        2
 70
         1
 43
1.35
 10
48.405
 20
4.31
 42
-1.0
 10
49.755
 20
4.31
 42
-1.0
  0
LWPOLYLINE
  5
E0
100
AcDbEntity
  8
PART_HOLES_LAYER_TOP
100
AcDbPolyline
 90
        2
 70
         1
 43
1.35
 10
-2.175
 20
-42.17
 42
-1.0
 10
-0.825
 20
-42.17
 42
-1.0
  0
LWPOLYLINE
  5
E1
100
AcDbEntity
  8
PART_HOLES_LAYER_BOTTOM
100
AcDbPolyline
 90
        2
 70
         1
 43
1.35
 10
-2.175
 20
4.311
 42
-1.0
 10
-0.825
 20
4.311
 42
-1.0
  0
LWPOLYLINE
  5
E2
100
AcDbEntity
  8
PART_HOLES_LAYER_BOTTOM
100
AcDbPolyline
 90
        2
 70
         1
 43
1.35
 10
48.401
 20
-42.172
 42
-1.0
 10
49.751
 20
-42.172
 42
-1.0
  0
LWPOLYLINE
  5
E3
100
AcDbEntity
  8
PART_HOLES_LAYER_BOTTOM
100
AcDbPolyline
 90
        2
 70
         1
 43
1.35
 10
48.405
 20
4.31
 42
-1.0
 10
49.755
 20
4.31
 42
-1.0
  0
LWPOLYLINE
  5
E4
100
AcDbEntity
  8
PART_HOLES_LAYER_BOTTOM
100
AcDbPolyline
 90
        2
 70
         1
 43
1.35
 10
-2.175
 20
-42.17
 42
-1.0
 10
-0.825
 20
-42.17
 42
-1.0
  0
LWPOLYLINE
  5
E5
100
AcDbEntity
  8
PART_PADS_LAYER_TOP
100
AcDbPolyline
 90
        2
 70
         1
 43
2.25
 10
-2.625
 20
4.311
 42
-1.0
 10
-0.375
 20
4.311
 42
-1.0
  0
LWPOLYLINE
  5
E6
100
AcDbEntity
  8
PART_PADS_LAYER_TOP
100
AcDbPolyline
 90
        2
 70
         1
 43
2.25
 10
47.951
 20
-42.172
 42
-1.0
 10
50.201
 20
-42.172
 42
-1.0
  0
LWPOLYLINE
  5
E7
100
AcDbEntity
  8
PART_PADS_LAYER_TOP
100
AcDbPolyline
 90
        2
 70
         1
 43
2.25
 10
47.955
 20
4.31
 42
-1.0
 10
50.205
 20
4.31
 42
-1.0
  0
LWPOLYLINE
  5
E8
100
AcDbEntity
  8
PART_PADS_LAYER_TOP
100
AcDbPolyline
 90
        2
 70
         1
 43
2.25
 10
-2.625
 20
-42.17
 42
-1.0
 10
-0.375
 20
-42.17
 42
-1.0
  0
LWPOLYLINE
  5
E9
100
AcDbEntity
  8
PART_PADS_LAYER_BOTTOM
100
AcDbPolyline
 90
        2
 70
         1
 43
2.25
 10
-2.625
 20
4.311
 42
-1.0
 10
-0.375
 20
4.311
 42
-1.0
  0
LWPOLYLINE
  5
EA
100
AcDbEntity
  8
PART_PADS_LAYER_BOTTOM
100
AcDbPolyline
 90
        2
 70
         1
 43
2.25
 10
47.951
 20
-42.172
 42
-1.0
 10
50.201
 20
-42.172
 42
-1.0
  0
LWPOLYLINE
  5
EB
100
AcDbEntity
  8
PART_PADS_LAYER_BOTTOM
100
AcDbPolyline
 90
        2
 70
         1
 43
2.25
 10
47.955
 20
4.31
 42
-1.0
 10
50.205
 20
4.31
 42
-1.0
  0
LWPOLYLINE
  5
EC
100
AcDbEntity
  8
PART_PADS_LAYER_BOTTOM
100
AcDbPolyline
 90
        2
 70
         1
 43
2.25
 10
-2.625
 20
-42.17
 42
-1.0
 10
-0.375
 20
-42.17
 42
-1.0
  0
SOLID
  5
ED
100
AcDbEntity
  8
PART_PADS_SMD_TOP
100
AcDbTrace
 10
-3.35
 20
-3.4425
 30
0.0
 11
-0.85
 21
-3.4425
 31
0.0
 12
-3.35
 22
-3.0925
 32
0.0
 13
-0.85
 23
-3.0925
 33
0.0
  0
SOLID
  5
EE
100
AcDbEntity
  8
PART_PADS_SMD_TOP
100
AcDbTrace
 10
-3.35
 20
-4.0775
 30
0.0
 11
-0.85
 21
-4.0775
 31
0.0
 12
-3.35
 22
-3.7275
 32
0.0
 13
-0.85
 23
-3.7275
 33
0.0
  0
SOLID
  5
EF
100
AcDbEntity
  8
PART_PADS_SMD_TOP
100
AcDbTrace
 10
-3.35
 20
-4.7125
 30
0.0
 11
-0.85
 21
-4.7125
 31
0.0
 12
-3.35
 22
-4.3625
 32
0.0
 13
-0.85
 23
-4.3625
 33
0.0
  0
SOLID
  5
F0
100
AcDbEntity
  8
PART_PADS_SMD_TOP
100
AcDbTrace
 10
-3.35
 20
-5.3475
 30
0.0
 11
-0.85
 21
-5.3475
 31
0.0
 12
-3.35
 22
-4.9975
 32
0.0
 13
-0.85
 23
-4.9975
 33
0.0
  0
SOLID
  5
F1
100
AcDbEntity
  8
PART_PADS_SMD_TOP
100
AcDbTrace
 10
-3.35
 20
-5.9825
 30
0.0
 11
-0.85
 21
-5.9825
 31
0.0
 12
-3.35
 22
-5.6325
 32
0.0
 13
-0.85
 23
-5.6325
 33
0.0
  0
SOLID
  5
F2
100
AcDbEntity
  8
PART_PADS_SMD_TOP
100
AcDbTrace
 10
-3.35
 20
-6.6175
 30
0.0
 11
-0.85
 21
-6.6175
 31
0.0
 12
-3.35
 22
-6.2675
 32
0.0
 13
-0.85
 23
-6.2675
 33
0.0
  0
SOLID
  5
F3
100
AcDbEntity
  8
PART_PADS_SMD_TOP
100
AcDbTrace
 10
-3.35
 20
-7.2525
 30
0.0
 11
-0.85
 21
-7.2525
 31
0.0
 12
-3.35
 22
-6.9025
 32
0.0
 13
-0.85
 23
-6.9025
 33
0.0
  0
SOLID
  5
F4
100
AcDbEntity
  8
PART_PADS_SMD_TOP
100
AcDbTrace
 10
-3.35
 20
-7.8875
 30
0.0
 11
-0.85
 21
-7.8875
 31
0.0
 12
-3.35
 22
-7.5375
 32
0.0
 13
-0.85
 23
-7.5375
 33
0.0
  0
SOLID
  5
F5
100
AcDbEntity
  8
PART_PADS_SMD_TOP
100
AcDbTrace
 10
-3.35
 20
-8.5225
 30
0.0
 11
-0.85
 21
-8.5225
 31
0.0
 12
-3.35
 22
-8.1725
 32
0.0
 13
-0.85
 23
-8.1725
 33
0.0
  0
SOLID
  5
F6
100
AcDbEntity
  8
PART_PADS_SMD_TOP
100
AcDbTrace
 10
-3.35
 20
-9.1575
 30
0.0
 11
-0.85
 21
-9.1575
 31
0.0
 12
-3.35
 22
-8.8075
 32
0.0
 13
-0.85
 23
-8.8075
 33
0.0
  0
SOLID
  5
F7
100
AcDbEntity
  8
PART_PADS_SMD_TOP
100
AcDbTrace
 10
-3.35
 20
-9.7925
 30
0.0
 11
-0.85
 21
-9.7925
 31
0.0
 12
-3.35
 22
-9.4425
 32
0.0
 13
-0.85
 23
-9.4425
 33
0.0
  0
SOLID
  5
F8
100
AcDbEntity
  8
PART_PADS_SMD_TOP
100
AcDbTrace
 10
-3.35
 20
-10.4275
 30
0.0
 11
-0.85
 21
-10.4275
 31
0.0
 12
-3.35
 22
-10.0775
 32
0.0
 13
-0.85
 23
-10.0775
 33
0.0
  0
SOLID
  5
F9
100
AcDbEntity
  8
PART_PADS_SMD_TOP
100
AcDbTrace
 10
-3.35
 20
-11.0625
 30
0.0
 11
-0.85
 21
-11.0625
 31
0.0
 12
-3.35
 22
-10.7125
 32
0.0
 13
-0.85
 23
-10.7125
 33
0.0
  0
SOLID
  5
FA
100
AcDbEntity
  8
PART_PADS_SMD_TOP
100
AcDbTrace
 10
-3.35
 20
-11.6975
 30
0.0
 11
-0.85
 21
-11.6975
 31
0.0
 12
-3.35
 22
-11.3475
 32
0.0
 13
-0.85
 23
-11.3475
 33
0.0
  0
SOLID
  5
FB
100
AcDbEntity
  8
PART_PADS_SMD_TOP
100
AcDbTrace
 10
-3.35
 20
-12.3325
 30
0.0
 11
-0.85
 21
-12.3325
 31
0.0
 12
-3.35
 22
-11.9825
 32
0.0
 13
-0.85
 23
-11.9825
 33
0.0
  0
SOLID
  5
FC
100
AcDbEntity
  8
PART_PADS_SMD_TOP
100
AcDbTrace
 10
-3.35
 20
-12.9675
 30
0.0
 11
-0.85
 21
-12.9675
 31
0.0
 12
-3.35
 22
-12.6175
 32
0.0
 13
-0.85
 23
-12.6175
 33
0.0
  0
SOLID
  5
FD
100
AcDbEntity
  8
PART_PADS_SMD_TOP
100
AcDbTrace
 10
-3.35
 20
-13.6025
 30
0.0
 11
-0.85
 21
-13.6025
 31
0.0
 12
-3.35
 22
-13.2525
 32
0.0
 13
-0.85
 23
-13.2525
 33
0.0
  0
SOLID
  5
FE
100
AcDbEntity
  8
PART_PADS_SMD_TOP
100
AcDbTrace
 10
-3.35
 20
-14.2375
 30
0.0
 11
-0.85
 21
-14.2375
 31
0.0
 12
-3.35
 22
-13.8875
 32
0.0
 13
-0.85
 23
-13.8875
 33
0.0
  0
SOLID
  5
FF
100
AcDbEntity
  8
PART_PADS_SMD_TOP
100
AcDbTrace
 10
-3.35
 20
-14.8725
 30
0.0
 11
-0.85
 21
-14.8725
 31
0.0
 12
-3.35
 22
-14.5225
 32
0.0
 13
-0.85
 23
-14.5225
 33
0.0
  0
SOLID
  5
100
100
AcDbEntity
  8
PART_PADS_SMD_TOP
100
AcDbTrace
 10
-3.35
 20
-15.5075
 30
0.0
 11
-0.85
 21
-15.5075
 31
0.0
 12
-3.35
 22
-15.1575
 32
0.0
 13
-0.85
 23
-15.1575
 33
0.0
  0
SOLID
  5
101
100
AcDbEntity
  8
PART_PADS_SMD_TOP
100
AcDbTrace
 10
-3.35
 20
-16.1425
 30
0.0
 11
-0.85
 21
-16.1425
 31
0.0
 12
-3.35
 22
-15.7925
 32
0.0
 13
-0.85
 23
-15.7925
 33
0.0
  0
SOLID
  5
102
100
AcDbEntity
  8
PART_PADS_SMD_TOP
100
AcDbTrace
 10
-3.35
 20
-16.7775
 30
0.0
 11
-0.85
 21
-16.7775
 31
0.0
 12
-3.35
 22
-16.4275
 32
0.0
 13
-0.85
 23
-16.4275
 33
0.0
  0
SOLID
  5
103
100
AcDbEntity
  8
PART_PADS_SMD_TOP
100
AcDbTrace
 10
-3.35
 20
-17.4125
 30
0.0
 11
-0.85
 21
-17.4125
 31
0.0
 12
-3.35
 22
-17.0625
 32
0.0
 13
-0.85
 23
-17.0625
 33
0.0
  0
SOLID
  5
104
100
AcDbEntity
  8
PART_PADS_SMD_TOP
100
AcDbTrace
 10
-3.35
 20
-18.0475
 30
0.0
 11
-0.85
 21
-18.0475
 31
0.0
 12
-3.35
 22
-17.6975
 32
0.0
 13
-0.85
 23
-17.6975
 33
0.0
  0
SOLID
  5
105
100
AcDbEntity
  8
PART_PADS_SMD_TOP
100
AcDbTrace
 10
-3.35
 20
-18.6825
 30
0.0
 11
-0.85
 21
-18.6825
 31
0.0
 12
-3.35
 22
-18.3325
 32
0.0
 13
-0.85
 23
-18.3325
 33
0.0
  0
SOLID
  5
106
100
AcDbEntity
  8
PART_PADS_SMD_TOP
100
AcDbTrace
 10
-3.35
 20
-19.3175
 30
0.0
 11
-0.85
 21
-19.3175
 31
0.0
 12
-3.35
 22
-18.9675
 32
0.0
 13
-0.85
 23
-18.9675
 33
0.0
  0
SOLID
  5
107
100
AcDbEntity
  8
PART_PADS_SMD_TOP
100
AcDbTrace
 10
-3.35
 20
-19.9525
 30
0.0
 11
-0.85
 21
-19.9525
 31
0.0
 12
-3.35
 22
-19.6025
 32
0.0
 13
-0.85
 23
-19.6025
 33
0.0
  0
SOLID
  5
108
100
AcDbEntity
  8
PART_PADS_SMD_TOP
100
AcDbTrace
 10
-3.35
 20
-20.5875
 30
0.0
 11
-0.85
 21
-20.5875
 31
0.0
 12
-3.35
 22
-20.2375
 32
0.0
 13
-0.85
 23
-20.2375
 33
0.0
  0
SOLID
  5
109
100
AcDbEntity
  8
PART_PADS_SMD_TOP
100
AcDbTrace
 10
-3.35
 20
-21.2225
 30
0.0
 11
-0.85
 21
-21.2225
 31
0.0
 12
-3.35
 22
-20.8725
 32
0.0
 13
-0.85
 23
-20.8725
 33
0.0
  0
SOLID
  5
10A
100
AcDbEntity
  8
PART_PADS_SMD_TOP
100
AcDbTrace
 10
-3.35
 20
-21.8575
 30
0.0
 11
-0.85
 21
-21.8575
 31
0.0
 12
-3.35
 22
-21.5075
 32
0.0
 13
-0.85
 23
-21.5075
 33
0.0
  0
SOLID
  5
10B
100
AcDbEntity
  8
PART_PADS_SMD_TOP
100
AcDbTrace
 10
-3.35
 20
-22.4925
 30
0.0
 11
-0.85
 21
-22.4925
 31
0.0
 12
-3.35
 22
-22.1425
 32
0.0
 13
-0.85
 23
-22.1425
 33
0.0
  0
SOLID
  5
10C
100
AcDbEntity
  8
PART_PADS_SMD_TOP
100
AcDbTrace
 10
-3.35
 20
-23.1275
 30
0.0
 11
-0.85
 21
-23.1275
 31
0.0
 12
-3.35
 22
-22.7775
 32
0.0
 13
-0.85
 23
-22.7775
 33
0.0
  0
SOLID
  5
10D
100
AcDbEntity
  8
PART_PADS_SMD_TOP
100
AcDbTrace
 10
-3.35
 20
-23.7625
 30
0.0
 11
-0.85
 21
-23.7625
 31
0.0
 12
-3.35
 22
-23.4125
 32
0.0
 13
-0.85
 23
-23.4125
 33
0.0
  0
SOLID
  5
10E
100
AcDbEntity
  8
PART_PADS_SMD_TOP
100
AcDbTrace
 10
-3.35
 20
-24.3975
 30
0.0
 11
-0.85
 21
-24.3975
 31
0.0
 12
-3.35
 22
-24.0475
 32
0.0
 13
-0.85
 23
-24.0475
 33
0.0
  0
SOLID
  5
10F
100
AcDbEntity
  8
PART_PADS_SMD_TOP
100
AcDbTrace
 10
-3.35
 20
-25.0325
 30
0.0
 11
-0.85
 21
-25.0325
 31
0.0
 12
-3.35
 22
-24.6825
 32
0.0
 13
-0.85
 23
-24.6825
 33
0.0
  0
SOLID
  5
110
100
AcDbEntity
  8
PART_PADS_SMD_TOP
100
AcDbTrace
 10
-3.35
 20
-25.6675
 30
0.0
 11
-0.85
 21
-25.6675
 31
0.0
 12
-3.35
 22
-25.3175
 32
0.0
 13
-0.85
 23
-25.3175
 33
0.0
  0
SOLID
  5
111
100
AcDbEntity
  8
PART_PADS_SMD_TOP
100
AcDbTrace
 10
-3.35
 20
-26.3025
 30
0.0
 11
-0.85
 21
-26.3025
 31
0.0
 12
-3.35
 22
-25.9525
 32
0.0
 13
-0.85
 23
-25.9525
 33
0.0
  0
SOLID
  5
112
100
AcDbEntity
  8
PART_PADS_SMD_TOP
100
AcDbTrace
 10
-3.35
 20
-26.9375
 30
0.0
 11
-0.85
 21
-26.9375
 31
0.0
 12
-3.35
 22
-26.5875
 32
0.0
 13
-0.85
 23
-26.5875
 33
0.0
  0
SOLID
  5
113
100
AcDbEntity
  8
PART_PADS_SMD_TOP
100
AcDbTrace
 10
-3.35
 20
-27.5725
 30
0.0
 11
-0.85
 21
-27.5725
 31
0.0
 12
-3.35
 22
-27.2225
 32
0.0
 13
-0.85
 23
-27.2225
 33
0.0
  0
SOLID
  5
114
100
AcDbEntity
  8
PART_PADS_SMD_TOP
100
AcDbTrace
 10
-3.35
 20
-28.2075
 30
0.0
 11
-0.85
 21
-28.2075
 31
0.0
 12
-3.35
 22
-27.8575
 32
0.0
 13
-0.85
 23
-27.8575
 33
0.0
  0
SOLID
  5
115
100
AcDbEntity
  8
PART_PADS_SMD_TOP
100
AcDbTrace
 10
-3.35
 20
-28.8425
 30
0.0
 11
-0.85
 21
-28.8425
 31
0.0
 12
-3.35
 22
-28.4925
 32
0.0
 13
-0.85
 23
-28.4925
 33
0.0
  0
SOLID
  5
116
100
AcDbEntity
  8
PART_PADS_SMD_TOP
100
AcDbTrace
 10
-3.35
 20
-29.4775
 30
0.0
 11
-0.85
 21
-29.4775
 31
0.0
 12
-3.35
 22
-29.1275
 32
0.0
 13
-0.85
 23
-29.1275
 33
0.0
  0
SOLID
  5
117
100
AcDbEntity
  8
PART_PADS_SMD_TOP
100
AcDbTrace
 10
-3.35
 20
-30.1125
 30
0.0
 11
-0.85
 21
-30.1125
 31
0.0
 12
-3.35
 22
-29.7625
 32
0.0
 13
-0.85
 23
-29.7625
 33
0.0
  0
SOLID
  5
118
100
AcDbEntity
  8
PART_PADS_SMD_TOP
100
AcDbTrace
 10
-3.35
 20
-30.7475
 30
0.0
 11
-0.85
 21
-30.7475
 31
0.0
 12
-3.35
 22
-30.3975
 32
0.0
 13
-0.85
 23
-30.3975
 33
0.0
  0
SOLID
  5
119
100
AcDbEntity
  8
PART_PADS_SMD_TOP
100
AcDbTrace
 10
-3.35
 20
-31.3825
 30
0.0
 11
-0.85
 21
-31.3825
 31
0.0
 12
-3.35
 22
-31.0325
 32
0.0
 13
-0.85
 23
-31.0325
 33
0.0
  0
SOLID
  5
11A
100
AcDbEntity
  8
PART_PADS_SMD_TOP
100
AcDbTrace
 10
-3.35
 20
-32.0175
 30
0.0
 11
-0.85
 21
-32.0175
 31
0.0
 12
-3.35
 22
-31.6675
 32
0.0
 13
-0.85
 23
-31.6675
 33
0.0
  0
SOLID
  5
11B
100
AcDbEntity
  8
PART_PADS_SMD_TOP
100
AcDbTrace
 10
-3.35
 20
-32.6525
 30
0.0
 11
-0.85
 21
-32.6525
 31
0.0
 12
-3.35
 22
-32.3025
 32
0.0
 13
-0.85
 23
-32.3025
 33
0.0
  0
SOLID
  5
11C
100
AcDbEntity
  8
PART_PADS_SMD_TOP
100
AcDbTrace
 10
-3.35
 20
-33.2875
 30
0.0
 11
-0.85
 21
-33.2875
 31
0.0
 12
-3.35
 22
-32.9375
 32
0.0
 13
-0.85
 23
-32.9375
 33
0.0
  0
SOLID
  5
11D
100
AcDbEntity
  8
PART_PADS_SMD_TOP
100
AcDbTrace
 10
-3.35
 20
-33.9225
 30
0.0
 11
-0.85
 21
-33.9225
 31
0.0
 12
-3.35
 22
-33.5725
 32
0.0
 13
-0.85
 23
-33.5725
 33
0.0
  0
SOLID
  5
11E
100
AcDbEntity
  8
PART_PADS_SMD_TOP
100
AcDbTrace
 10
-3.35
 20
-34.5575
 30
0.0
 11
-0.85
 21
-34.5575
 31
0.0
 12
-3.35
 22
-34.2075
 32
0.0
 13
-0.85
 23
-34.2075
 33
0.0
  0
SOLID
  5
11F
100
AcDbEntity
  8
PART_PADS_SMD_TOP
100
AcDbTrace
 10
0.85
 20
-3.4425
 30
0.0
 11
3.35
 21
-3.4425
 31
0.0
 12
0.85
 22
-3.0925
 32
0.0
 13
3.35
 23
-3.0925
 33
0.0
  0
SOLID
  5
120
100
AcDbEntity
  8
PART_PADS_SMD_TOP
100
AcDbTrace
 10
0.85
 20
-4.0775
 30
0.0
 11
3.35
 21
-4.0775
 31
0.0
 12
0.85
 22
-3.7275
 32
0.0
 13
3.35
 23
-3.7275
 33
0.0
  0
SOLID
  5
121
100
AcDbEntity
  8
PART_PADS_SMD_TOP
100
AcDbTrace
 10
0.85
 20
-4.7125
 30
0.0
 11
3.35
 21
-4.7125
 31
0.0
 12
0.85
 22
-4.3625
 32
0.0
 13
3.35
 23
-4.3625
 33
0.0
  0
SOLID
  5
122
100
AcDbEntity
  8
PART_PADS_SMD_TOP
100
AcDbTrace
 10
0.85
 20
-5.3475
 30
0.0
 11
3.35
 21
-5.3475
 31
0.0
 12
0.85
 22
-4.9975
 32
0.0
 13
3.35
 23
-4.9975
 33
0.0
  0
SOLID
  5
123
100
AcDbEntity
  8
PART_PADS_SMD_TOP
100
AcDbTrace
 10
0.85
 20
-5.9825
 30
0.0
 11
3.35
 21
-5.9825
 31
0.0
 12
0.85
 22
-5.6325
 32
0.0
 13
3.35
 23
-5.6325
 33
0.0
  0
SOLID
  5
124
100
AcDbEntity
  8
PART_PADS_SMD_TOP
100
AcDbTrace
 10
0.85
 20
-6.6175
 30
0.0
 11
3.35
 21
-6.6175
 31
0.0
 12
0.85
 22
-6.2675
 32
0.0
 13
3.35
 23
-6.2675
 33
0.0
  0
SOLID
  5
125
100
AcDbEntity
  8
PART_PADS_SMD_TOP
100
AcDbTrace
 10
0.85
 20
-7.2525
 30
0.0
 11
3.35
 21
-7.2525
 31
0.0
 12
0.85
 22
-6.9025
 32
0.0
 13
3.35
 23
-6.9025
 33
0.0
  0
SOLID
  5
126
100
AcDbEntity
  8
PART_PADS_SMD_TOP
100
AcDbTrace
 10
0.85
 20
-7.8875
 30
0.0
 11
3.35
 21
-7.8875
 31
0.0
 12
0.85
 22
-7.5375
 32
0.0
 13
3.35
 23
-7.5375
 33
0.0
  0
SOLID
  5
127
100
AcDbEntity
  8
PART_PADS_SMD_TOP
100
AcDbTrace
 10
0.85
 20
-8.5225
 30
0.0
 11
3.35
 21
-8.5225
 31
0.0
 12
0.85
 22
-8.1725
 32
0.0
 13
3.35
 23
-8.1725
 33
0.0
  0
SOLID
  5
128
100
AcDbEntity
  8
PART_PADS_SMD_TOP
100
AcDbTrace
 10
0.85
 20
-9.1575
 30
0.0
 11
3.35
 21
-9.1575
 31
0.0
 12
0.85
 22
-8.8075
 32
0.0
 13
3.35
 23
-8.8075
 33
0.0
  0
SOLID
  5
129
100
AcDbEntity
  8
PART_PADS_SMD_TOP
100
AcDbTrace
 10
0.85
 20
-9.7925
 30
0.0
 11
3.35
 21
-9.7925
 31
0.0
 12
0.85
 22
-9.4425
 32
0.0
 13
3.35
 23
-9.4425
 33
0.0
  0
SOLID
  5
12A
100
AcDbEntity
  8
PART_PADS_SMD_TOP
100
AcDbTrace
 10
0.85
 20
-10.4275
 30
0.0
 11
3.35
 21
-10.4275
 31
0.0
 12
0.85
 22
-10.0775
 32
0.0
 13
3.35
 23
-10.0775
 33
0.0
  0
SOLID
  5
12B
100
AcDbEntity
  8
PART_PADS_SMD_TOP
100
AcDbTrace
 10
0.85
 20
-11.0625
 30
0.0
 11
3.35
 21
-11.0625
 31
0.0
 12
0.85
 22
-10.7125
 32
0.0
 13
3.35
 23
-10.7125
 33
0.0
  0
SOLID
  5
12C
100
AcDbEntity
  8
PART_PADS_SMD_TOP
100
AcDbTrace
 10
0.85
 20
-11.6975
 30
0.0
 11
3.35
 21
-11.6975
 31
0.0
 12
0.85
 22
-11.3475
 32
0.0
 13
3.35
 23
-11.3475
 33
0.0
  0
SOLID
  5
12D
100
AcDbEntity
  8
PART_PADS_SMD_TOP
100
AcDbTrace
 10
0.85
 20
-12.3325
 30
0.0
 11
3.35
 21
-12.3325
 31
0.0
 12
0.85
 22
-11.9825
 32
0.0
 13
3.35
 23
-11.9825
 33
0.0
  0
SOLID
  5
12E
100
AcDbEntity
  8
PART_PADS_SMD_TOP
100
AcDbTrace
 10
0.85
 20
-12.9675
 30
0.0
 11
3.35
 21
-12.9675
 31
0.0
 12
0.85
 22
-12.6175
 32
0.0
 13
3.35
 23
-12.6175
 33
0.0
  0
SOLID
  5
12F
100
AcDbEntity
  8
PART_PADS_SMD_TOP
100
AcDbTrace
 10
0.85
 20
-13.6025
 30
0.0
 11
3.35
 21
-13.6025
 31
0.0
 12
0.85
 22
-13.2525
 32
0.0
 13
3.35
 23
-13.2525
 33
0.0
  0
SOLID
  5
130
100
AcDbEntity
  8
PART_PADS_SMD_TOP
100
AcDbTrace
 10
0.85
 20
-14.2375
 30
0.0
 11
3.35
 21
-14.2375
 31
0.0
 12
0.85
 22
-13.8875
 32
0.0
 13
3.35
 23
-13.8875
 33
0.0
  0
SOLID
  5
131
100
AcDbEntity
  8
PART_PADS_SMD_TOP
100
AcDbTrace
 10
0.85
 20
-14.8725
 30
0.0
 11
3.35
 21
-14.8725
 31
0.0
 12
0.85
 22
-14.5225
 32
0.0
 13
3.35
 23
-14.5225
 33
0.0
  0
SOLID
  5
132
100
AcDbEntity
  8
PART_PADS_SMD_TOP
100
AcDbTrace
 10
0.85
 20
-15.5075
 30
0.0
 11
3.35
 21
-15.5075
 31
0.0
 12
0.85
 22
-15.1575
 32
0.0
 13
3.35
 23
-15.1575
 33
0.0
  0
SOLID
  5
133
100
AcDbEntity
  8
PART_PADS_SMD_TOP
100
AcDbTrace
 10
0.85
 20
-16.1425
 30
0.0
 11
3.35
 21
-16.1425
 31
0.0
 12
0.85
 22
-15.7925
 32
0.0
 13
3.35
 23
-15.7925
 33
0.0
  0
SOLID
  5
134
100
AcDbEntity
  8
PART_PADS_SMD_TOP
100
AcDbTrace
 10
0.85
 20
-16.7775
 30
0.0
 11
3.35
 21
-16.7775
 31
0.0
 12
0.85
 22
-16.4275
 32
0.0
 13
3.35
 23
-16.4275
 33
0.0
  0
SOLID
  5
135
100
AcDbEntity
  8
PART_PADS_SMD_TOP
100
AcDbTrace
 10
0.85
 20
-17.4125
 30
0.0
 11
3.35
 21
-17.4125
 31
0.0
 12
0.85
 22
-17.0625
 32
0.0
 13
3.35
 23
-17.0625
 33
0.0
  0
SOLID
  5
136
100
AcDbEntity
  8
PART_PADS_SMD_TOP
100
AcDbTrace
 10
0.85
 20
-18.0475
 30
0.0
 11
3.35
 21
-18.0475
 31
0.0
 12
0.85
 22
-17.6975
 32
0.0
 13
3.35
 23
-17.6975
 33
0.0
  0
SOLID
  5
137
100
AcDbEntity
  8
PART_PADS_SMD_TOP
100
AcDbTrace
 10
0.85
 20
-18.6825
 30
0.0
 11
3.35
 21
-18.6825
 31
0.0
 12
0.85
 22
-18.3325
 32
0.0
 13
3.35
 23
-18.3325
 33
0.0
  0
SOLID
  5
138
100
AcDbEntity
  8
PART_PADS_SMD_TOP
100
AcDbTrace
 10
0.85
 20
-19.3175
 30
0.0
 11
3.35
 21
-19.3175
 31
0.0
 12
0.85
 22
-18.9675
 32
0.0
 13
3.35
 23
-18.9675
 33
0.0
  0
SOLID
  5
139
100
AcDbEntity
  8
PART_PADS_SMD_TOP
100
AcDbTrace
 10
0.85
 20
-19.9525
 30
0.0
 11
3.35
 21
-19.9525
 31
0.0
 12
0.85
 22
-19.6025
 32
0.0
 13
3.35
 23
-19.6025
 33
0.0
  0
SOLID
  5
13A
100
AcDbEntity
  8
PART_PADS_SMD_TOP
100
AcDbTrace
 10
0.85
 20
-20.5875
 30
0.0
 11
3.35
 21
-20.5875
 31
0.0
 12
0.85
 22
-20.2375
 32
0.0
 13
3.35
 23
-20.2375
 33
0.0
  0
SOLID
  5
13B
100
AcDbEntity
  8
PART_PADS_SMD_TOP
100
AcDbTrace
 10
0.85
 20
-21.2225
 30
0.0
 11
3.35
 21
-21.2225
 31
0.0
 12
0.85
 22
-20.8725
 32
0.0
 13
3.35
 23
-20.8725
 33
0.0
  0
SOLID
  5
13C
100
AcDbEntity
  8
PART_PADS_SMD_TOP
100
AcDbTrace
 10
0.85
 20
-21.8575
 30
0.0
 11
3.35
 21
-21.8575
 31
0.0
 12
0.85
 22
-21.5075
 32
0.0
 13
3.35
 23
-21.5075
 33
0.0
  0
SOLID
  5
13D
100
AcDbEntity
  8
PART_PADS_SMD_TOP
100
AcDbTrace
 10
0.85
 20
-22.4925
 30
0.0
 11
3.35
 21
-22.4925
 31
0.0
 12
0.85
 22
-22.1425
 32
0.0
 13
3.35
 23
-22.1425
 33
0.0
  0
SOLID
  5
13E
100
AcDbEntity
  8
PART_PADS_SMD_TOP
100
AcDbTrace
 10
0.85
 20
-23.1275
 30
0.0
 11
3.35
 21
-23.1275
 31
0.0
 12
0.85
 22
-22.7775
 32
0.0
 13
3.35
 23
-22.7775
 33
0.0
  0
SOLID
  5
13F
100
AcDbEntity
  8
PART_PADS_SMD_TOP
100
AcDbTrace
 10
0.85
 20
-23.7625
 30
0.0
 11
3.35
 21
-23.7625
 31
0.0
 12
0.85
 22
-23.4125
 32
0.0
 13
3.35
 23
-23.4125
 33
0.0
  0
SOLID
  5
140
100
AcDbEntity
  8
PART_PADS_SMD_TOP
100
AcDbTrace
 10
0.85
 20
-24.3975
 30
0.0
 11
3.35
 21
-24.3975
 31
0.0
 12
0.85
 22
-24.0475
 32
0.0
 13
3.35
 23
-24.0475
 33
0.0
  0
SOLID
  5
141
100
AcDbEntity
  8
PART_PADS_SMD_TOP
100
AcDbTrace
 10
0.85
 20
-25.0325
 30
0.0
 11
3.35
 21
-25.0325
 31
0.0
 12
0.85
 22
-24.6825
 32
0.0
 13
3.35
 23
-24.6825
 33
0.0
  0
SOLID
  5
142
100
AcDbEntity
  8
PART_PADS_SMD_TOP
100
AcDbTrace
 10
0.85
 20
-25.6675
 30
0.0
 11
3.35
 21
-25.6675
 31
0.0
 12
0.85
 22
-25.3175
 32
0.0
 13
3.35
 23
-25.3175
 33
0.0
  0
SOLID
  5
143
100
AcDbEntity
  8
PART_PADS_SMD_TOP
100
AcDbTrace
 10
0.85
 20
-26.3025
 30
0.0
 11
3.35
 21
-26.3025
 31
0.0
 12
0.85
 22
-25.9525
 32
0.0
 13
3.35
 23
-25.9525
 33
0.0
  0
SOLID
  5
144
100
AcDbEntity
  8
PART_PADS_SMD_TOP
100
AcDbTrace
 10
0.85
 20
-26.9375
 30
0.0
 11
3.35
 21
-26.9375
 31
0.0
 12
0.85
 22
-26.5875
 32
0.0
 13
3.35
 23
-26.5875
 33
0.0
  0
SOLID
  5
145
100
AcDbEntity
  8
PART_PADS_SMD_TOP
100
AcDbTrace
 10
0.85
 20
-27.5725
 30
0.0
 11
3.35
 21
-27.5725
 31
0.0
 12
0.85
 22
-27.2225
 32
0.0
 13
3.35
 23
-27.2225
 33
0.0
  0
SOLID
  5
146
100
AcDbEntity
  8
PART_PADS_SMD_TOP
100
AcDbTrace
 10
0.85
 20
-28.2075
 30
0.0
 11
3.35
 21
-28.2075
 31
0.0
 12
0.85
 22
-27.8575
 32
0.0
 13
3.35
 23
-27.8575
 33
0.0
  0
SOLID
  5
147
100
AcDbEntity
  8
PART_PADS_SMD_TOP
100
AcDbTrace
 10
0.85
 20
-28.8425
 30
0.0
 11
3.35
 21
-28.8425
 31
0.0
 12
0.85
 22
-28.4925
 32
0.0
 13
3.35
 23
-28.4925
 33
0.0
  0
SOLID
  5
148
100
AcDbEntity
  8
PART_PADS_SMD_TOP
100
AcDbTrace
 10
0.85
 20
-29.4775
 30
0.0
 11
3.35
 21
-29.4775
 31
0.0
 12
0.85
 22
-29.1275
 32
0.0
 13
3.35
 23
-29.1275
 33
0.0
  0
SOLID
  5
149
100
AcDbEntity
  8
PART_PADS_SMD_TOP
100
AcDbTrace
 10
0.85
 20
-30.1125
 30
0.0
 11
3.35
 21
-30.1125
 31
0.0
 12
0.85
 22
-29.7625
 32
0.0
 13
3.35
 23
-29.7625
 33
0.0
  0
SOLID
  5
14A
100
AcDbEntity
  8
PART_PADS_SMD_TOP
100
AcDbTrace
 10
0.85
 20
-30.7475
 30
0.0
 11
3.35
 21
-30.7475
 31
0.0
 12
0.85
 22
-30.3975
 32
0.0
 13
3.35
 23
-30.3975
 33
0.0
  0
SOLID
  5
14B
100
AcDbEntity
  8
PART_PADS_SMD_TOP
100
AcDbTrace
 10
0.85
 20
-31.3825
 30
0.0
 11
3.35
 21
-31.3825
 31
0.0
 12
0.85
 22
-31.0325
 32
0.0
 13
3.35
 23
-31.0325
 33
0.0
  0
SOLID
  5
14C
100
AcDbEntity
  8
PART_PADS_SMD_TOP
100
AcDbTrace
 10
0.85
 20
-32.0175
 30
0.0
 11
3.35
 21
-32.0175
 31
0.0
 12
0.85
 22
-31.6675
 32
0.0
 13
3.35
 23
-31.6675
 33
0.0
  0
SOLID
  5
14D
100
AcDbEntity
  8
PART_PADS_SMD_TOP
100
AcDbTrace
 10
0.85
 20
-32.6525
 30
0.0
 11
3.35
 21
-32.6525
 31
0.0
 12
0.85
 22
-32.3025
 32
0.0
 13
3.35
 23
-32.3025
 33
0.0
  0
SOLID
  5
14E
100
AcDbEntity
  8
PART_PADS_SMD_TOP
100
AcDbTrace
 10
0.85
 20
-33.2875
 30
0.0
 11
3.35
 21
-33.2875
 31
0.0
 12
0.85
 22
-32.9375
 32
0.0
 13
3.35
 23
-32.9375
 33
0.0
  0
SOLID
  5
14F
100
AcDbEntity
  8
PART_PADS_SMD_TOP
100
AcDbTrace
 10
0.85
 20
-33.9225
 30
0.0
 11
3.35
 21
-33.9225
 31
0.0
 12
0.85
 22
-33.5725
 32
0.0
 13
3.35
 23
-33.5725
 33
0.0
  0
SOLID
  5
150
100
AcDbEntity
  8
PART_PADS_SMD_TOP
100
AcDbTrace
 10
0.85
 20
-34.5575
 30
0.0
 11
3.35
 21
-34.5575
 31
0.0
 12
0.85
 22
-34.2075
 32
0.0
 13
3.35
 23
-34.2075
 33
0.0
  0
SOLID
  5
151
100
AcDbEntity
  8
PART_PADS_SMD_TOP
100
AcDbTrace
 10
44.25
 20
-3.4425
 30
0.0
 11
46.75
 21
-3.4425
 31
0.0
 12
44.25
 22
-3.0925
 32
0.0
 13
46.75
 23
-3.0925
 33
0.0
  0
SOLID
  5
152
100
AcDbEntity
  8
PART_PADS_SMD_TOP
100
AcDbTrace
 10
44.25
 20
-4.0775
 30
0.0
 11
46.75
 21
-4.0775
 31
0.0
 12
44.25
 22
-3.7275
 32
0.0
 13
46.75
 23
-3.7275
 33
0.0
  0
SOLID
  5
153
100
AcDbEntity
  8
PART_PADS_SMD_TOP
100
AcDbTrace
 10
44.25
 20
-4.7125
 30
0.0
 11
46.75
 21
-4.7125
 31
0.0
 12
44.25
 22
-4.3625
 32
0.0
 13
46.75
 23
-4.3625
 33
0.0
  0
SOLID
  5
154
100
AcDbEntity
  8
PART_PADS_SMD_TOP
100
AcDbTrace
 10
44.25
 20
-5.3475
 30
0.0
 11
46.75
 21
-5.3475
 31
0.0
 12
44.25
 22
-4.9975
 32
0.0
 13
46.75
 23
-4.9975
 33
0.0
  0
SOLID
  5
155
100
AcDbEntity
  8
PART_PADS_SMD_TOP
100
AcDbTrace
 10
44.25
 20
-5.9825
 30
0.0
 11
46.75
 21
-5.9825
 31
0.0
 12
44.25
 22
-5.6325
 32
0.0
 13
46.75
 23
-5.6325
 33
0.0
  0
SOLID
  5
156
100
AcDbEntity
  8
PART_PADS_SMD_TOP
100
AcDbTrace
 10
44.25
 20
-6.6175
 30
0.0
 11
46.75
 21
-6.6175
 31
0.0
 12
44.25
 22
-6.2675
 32
0.0
 13
46.75
 23
-6.2675
 33
0.0
  0
SOLID
  5
157
100
AcDbEntity
  8
PART_PADS_SMD_TOP
100
AcDbTrace
 10
44.25
 20
-7.2525
 30
0.0
 11
46.75
 21
-7.2525
 31
0.0
 12
44.25
 22
-6.9025
 32
0.0
 13
46.75
 23
-6.9025
 33
0.0
  0
SOLID
  5
158
100
AcDbEntity
  8
PART_PADS_SMD_TOP
100
AcDbTrace
 10
44.25
 20
-7.8875
 30
0.0
 11
46.75
 21
-7.8875
 31
0.0
 12
44.25
 22
-7.5375
 32
0.0
 13
46.75
 23
-7.5375
 33
0.0
  0
SOLID
  5
159
100
AcDbEntity
  8
PART_PADS_SMD_TOP
100
AcDbTrace
 10
44.25
 20
-8.5225
 30
0.0
 11
46.75
 21
-8.5225
 31
0.0
 12
44.25
 22
-8.1725
 32
0.0
 13
46.75
 23
-8.1725
 33
0.0
  0
SOLID
  5
15A
100
AcDbEntity
  8
PART_PADS_SMD_TOP
100
AcDbTrace
 10
44.25
 20
-9.1575
 30
0.0
 11
46.75
 21
-9.1575
 31
0.0
 12
44.25
 22
-8.8075
 32
0.0
 13
46.75
 23
-8.8075
 33
0.0
  0
SOLID
  5
15B
100
AcDbEntity
  8
PART_PADS_SMD_TOP
100
AcDbTrace
 10
44.25
 20
-9.7925
 30
0.0
 11
46.75
 21
-9.7925
 31
0.0
 12
44.25
 22
-9.4425
 32
0.0
 13
46.75
 23
-9.4425
 33
0.0
  0
SOLID
  5
15C
100
AcDbEntity
  8
PART_PADS_SMD_TOP
100
AcDbTrace
 10
44.25
 20
-10.4275
 30
0.0
 11
46.75
 21
-10.4275
 31
0.0
 12
44.25
 22
-10.0775
 32
0.0
 13
46.75
 23
-10.0775
 33
0.0
  0
SOLID
  5
15D
100
AcDbEntity
  8
PART_PADS_SMD_TOP
100
AcDbTrace
 10
44.25
 20
-11.0625
 30
0.0
 11
46.75
 21
-11.0625
 31
0.0
 12
44.25
 22
-10.7125
 32
0.0
 13
46.75
 23
-10.7125
 33
0.0
  0
SOLID
  5
15E
100
AcDbEntity
  8
PART_PADS_SMD_TOP
100
AcDbTrace
 10
44.25
 20
-11.6975
 30
0.0
 11
46.75
 21
-11.6975
 31
0.0
 12
44.25
 22
-11.3475
 32
0.0
 13
46.75
 23
-11.3475
 33
0.0
  0
SOLID
  5
15F
100
AcDbEntity
  8
PART_PADS_SMD_TOP
100
AcDbTrace
 10
44.25
 20
-12.3325
 30
0.0
 11
46.75
 21
-12.3325
 31
0.0
 12
44.25
 22
-11.9825
 32
0.0
 13
46.75
 23
-11.9825
 33
0.0
  0
SOLID
  5
160
100
AcDbEntity
  8
PART_PADS_SMD_TOP
100
AcDbTrace
 10
44.25
 20
-12.9675
 30
0.0
 11
46.75
 21
-12.9675
 31
0.0
 12
44.25
 22
-12.6175
 32
0.0
 13
46.75
 23
-12.6175
 33
0.0
  0
SOLID
  5
161
100
AcDbEntity
  8
PART_PADS_SMD_TOP
100
AcDbTrace
 10
44.25
 20
-13.6025
 30
0.0
 11
46.75
 21
-13.6025
 31
0.0
 12
44.25
 22
-13.2525
 32
0.0
 13
46.75
 23
-13.2525
 33
0.0
  0
SOLID
  5
162
100
AcDbEntity
  8
PART_PADS_SMD_TOP
100
AcDbTrace
 10
44.25
 20
-14.2375
 30
0.0
 11
46.75
 21
-14.2375
 31
0.0
 12
44.25
 22
-13.8875
 32
0.0
 13
46.75
 23
-13.8875
 33
0.0
  0
SOLID
  5
163
100
AcDbEntity
  8
PART_PADS_SMD_TOP
100
AcDbTrace
 10
44.25
 20
-14.8725
 30
0.0
 11
46.75
 21
-14.8725
 31
0.0
 12
44.25
 22
-14.5225
 32
0.0
 13
46.75
 23
-14.5225
 33
0.0
  0
SOLID
  5
164
100
AcDbEntity
  8
PART_PADS_SMD_TOP
100
AcDbTrace
 10
44.25
 20
-15.5075
 30
0.0
 11
46.75
 21
-15.5075
 31
0.0
 12
44.25
 22
-15.1575
 32
0.0
 13
46.75
 23
-15.1575
 33
0.0
  0
SOLID
  5
165
100
AcDbEntity
  8
PART_PADS_SMD_TOP
100
AcDbTrace
 10
44.25
 20
-16.1425
 30
0.0
 11
46.75
 21
-16.1425
 31
0.0
 12
44.25
 22
-15.7925
 32
0.0
 13
46.75
 23
-15.7925
 33
0.0
  0
SOLID
  5
166
100
AcDbEntity
  8
PART_PADS_SMD_TOP
100
AcDbTrace
 10
44.25
 20
-16.7775
 30
0.0
 11
46.75
 21
-16.7775
 31
0.0
 12
44.25
 22
-16.4275
 32
0.0
 13
46.75
 23
-16.4275
 33
0.0
  0
SOLID
  5
167
100
AcDbEntity
  8
PART_PADS_SMD_TOP
100
AcDbTrace
 10
44.25
 20
-17.4125
 30
0.0
 11
46.75
 21
-17.4125
 31
0.0
 12
44.25
 22
-17.0625
 32
0.0
 13
46.75
 23
-17.0625
 33
0.0
  0
SOLID
  5
168
100
AcDbEntity
  8
PART_PADS_SMD_TOP
100
AcDbTrace
 10
44.25
 20
-18.0475
 30
0.0
 11
46.75
 21
-18.0475
 31
0.0
 12
44.25
 22
-17.6975
 32
0.0
 13
46.75
 23
-17.6975
 33
0.0
  0
SOLID
  5
169
100
AcDbEntity
  8
PART_PADS_SMD_TOP
100
AcDbTrace
 10
44.25
 20
-18.6825
 30
0.0
 11
46.75
 21
-18.6825
 31
0.0
 12
44.25
 22
-18.3325
 32
0.0
 13
46.75
 23
-18.3325
 33
0.0
  0
SOLID
  5
16A
100
AcDbEntity
  8
PART_PADS_SMD_TOP
100
AcDbTrace
 10
44.25
 20
-19.3175
 30
0.0
 11
46.75
 21
-19.3175
 31
0.0
 12
44.25
 22
-18.9675
 32
0.0
 13
46.75
 23
-18.9675
 33
0.0
  0
SOLID
  5
16B
100
AcDbEntity
  8
PART_PADS_SMD_TOP
100
AcDbTrace
 10
44.25
 20
-19.9525
 30
0.0
 11
46.75
 21
-19.9525
 31
0.0
 12
44.25
 22
-19.6025
 32
0.0
 13
46.75
 23
-19.6025
 33
0.0
  0
SOLID
  5
16C
100
AcDbEntity
  8
PART_PADS_SMD_TOP
100
AcDbTrace
 10
44.25
 20
-20.5875
 30
0.0
 11
46.75
 21
-20.5875
 31
0.0
 12
44.25
 22
-20.2375
 32
0.0
 13
46.75
 23
-20.2375
 33
0.0
  0
SOLID
  5
16D
100
AcDbEntity
  8
PART_PADS_SMD_TOP
100
AcDbTrace
 10
44.25
 20
-21.2225
 30
0.0
 11
46.75
 21
-21.2225
 31
0.0
 12
44.25
 22
-20.8725
 32
0.0
 13
46.75
 23
-20.8725
 33
0.0
  0
SOLID
  5
16E
100
AcDbEntity
  8
PART_PADS_SMD_TOP
100
AcDbTrace
 10
44.25
 20
-21.8575
 30
0.0
 11
46.75
 21
-21.8575
 31
0.0
 12
44.25
 22
-21.5075
 32
0.0
 13
46.75
 23
-21.5075
 33
0.0
  0
SOLID
  5
16F
100
AcDbEntity
  8
PART_PADS_SMD_TOP
100
AcDbTrace
 10
44.25
 20
-22.4925
 30
0.0
 11
46.75
 21
-22.4925
 31
0.0
 12
44.25
 22
-22.1425
 32
0.0
 13
46.75
 23
-22.1425
 33
0.0
  0
SOLID
  5
170
100
AcDbEntity
  8
PART_PADS_SMD_TOP
100
AcDbTrace
 10
44.25
 20
-23.1275
 30
0.0
 11
46.75
 21
-23.1275
 31
0.0
 12
44.25
 22
-22.7775
 32
0.0
 13
46.75
 23
-22.7775
 33
0.0
  0
SOLID
  5
171
100
AcDbEntity
  8
PART_PADS_SMD_TOP
100
AcDbTrace
 10
44.25
 20
-23.7625
 30
0.0
 11
46.75
 21
-23.7625
 31
0.0
 12
44.25
 22
-23.4125
 32
0.0
 13
46.75
 23
-23.4125
 33
0.0
  0
SOLID
  5
172
100
AcDbEntity
  8
PART_PADS_SMD_TOP
100
AcDbTrace
 10
44.25
 20
-24.3975
 30
0.0
 11
46.75
 21
-24.3975
 31
0.0
 12
44.25
 22
-24.0475
 32
0.0
 13
46.75
 23
-24.0475
 33
0.0
  0
SOLID
  5
173
100
AcDbEntity
  8
PART_PADS_SMD_TOP
100
AcDbTrace
 10
44.25
 20
-25.0325
 30
0.0
 11
46.75
 21
-25.0325
 31
0.0
 12
44.25
 22
-24.6825
 32
0.0
 13
46.75
 23
-24.6825
 33
0.0
  0
SOLID
  5
174
100
AcDbEntity
  8
PART_PADS_SMD_TOP
100
AcDbTrace
 10
44.25
 20
-25.6675
 30
0.0
 11
46.75
 21
-25.6675
 31
0.0
 12
44.25
 22
-25.3175
 32
0.0
 13
46.75
 23
-25.3175
 33
0.0
  0
SOLID
  5
175
100
AcDbEntity
  8
PART_PADS_SMD_TOP
100
AcDbTrace
 10
44.25
 20
-26.3025
 30
0.0
 11
46.75
 21
-26.3025
 31
0.0
 12
44.25
 22
-25.9525
 32
0.0
 13
46.75
 23
-25.9525
 33
0.0
  0
SOLID
  5
176
100
AcDbEntity
  8
PART_PADS_SMD_TOP
100
AcDbTrace
 10
44.25
 20
-26.9375
 30
0.0
 11
46.75
 21
-26.9375
 31
0.0
 12
44.25
 22
-26.5875
 32
0.0
 13
46.75
 23
-26.5875
 33
0.0
  0
SOLID
  5
177
100
AcDbEntity
  8
PART_PADS_SMD_TOP
100
AcDbTrace
 10
44.25
 20
-27.5725
 30
0.0
 11
46.75
 21
-27.5725
 31
0.0
 12
44.25
 22
-27.2225
 32
0.0
 13
46.75
 23
-27.2225
 33
0.0
  0
SOLID
  5
178
100
AcDbEntity
  8
PART_PADS_SMD_TOP
100
AcDbTrace
 10
44.25
 20
-28.2075
 30
0.0
 11
46.75
 21
-28.2075
 31
0.0
 12
44.25
 22
-27.8575
 32
0.0
 13
46.75
 23
-27.8575
 33
0.0
  0
SOLID
  5
179
100
AcDbEntity
  8
PART_PADS_SMD_TOP
100
AcDbTrace
 10
44.25
 20
-28.8425
 30
0.0
 11
46.75
 21
-28.8425
 31
0.0
 12
44.25
 22
-28.4925
 32
0.0
 13
46.75
 23
-28.4925
 33
0.0
  0
SOLID
  5
17A
100
AcDbEntity
  8
PART_PADS_SMD_TOP
100
AcDbTrace
 10
44.25
 20
-29.4775
 30
0.0
 11
46.75
 21
-29.4775
 31
0.0
 12
44.25
 22
-29.1275
 32
0.0
 13
46.75
 23
-29.1275
 33
0.0
  0
SOLID
  5
17B
100
AcDbEntity
  8
PART_PADS_SMD_TOP
100
AcDbTrace
 10
44.25
 20
-30.1125
 30
0.0
 11
46.75
 21
-30.1125
 31
0.0
 12
44.25
 22
-29.7625
 32
0.0
 13
46.75
 23
-29.7625
 33
0.0
  0
SOLID
  5
17C
100
AcDbEntity
  8
PART_PADS_SMD_TOP
100
AcDbTrace
 10
44.25
 20
-30.7475
 30
0.0
 11
46.75
 21
-30.7475
 31
0.0
 12
44.25
 22
-30.3975
 32
0.0
 13
46.75
 23
-30.3975
 33
0.0
  0
SOLID
  5
17D
100
AcDbEntity
  8
PART_PADS_SMD_TOP
100
AcDbTrace
 10
44.25
 20
-31.3825
 30
0.0
 11
46.75
 21
-31.3825
 31
0.0
 12
44.25
 22
-31.0325
 32
0.0
 13
46.75
 23
-31.0325
 33
0.0
  0
SOLID
  5
17E
100
AcDbEntity
  8
PART_PADS_SMD_TOP
100
AcDbTrace
 10
44.25
 20
-32.0175
 30
0.0
 11
46.75
 21
-32.0175
 31
0.0
 12
44.25
 22
-31.6675
 32
0.0
 13
46.75
 23
-31.6675
 33
0.0
  0
SOLID
  5
17F
100
AcDbEntity
  8
PART_PADS_SMD_TOP
100
AcDbTrace
 10
44.25
 20
-32.6525
 30
0.0
 11
46.75
 21
-32.6525
 31
0.0
 12
44.25
 22
-32.3025
 32
0.0
 13
46.75
 23
-32.3025
 33
0.0
  0
SOLID
  5
180
100
AcDbEntity
  8
PART_PADS_SMD_TOP
100
AcDbTrace
 10
44.25
 20
-33.2875
 30
0.0
 11
46.75
 21
-33.2875
 31
0.0
 12
44.25
 22
-32.9375
 32
0.0
 13
46.75
 23
-32.9375
 33
0.0
  0
SOLID
  5
181
100
AcDbEntity
  8
PART_PADS_SMD_TOP
100
AcDbTrace
 10
44.25
 20
-33.9225
 30
0.0
 11
46.75
 21
-33.9225
 31
0.0
 12
44.25
 22
-33.5725
 32
0.0
 13
46.75
 23
-33.5725
 33
0.0
  0
SOLID
  5
182
100
AcDbEntity
  8
PART_PADS_SMD_TOP
100
AcDbTrace
 10
44.25
 20
-34.5575
 30
0.0
 11
46.75
 21
-34.5575
 31
0.0
 12
44.25
 22
-34.2075
 32
0.0
 13
46.75
 23
-34.2075
 33
0.0
  0
SOLID
  5
183
100
AcDbEntity
  8
PART_PADS_SMD_TOP
100
AcDbTrace
 10
48.45
 20
-3.4425
 30
0.0
 11
50.95
 21
-3.4425
 31
0.0
 12
48.45
 22
-3.0925
 32
0.0
 13
50.95
 23
-3.0925
 33
0.0
  0
SOLID
  5
184
100
AcDbEntity
  8
PART_PADS_SMD_TOP
100
AcDbTrace
 10
48.45
 20
-4.0775
 30
0.0
 11
50.95
 21
-4.0775
 31
0.0
 12
48.45
 22
-3.7275
 32
0.0
 13
50.95
 23
-3.7275
 33
0.0
  0
SOLID
  5
185
100
AcDbEntity
  8
PART_PADS_SMD_TOP
100
AcDbTrace
 10
48.45
 20
-4.7125
 30
0.0
 11
50.95
 21
-4.7125
 31
0.0
 12
48.45
 22
-4.3625
 32
0.0
 13
50.95
 23
-4.3625
 33
0.0
  0
SOLID
  5
186
100
AcDbEntity
  8
PART_PADS_SMD_TOP
100
AcDbTrace
 10
48.45
 20
-5.3475
 30
0.0
 11
50.95
 21
-5.3475
 31
0.0
 12
48.45
 22
-4.9975
 32
0.0
 13
50.95
 23
-4.9975
 33
0.0
  0
SOLID
  5
187
100
AcDbEntity
  8
PART_PADS_SMD_TOP
100
AcDbTrace
 10
48.45
 20
-5.9825
 30
0.0
 11
50.95
 21
-5.9825
 31
0.0
 12
48.45
 22
-5.6325
 32
0.0
 13
50.95
 23
-5.6325
 33
0.0
  0
SOLID
  5
188
100
AcDbEntity
  8
PART_PADS_SMD_TOP
100
AcDbTrace
 10
48.45
 20
-6.6175
 30
0.0
 11
50.95
 21
-6.6175
 31
0.0
 12
48.45
 22
-6.2675
 32
0.0
 13
50.95
 23
-6.2675
 33
0.0
  0
SOLID
  5
189
100
AcDbEntity
  8
PART_PADS_SMD_TOP
100
AcDbTrace
 10
48.45
 20
-7.2525
 30
0.0
 11
50.95
 21
-7.2525
 31
0.0
 12
48.45
 22
-6.9025
 32
0.0
 13
50.95
 23
-6.9025
 33
0.0
  0
SOLID
  5
18A
100
AcDbEntity
  8
PART_PADS_SMD_TOP
100
AcDbTrace
 10
48.45
 20
-7.8875
 30
0.0
 11
50.95
 21
-7.8875
 31
0.0
 12
48.45
 22
-7.5375
 32
0.0
 13
50.95
 23
-7.5375
 33
0.0
  0
SOLID
  5
18B
100
AcDbEntity
  8
PART_PADS_SMD_TOP
100
AcDbTrace
 10
48.45
 20
-8.5225
 30
0.0
 11
50.95
 21
-8.5225
 31
0.0
 12
48.45
 22
-8.1725
 32
0.0
 13
50.95
 23
-8.1725
 33
0.0
  0
SOLID
  5
18C
100
AcDbEntity
  8
PART_PADS_SMD_TOP
100
AcDbTrace
 10
48.45
 20
-9.1575
 30
0.0
 11
50.95
 21
-9.1575
 31
0.0
 12
48.45
 22
-8.8075
 32
0.0
 13
50.95
 23
-8.8075
 33
0.0
  0
SOLID
  5
18D
100
AcDbEntity
  8
PART_PADS_SMD_TOP
100
AcDbTrace
 10
48.45
 20
-9.7925
 30
0.0
 11
50.95
 21
-9.7925
 31
0.0
 12
48.45
 22
-9.4425
 32
0.0
 13
50.95
 23
-9.4425
 33
0.0
  0
SOLID
  5
18E
100
AcDbEntity
  8
PART_PADS_SMD_TOP
100
AcDbTrace
 10
48.45
 20
-10.4275
 30
0.0
 11
50.95
 21
-10.4275
 31
0.0
 12
48.45
 22
-10.0775
 32
0.0
 13
50.95
 23
-10.0775
 33
0.0
  0
SOLID
  5
18F
100
AcDbEntity
  8
PART_PADS_SMD_TOP
100
AcDbTrace
 10
48.45
 20
-11.0625
 30
0.0
 11
50.95
 21
-11.0625
 31
0.0
 12
48.45
 22
-10.7125
 32
0.0
 13
50.95
 23
-10.7125
 33
0.0
  0
SOLID
  5
190
100
AcDbEntity
  8
PART_PADS_SMD_TOP
100
AcDbTrace
 10
48.45
 20
-11.6975
 30
0.0
 11
50.95
 21
-11.6975
 31
0.0
 12
48.45
 22
-11.3475
 32
0.0
 13
50.95
 23
-11.3475
 33
0.0
  0
SOLID
  5
191
100
AcDbEntity
  8
PART_PADS_SMD_TOP
100
AcDbTrace
 10
48.45
 20
-12.3325
 30
0.0
 11
50.95
 21
-12.3325
 31
0.0
 12
48.45
 22
-11.9825
 32
0.0
 13
50.95
 23
-11.9825
 33
0.0
  0
SOLID
  5
192
100
AcDbEntity
  8
PART_PADS_SMD_TOP
100
AcDbTrace
 10
48.45
 20
-12.9675
 30
0.0
 11
50.95
 21
-12.9675
 31
0.0
 12
48.45
 22
-12.6175
 32
0.0
 13
50.95
 23
-12.6175
 33
0.0
  0
SOLID
  5
193
100
AcDbEntity
  8
PART_PADS_SMD_TOP
100
AcDbTrace
 10
48.45
 20
-13.6025
 30
0.0
 11
50.95
 21
-13.6025
 31
0.0
 12
48.45
 22
-13.2525
 32
0.0
 13
50.95
 23
-13.2525
 33
0.0
  0
SOLID
  5
194
100
AcDbEntity
  8
PART_PADS_SMD_TOP
100
AcDbTrace
 10
48.45
 20
-14.2375
 30
0.0
 11
50.95
 21
-14.2375
 31
0.0
 12
48.45
 22
-13.8875
 32
0.0
 13
50.95
 23
-13.8875
 33
0.0
  0
SOLID
  5
195
100
AcDbEntity
  8
PART_PADS_SMD_TOP
100
AcDbTrace
 10
48.45
 20
-14.8725
 30
0.0
 11
50.95
 21
-14.8725
 31
0.0
 12
48.45
 22
-14.5225
 32
0.0
 13
50.95
 23
-14.5225
 33
0.0
  0
SOLID
  5
196
100
AcDbEntity
  8
PART_PADS_SMD_TOP
100
AcDbTrace
 10
48.45
 20
-15.5075
 30
0.0
 11
50.95
 21
-15.5075
 31
0.0
 12
48.45
 22
-15.1575
 32
0.0
 13
50.95
 23
-15.1575
 33
0.0
  0
SOLID
  5
197
100
AcDbEntity
  8
PART_PADS_SMD_TOP
100
AcDbTrace
 10
48.45
 20
-16.1425
 30
0.0
 11
50.95
 21
-16.1425
 31
0.0
 12
48.45
 22
-15.7925
 32
0.0
 13
50.95
 23
-15.7925
 33
0.0
  0
SOLID
  5
198
100
AcDbEntity
  8
PART_PADS_SMD_TOP
100
AcDbTrace
 10
48.45
 20
-16.7775
 30
0.0
 11
50.95
 21
-16.7775
 31
0.0
 12
48.45
 22
-16.4275
 32
0.0
 13
50.95
 23
-16.4275
 33
0.0
  0
SOLID
  5
199
100
AcDbEntity
  8
PART_PADS_SMD_TOP
100
AcDbTrace
 10
48.45
 20
-17.4125
 30
0.0
 11
50.95
 21
-17.4125
 31
0.0
 12
48.45
 22
-17.0625
 32
0.0
 13
50.95
 23
-17.0625
 33
0.0
  0
SOLID
  5
19A
100
AcDbEntity
  8
PART_PADS_SMD_TOP
100
AcDbTrace
 10
48.45
 20
-18.0475
 30
0.0
 11
50.95
 21
-18.0475
 31
0.0
 12
48.45
 22
-17.6975
 32
0.0
 13
50.95
 23
-17.6975
 33
0.0
  0
SOLID
  5
19B
100
AcDbEntity
  8
PART_PADS_SMD_TOP
100
AcDbTrace
 10
48.45
 20
-18.6825
 30
0.0
 11
50.95
 21
-18.6825
 31
0.0
 12
48.45
 22
-18.3325
 32
0.0
 13
50.95
 23
-18.3325
 33
0.0
  0
SOLID
  5
19C
100
AcDbEntity
  8
PART_PADS_SMD_TOP
100
AcDbTrace
 10
48.45
 20
-19.3175
 30
0.0
 11
50.95
 21
-19.3175
 31
0.0
 12
48.45
 22
-18.9675
 32
0.0
 13
50.95
 23
-18.9675
 33
0.0
  0
SOLID
  5
19D
100
AcDbEntity
  8
PART_PADS_SMD_TOP
100
AcDbTrace
 10
48.45
 20
-19.9525
 30
0.0
 11
50.95
 21
-19.9525
 31
0.0
 12
48.45
 22
-19.6025
 32
0.0
 13
50.95
 23
-19.6025
 33
0.0
  0
SOLID
  5
19E
100
AcDbEntity
  8
PART_PADS_SMD_TOP
100
AcDbTrace
 10
48.45
 20
-20.5875
 30
0.0
 11
50.95
 21
-20.5875
 31
0.0
 12
48.45
 22
-20.2375
 32
0.0
 13
50.95
 23
-20.2375
 33
0.0
  0
SOLID
  5
19F
100
AcDbEntity
  8
PART_PADS_SMD_TOP
100
AcDbTrace
 10
48.45
 20
-21.2225
 30
0.0
 11
50.95
 21
-21.2225
 31
0.0
 12
48.45
 22
-20.8725
 32
0.0
 13
50.95
 23
-20.8725
 33
0.0
  0
SOLID
  5
1A0
100
AcDbEntity
  8
PART_PADS_SMD_TOP
100
AcDbTrace
 10
48.45
 20
-21.8575
 30
0.0
 11
50.95
 21
-21.8575
 31
0.0
 12
48.45
 22
-21.5075
 32
0.0
 13
50.95
 23
-21.5075
 33
0.0
  0
SOLID
  5
1A1
100
AcDbEntity
  8
PART_PADS_SMD_TOP
100
AcDbTrace
 10
48.45
 20
-22.4925
 30
0.0
 11
50.95
 21
-22.4925
 31
0.0
 12
48.45
 22
-22.1425
 32
0.0
 13
50.95
 23
-22.1425
 33
0.0
  0
SOLID
  5
1A2
100
AcDbEntity
  8
PART_PADS_SMD_TOP
100
AcDbTrace
 10
48.45
 20
-23.1275
 30
0.0
 11
50.95
 21
-23.1275
 31
0.0
 12
48.45
 22
-22.7775
 32
0.0
 13
50.95
 23
-22.7775
 33
0.0
  0
SOLID
  5
1A3
100
AcDbEntity
  8
PART_PADS_SMD_TOP
100
AcDbTrace
 10
48.45
 20
-23.7625
 30
0.0
 11
50.95
 21
-23.7625
 31
0.0
 12
48.45
 22
-23.4125
 32
0.0
 13
50.95
 23
-23.4125
 33
0.0
  0
SOLID
  5
1A4
100
AcDbEntity
  8
PART_PADS_SMD_TOP
100
AcDbTrace
 10
48.45
 20
-24.3975
 30
0.0
 11
50.95
 21
-24.3975
 31
0.0
 12
48.45
 22
-24.0475
 32
0.0
 13
50.95
 23
-24.0475
 33
0.0
  0
SOLID
  5
1A5
100
AcDbEntity
  8
PART_PADS_SMD_TOP
100
AcDbTrace
 10
48.45
 20
-25.0325
 30
0.0
 11
50.95
 21
-25.0325
 31
0.0
 12
48.45
 22
-24.6825
 32
0.0
 13
50.95
 23
-24.6825
 33
0.0
  0
SOLID
  5
1A6
100
AcDbEntity
  8
PART_PADS_SMD_TOP
100
AcDbTrace
 10
48.45
 20
-25.6675
 30
0.0
 11
50.95
 21
-25.6675
 31
0.0
 12
48.45
 22
-25.3175
 32
0.0
 13
50.95
 23
-25.3175
 33
0.0
  0
SOLID
  5
1A7
100
AcDbEntity
  8
PART_PADS_SMD_TOP
100
AcDbTrace
 10
48.45
 20
-26.3025
 30
0.0
 11
50.95
 21
-26.3025
 31
0.0
 12
48.45
 22
-25.9525
 32
0.0
 13
50.95
 23
-25.9525
 33
0.0
  0
SOLID
  5
1A8
100
AcDbEntity
  8
PART_PADS_SMD_TOP
100
AcDbTrace
 10
48.45
 20
-26.9375
 30
0.0
 11
50.95
 21
-26.9375
 31
0.0
 12
48.45
 22
-26.5875
 32
0.0
 13
50.95
 23
-26.5875
 33
0.0
  0
SOLID
  5
1A9
100
AcDbEntity
  8
PART_PADS_SMD_TOP
100
AcDbTrace
 10
48.45
 20
-27.5725
 30
0.0
 11
50.95
 21
-27.5725
 31
0.0
 12
48.45
 22
-27.2225
 32
0.0
 13
50.95
 23
-27.2225
 33
0.0
  0
SOLID
  5
1AA
100
AcDbEntity
  8
PART_PADS_SMD_TOP
100
AcDbTrace
 10
48.45
 20
-28.2075
 30
0.0
 11
50.95
 21
-28.2075
 31
0.0
 12
48.45
 22
-27.8575
 32
0.0
 13
50.95
 23
-27.8575
 33
0.0
  0
SOLID
  5
1AB
100
AcDbEntity
  8
PART_PADS_SMD_TOP
100
AcDbTrace
 10
48.45
 20
-28.8425
 30
0.0
 11
50.95
 21
-28.8425
 31
0.0
 12
48.45
 22
-28.4925
 32
0.0
 13
50.95
 23
-28.4925
 33
0.0
  0
SOLID
  5
1AC
100
AcDbEntity
  8
PART_PADS_SMD_TOP
100
AcDbTrace
 10
48.45
 20
-29.4775
 30
0.0
 11
50.95
 21
-29.4775
 31
0.0
 12
48.45
 22
-29.1275
 32
0.0
 13
50.95
 23
-29.1275
 33
0.0
  0
SOLID
  5
1AD
100
AcDbEntity
  8
PART_PADS_SMD_TOP
100
AcDbTrace
 10
48.45
 20
-30.1125
 30
0.0
 11
50.95
 21
-30.1125
 31
0.0
 12
48.45
 22
-29.7625
 32
0.0
 13
50.95
 23
-29.7625
 33
0.0
  0
SOLID
  5
1AE
100
AcDbEntity
  8
PART_PADS_SMD_TOP
100
AcDbTrace
 10
48.45
 20
-30.7475
 30
0.0
 11
50.95
 21
-30.7475
 31
0.0
 12
48.45
 22
-30.3975
 32
0.0
 13
50.95
 23
-30.3975
 33
0.0
  0
SOLID
  5
1AF
100
AcDbEntity
  8
PART_PADS_SMD_TOP
100
AcDbTrace
 10
48.45
 20
-31.3825
 30
0.0
 11
50.95
 21
-31.3825
 31
0.0
 12
48.45
 22
-31.0325
 32
0.0
 13
50.95
 23
-31.0325
 33
0.0
  0
SOLID
  5
1B0
100
AcDbEntity
  8
PART_PADS_SMD_TOP
100
AcDbTrace
 10
48.45
 20
-32.0175
 30
0.0
 11
50.95
 21
-32.0175
 31
0.0
 12
48.45
 22
-31.6675
 32
0.0
 13
50.95
 23
-31.6675
 33
0.0
  0
SOLID
  5
1B1
100
AcDbEntity
  8
PART_PADS_SMD_TOP
100
AcDbTrace
 10
48.45
 20
-32.6525
 30
0.0
 11
50.95
 21
-32.6525
 31
0.0
 12
48.45
 22
-32.3025
 32
0.0
 13
50.95
 23
-32.3025
 33
0.0
  0
SOLID
  5
1B2
100
AcDbEntity
  8
PART_PADS_SMD_TOP
100
AcDbTrace
 10
48.45
 20
-33.2875
 30
0.0
 11
50.95
 21
-33.2875
 31
0.0
 12
48.45
 22
-32.9375
 32
0.0
 13
50.95
 23
-32.9375
 33
0.0
  0
SOLID
  5
1B3
100
AcDbEntity
  8
PART_PADS_SMD_TOP
100
AcDbTrace
 10
48.45
 20
-33.9225
 30
0.0
 11
50.95
 21
-33.9225
 31
0.0
 12
48.45
 22
-33.5725
 32
0.0
 13
50.95
 23
-33.5725
 33
0.0
  0
SOLID
  5
1B4
100
AcDbEntity
  8
PART_PADS_SMD_TOP
100
AcDbTrace
 10
48.45
 20
-34.5575
 30
0.0
 11
50.95
 21
-34.5575
 31
0.0
 12
48.45
 22
-34.2075
 32
0.0
 13
50.95
 23
-34.2075
 33
0.0
  0
SOLID
  5
1B5
100
AcDbEntity
  8
PART_PADS_SMD_TOP
100
AcDbTrace
 10
-1.0
 20
-1.47
 30
0.0
 11
1.0
 21
-1.47
 31
0.0
 12
-1.0
 22
1.03
 32
0.0
 13
1.0
 23
1.03
 33
0.0
  0
SOLID
  5
1B6
100
AcDbEntity
  8
PART_PADS_SMD_TOP
100
AcDbTrace
 10
-1.0
 20
-38.6877
 30
0.0
 11
1.0
 21
-38.6877
 31
0.0
 12
-1.0
 22
-36.1877
 32
0.0
 13
1.0
 23
-36.1877
 33
0.0
  0
SOLID
  5
1B7
100
AcDbEntity
  8
PART_PADS_SMD_TOP
100
AcDbTrace
 10
46.6
 20
-1.47
 30
0.0
 11
48.6
 21
-1.47
 31
0.0
 12
46.6
 22
1.03
 32
0.0
 13
48.6
 23
1.03
 33
0.0
  0
SOLID
  5
1B8
100
AcDbEntity
  8
PART_PADS_SMD_TOP
100
AcDbTrace
 10
46.6
 20
-38.69
 30
0.0
 11
48.6
 21
-38.69
 31
0.0
 12
46.6
 22
-36.19
 32
0.0
 13
48.6
 23
-36.19
 33
0.0
  0
TEXT
  5
1BA
100
AcDbEntity
  8
PIN_NUMBERS_TOP
100
AcDbText
 10
-2.317932
 20
-3.490004
 30
0.0
 40
0.508
  1
1
  7
COURIER_NEW
 72
         1
 11
-2.1
 21
-3.2675
 31
0.0
100
AcDbText
 73
         2
  0
TEXT
  5
1BB
100
AcDbEntity
  8
PIN_NUMBERS_TOP
100
AcDbText
 10
-2.317932
 20
-4.125004
 30
0.0
 40
0.508
  1
2
  7
COURIER_NEW
 72
         1
 11
-2.1
 21
-3.9025
 31
0.0
100
AcDbText
 73
         2
  0
TEXT
  5
1BC
100
AcDbEntity
  8
PIN_NUMBERS_TOP
100
AcDbText
 10
-2.317932
 20
-4.760004
 30
0.0
 40
0.508
  1
3
  7
COURIER_NEW
 72
         1
 11
-2.1
 21
-4.5375
 31
0.0
100
AcDbText
 73
         2
  0
TEXT
  5
1BD
100
AcDbEntity
  8
PIN_NUMBERS_TOP
100
AcDbText
 10
-2.317932
 20
-5.395004
 30
0.0
 40
0.508
  1
4
  7
COURIER_NEW
 72
         1
 11
-2.1
 21
-5.1725
 31
0.0
100
AcDbText
 73
         2
  0
TEXT
  5
1BE
100
AcDbEntity
  8
PIN_NUMBERS_TOP
100
AcDbText
 10
-2.317932
 20
-6.030004
 30
0.0
 40
0.508
  1
5
  7
COURIER_NEW
 72
         1
 11
-2.1
 21
-5.8075
 31
0.0
100
AcDbText
 73
         2
  0
TEXT
  5
1BF
100
AcDbEntity
  8
PIN_NUMBERS_TOP
100
AcDbText
 10
-2.317932
 20
-6.665004
 30
0.0
 40
0.508
  1
6
  7
COURIER_NEW
 72
         1
 11
-2.1
 21
-6.4425
 31
0.0
100
AcDbText
 73
         2
  0
TEXT
  5
1C0
100
AcDbEntity
  8
PIN_NUMBERS_TOP
100
AcDbText
 10
-2.317932
 20
-7.300004
 30
0.0
 40
0.508
  1
7
  7
COURIER_NEW
 72
         1
 11
-2.1
 21
-7.0775
 31
0.0
100
AcDbText
 73
         2
  0
TEXT
  5
1C1
100
AcDbEntity
  8
PIN_NUMBERS_TOP
100
AcDbText
 10
-2.317932
 20
-7.935004
 30
0.0
 40
0.508
  1
8
  7
COURIER_NEW
 72
         1
 11
-2.1
 21
-7.7125
 31
0.0
100
AcDbText
 73
         2
  0
TEXT
  5
1C2
100
AcDbEntity
  8
PIN_NUMBERS_TOP
100
AcDbText
 10
-2.317932
 20
-8.570004
 30
0.0
 40
0.508
  1
9
  7
COURIER_NEW
 72
         1
 11
-2.1
 21
-8.3475
 31
0.0
100
AcDbText
 73
         2
  0
TEXT
  5
1C3
100
AcDbEntity
  8
PIN_NUMBERS_TOP
100
AcDbText
 10
-2.535864
 20
-9.205004
 30
0.0
 40
0.508
  1
10
  7
COURIER_NEW
 72
         1
 11
-2.1
 21
-8.9825
 31
0.0
100
AcDbText
 73
         2
  0
TEXT
  5
1C4
100
AcDbEntity
  8
PIN_NUMBERS_TOP
100
AcDbText
 10
-2.535864
 20
-9.840004
 30
0.0
 40
0.508
  1
11
  7
COURIER_NEW
 72
         1
 11
-2.1
 21
-9.6175
 31
0.0
100
AcDbText
 73
         2
  0
TEXT
  5
1C5
100
AcDbEntity
  8
PIN_NUMBERS_TOP
100
AcDbText
 10
-2.535864
 20
-10.475004
 30
0.0
 40
0.508
  1
12
  7
COURIER_NEW
 72
         1
 11
-2.1
 21
-10.2525
 31
0.0
100
AcDbText
 73
         2
  0
TEXT
  5
1C6
100
AcDbEntity
  8
PIN_NUMBERS_TOP
100
AcDbText
 10
-2.535864
 20
-11.110004
 30
0.0
 40
0.508
  1
13
  7
COURIER_NEW
 72
         1
 11
-2.1
 21
-10.8875
 31
0.0
100
AcDbText
 73
         2
  0
TEXT
  5
1C7
100
AcDbEntity
  8
PIN_NUMBERS_TOP
100
AcDbText
 10
-2.535864
 20
-11.745004
 30
0.0
 40
0.508
  1
14
  7
COURIER_NEW
 72
         1
 11
-2.1
 21
-11.5225
 31
0.0
100
AcDbText
 73
         2
  0
TEXT
  5
1C8
100
AcDbEntity
  8
PIN_NUMBERS_TOP
100
AcDbText
 10
-2.535864
 20
-12.380004
 30
0.0
 40
0.508
  1
15
  7
COURIER_NEW
 72
         1
 11
-2.1
 21
-12.1575
 31
0.0
100
AcDbText
 73
         2
  0
TEXT
  5
1C9
100
AcDbEntity
  8
PIN_NUMBERS_TOP
100
AcDbText
 10
-2.535864
 20
-13.015004
 30
0.0
 40
0.508
  1
16
  7
COURIER_NEW
 72
         1
 11
-2.1
 21
-12.7925
 31
0.0
100
AcDbText
 73
         2
  0
TEXT
  5
1CA
100
AcDbEntity
  8
PIN_NUMBERS_TOP
100
AcDbText
 10
-2.535864
 20
-13.650004
 30
0.0
 40
0.508
  1
17
  7
COURIER_NEW
 72
         1
 11
-2.1
 21
-13.4275
 31
0.0
100
AcDbText
 73
         2
  0
TEXT
  5
1CB
100
AcDbEntity
  8
PIN_NUMBERS_TOP
100
AcDbText
 10
-2.535864
 20
-14.285004
 30
0.0
 40
0.508
  1
18
  7
COURIER_NEW
 72
         1
 11
-2.1
 21
-14.0625
 31
0.0
100
AcDbText
 73
         2
  0
TEXT
  5
1CC
100
AcDbEntity
  8
PIN_NUMBERS_TOP
100
AcDbText
 10
-2.535864
 20
-14.920004
 30
0.0
 40
0.508
  1
19
  7
COURIER_NEW
 72
         1
 11
-2.1
 21
-14.6975
 31
0.0
100
AcDbText
 73
         2
  0
TEXT
  5
1CD
100
AcDbEntity
  8
PIN_NUMBERS_TOP
100
AcDbText
 10
-2.535864
 20
-15.555004
 30
0.0
 40
0.508
  1
20
  7
COURIER_NEW
 72
         1
 11
-2.1
 21
-15.3325
 31
0.0
100
AcDbText
 73
         2
  0
TEXT
  5
1CE
100
AcDbEntity
  8
PIN_NUMBERS_TOP
100
AcDbText
 10
-2.535864
 20
-16.190004
 30
0.0
 40
0.508
  1
21
  7
COURIER_NEW
 72
         1
 11
-2.1
 21
-15.9675
 31
0.0
100
AcDbText
 73
         2
  0
TEXT
  5
1CF
100
AcDbEntity
  8
PIN_NUMBERS_TOP
100
AcDbText
 10
-2.535864
 20
-16.825004
 30
0.0
 40
0.508
  1
22
  7
COURIER_NEW
 72
         1
 11
-2.1
 21
-16.6025
 31
0.0
100
AcDbText
 73
         2
  0
TEXT
  5
1D0
100
AcDbEntity
  8
PIN_NUMBERS_TOP
100
AcDbText
 10
-2.535864
 20
-17.460004
 30
0.0
 40
0.508
  1
23
  7
COURIER_NEW
 72
         1
 11
-2.1
 21
-17.2375
 31
0.0
100
AcDbText
 73
         2
  0
TEXT
  5
1D1
100
AcDbEntity
  8
PIN_NUMBERS_TOP
100
AcDbText
 10
-2.535864
 20
-18.095004
 30
0.0
 40
0.508
  1
24
  7
COURIER_NEW
 72
         1
 11
-2.1
 21
-17.8725
 31
0.0
100
AcDbText
 73
         2
  0
TEXT
  5
1D2
100
AcDbEntity
  8
PIN_NUMBERS_TOP
100
AcDbText
 10
-2.535864
 20
-18.730004
 30
0.0
 40
0.508
  1
25
  7
COURIER_NEW
 72
         1
 11
-2.1
 21
-18.5075
 31
0.0
100
AcDbText
 73
         2
  0
TEXT
  5
1D3
100
AcDbEntity
  8
PIN_NUMBERS_TOP
100
AcDbText
 10
-2.535864
 20
-19.365004
 30
0.0
 40
0.508
  1
26
  7
COURIER_NEW
 72
         1
 11
-2.1
 21
-19.1425
 31
0.0
100
AcDbText
 73
         2
  0
TEXT
  5
1D4
100
AcDbEntity
  8
PIN_NUMBERS_TOP
100
AcDbText
 10
-2.535864
 20
-20.000004
 30
0.0
 40
0.508
  1
27
  7
COURIER_NEW
 72
         1
 11
-2.1
 21
-19.7775
 31
0.0
100
AcDbText
 73
         2
  0
TEXT
  5
1D5
100
AcDbEntity
  8
PIN_NUMBERS_TOP
100
AcDbText
 10
-2.535864
 20
-20.635004
 30
0.0
 40
0.508
  1
28
  7
COURIER_NEW
 72
         1
 11
-2.1
 21
-20.4125
 31
0.0
100
AcDbText
 73
         2
  0
TEXT
  5
1D6
100
AcDbEntity
  8
PIN_NUMBERS_TOP
100
AcDbText
 10
-2.535864
 20
-21.270004
 30
0.0
 40
0.508
  1
29
  7
COURIER_NEW
 72
         1
 11
-2.1
 21
-21.0475
 31
0.0
100
AcDbText
 73
         2
  0
TEXT
  5
1D7
100
AcDbEntity
  8
PIN_NUMBERS_TOP
100
AcDbText
 10
-2.535864
 20
-21.905004
 30
0.0
 40
0.508
  1
30
  7
COURIER_NEW
 72
         1
 11
-2.1
 21
-21.6825
 31
0.0
100
AcDbText
 73
         2
  0
TEXT
  5
1D8
100
AcDbEntity
  8
PIN_NUMBERS_TOP
100
AcDbText
 10
-2.535864
 20
-22.540004
 30
0.0
 40
0.508
  1
31
  7
COURIER_NEW
 72
         1
 11
-2.1
 21
-22.3175
 31
0.0
100
AcDbText
 73
         2
  0
TEXT
  5
1D9
100
AcDbEntity
  8
PIN_NUMBERS_TOP
100
AcDbText
 10
-2.535864
 20
-23.175004
 30
0.0
 40
0.508
  1
32
  7
COURIER_NEW
 72
         1
 11
-2.1
 21
-22.9525
 31
0.0
100
AcDbText
 73
         2
  0
TEXT
  5
1DA
100
AcDbEntity
  8
PIN_NUMBERS_TOP
100
AcDbText
 10
-2.535864
 20
-23.810004
 30
0.0
 40
0.508
  1
33
  7
COURIER_NEW
 72
         1
 11
-2.1
 21
-23.5875
 31
0.0
100
AcDbText
 73
         2
  0
TEXT
  5
1DB
100
AcDbEntity
  8
PIN_NUMBERS_TOP
100
AcDbText
 10
-2.535864
 20
-24.445004
 30
0.0
 40
0.508
  1
34
  7
COURIER_NEW
 72
         1
 11
-2.1
 21
-24.2225
 31
0.0
100
AcDbText
 73
         2
  0
TEXT
  5
1DC
100
AcDbEntity
  8
PIN_NUMBERS_TOP
100
AcDbText
 10
-2.535864
 20
-25.080004
 30
0.0
 40
0.508
  1
35
  7
COURIER_NEW
 72
         1
 11
-2.1
 21
-24.8575
 31
0.0
100
AcDbText
 73
         2
  0
TEXT
  5
1DD
100
AcDbEntity
  8
PIN_NUMBERS_TOP
100
AcDbText
 10
-2.535864
 20
-25.715004
 30
0.0
 40
0.508
  1
36
  7
COURIER_NEW
 72
         1
 11
-2.1
 21
-25.4925
 31
0.0
100
AcDbText
 73
         2
  0
TEXT
  5
1DE
100
AcDbEntity
  8
PIN_NUMBERS_TOP
100
AcDbText
 10
-2.535864
 20
-26.350004
 30
0.0
 40
0.508
  1
37
  7
COURIER_NEW
 72
         1
 11
-2.1
 21
-26.1275
 31
0.0
100
AcDbText
 73
         2
  0
TEXT
  5
1DF
100
AcDbEntity
  8
PIN_NUMBERS_TOP
100
AcDbText
 10
-2.535864
 20
-26.985004
 30
0.0
 40
0.508
  1
38
  7
COURIER_NEW
 72
         1
 11
-2.1
 21
-26.7625
 31
0.0
100
AcDbText
 73
         2
  0
TEXT
  5
1E0
100
AcDbEntity
  8
PIN_NUMBERS_TOP
100
AcDbText
 10
-2.535864
 20
-27.620004
 30
0.0
 40
0.508
  1
39
  7
COURIER_NEW
 72
         1
 11
-2.1
 21
-27.3975
 31
0.0
100
AcDbText
 73
         2
  0
TEXT
  5
1E1
100
AcDbEntity
  8
PIN_NUMBERS_TOP
100
AcDbText
 10
-2.535864
 20
-28.255004
 30
0.0
 40
0.508
  1
40
  7
COURIER_NEW
 72
         1
 11
-2.1
 21
-28.0325
 31
0.0
100
AcDbText
 73
         2
  0
TEXT
  5
1E2
100
AcDbEntity
  8
PIN_NUMBERS_TOP
100
AcDbText
 10
-2.535864
 20
-28.890004
 30
0.0
 40
0.508
  1
41
  7
COURIER_NEW
 72
         1
 11
-2.1
 21
-28.6675
 31
0.0
100
AcDbText
 73
         2
  0
TEXT
  5
1E3
100
AcDbEntity
  8
PIN_NUMBERS_TOP
100
AcDbText
 10
-2.535864
 20
-29.525004
 30
0.0
 40
0.508
  1
42
  7
COURIER_NEW
 72
         1
 11
-2.1
 21
-29.3025
 31
0.0
100
AcDbText
 73
         2
  0
TEXT
  5
1E4
100
AcDbEntity
  8
PIN_NUMBERS_TOP
100
AcDbText
 10
-2.535864
 20
-30.160004
 30
0.0
 40
0.508
  1
43
  7
COURIER_NEW
 72
         1
 11
-2.1
 21
-29.9375
 31
0.0
100
AcDbText
 73
         2
  0
TEXT
  5
1E5
100
AcDbEntity
  8
PIN_NUMBERS_TOP
100
AcDbText
 10
-2.535864
 20
-30.795004
 30
0.0
 40
0.508
  1
44
  7
COURIER_NEW
 72
         1
 11
-2.1
 21
-30.5725
 31
0.0
100
AcDbText
 73
         2
  0
TEXT
  5
1E6
100
AcDbEntity
  8
PIN_NUMBERS_TOP
100
AcDbText
 10
-2.535864
 20
-31.430004
 30
0.0
 40
0.508
  1
45
  7
COURIER_NEW
 72
         1
 11
-2.1
 21
-31.2075
 31
0.0
100
AcDbText
 73
         2
  0
TEXT
  5
1E7
100
AcDbEntity
  8
PIN_NUMBERS_TOP
100
AcDbText
 10
-2.535864
 20
-32.065004
 30
0.0
 40
0.508
  1
46
  7
COURIER_NEW
 72
         1
 11
-2.1
 21
-31.8425
 31
0.0
100
AcDbText
 73
         2
  0
TEXT
  5
1E8
100
AcDbEntity
  8
PIN_NUMBERS_TOP
100
AcDbText
 10
-2.535864
 20
-32.700004
 30
0.0
 40
0.508
  1
47
  7
COURIER_NEW
 72
         1
 11
-2.1
 21
-32.4775
 31
0.0
100
AcDbText
 73
         2
  0
TEXT
  5
1E9
100
AcDbEntity
  8
PIN_NUMBERS_TOP
100
AcDbText
 10
-2.535864
 20
-33.335004
 30
0.0
 40
0.508
  1
48
  7
COURIER_NEW
 72
         1
 11
-2.1
 21
-33.1125
 31
0.0
100
AcDbText
 73
         2
  0
TEXT
  5
1EA
100
AcDbEntity
  8
PIN_NUMBERS_TOP
100
AcDbText
 10
-2.535864
 20
-33.970004
 30
0.0
 40
0.508
  1
49
  7
COURIER_NEW
 72
         1
 11
-2.1
 21
-33.7475
 31
0.0
100
AcDbText
 73
         2
  0
TEXT
  5
1EB
100
AcDbEntity
  8
PIN_NUMBERS_TOP
100
AcDbText
 10
-2.535864
 20
-34.605004
 30
0.0
 40
0.508
  1
50
  7
COURIER_NEW
 72
         1
 11
-2.1
 21
-34.3825
 31
0.0
100
AcDbText
 73
         2
  0
TEXT
  5
1EC
100
AcDbEntity
  8
PIN_NUMBERS_TOP
100
AcDbText
 10
1.664136
 20
-3.490004
 30
0.0
 40
0.508
  1
51
  7
COURIER_NEW
 72
         1
 11
2.1
 21
-3.2675
 31
0.0
100
AcDbText
 73
         2
  0
TEXT
  5
1ED
100
AcDbEntity
  8
PIN_NUMBERS_TOP
100
AcDbText
 10
1.664136
 20
-4.125004
 30
0.0
 40
0.508
  1
52
  7
COURIER_NEW
 72
         1
 11
2.1
 21
-3.9025
 31
0.0
100
AcDbText
 73
         2
  0
TEXT
  5
1EE
100
AcDbEntity
  8
PIN_NUMBERS_TOP
100
AcDbText
 10
1.664136
 20
-4.760004
 30
0.0
 40
0.508
  1
53
  7
COURIER_NEW
 72
         1
 11
2.1
 21
-4.5375
 31
0.0
100
AcDbText
 73
         2
  0
TEXT
  5
1EF
100
AcDbEntity
  8
PIN_NUMBERS_TOP
100
AcDbText
 10
1.664136
 20
-5.395004
 30
0.0
 40
0.508
  1
54
  7
COURIER_NEW
 72
         1
 11
2.1
 21
-5.1725
 31
0.0
100
AcDbText
 73
         2
  0
TEXT
  5
1F0
100
AcDbEntity
  8
PIN_NUMBERS_TOP
100
AcDbText
 10
1.664136
 20
-6.030004
 30
0.0
 40
0.508
  1
55
  7
COURIER_NEW
 72
         1
 11
2.1
 21
-5.8075
 31
0.0
100
AcDbText
 73
         2
  0
TEXT
  5
1F1
100
AcDbEntity
  8
PIN_NUMBERS_TOP
100
AcDbText
 10
1.664136
 20
-6.665004
 30
0.0
 40
0.508
  1
56
  7
COURIER_NEW
 72
         1
 11
2.1
 21
-6.4425
 31
0.0
100
AcDbText
 73
         2
  0
TEXT
  5
1F2
100
AcDbEntity
  8
PIN_NUMBERS_TOP
100
AcDbText
 10
1.664136
 20
-7.300004
 30
0.0
 40
0.508
  1
57
  7
COURIER_NEW
 72
         1
 11
2.1
 21
-7.0775
 31
0.0
100
AcDbText
 73
         2
  0
TEXT
  5
1F3
100
AcDbEntity
  8
PIN_NUMBERS_TOP
100
AcDbText
 10
1.664136
 20
-7.935004
 30
0.0
 40
0.508
  1
58
  7
COURIER_NEW
 72
         1
 11
2.1
 21
-7.7125
 31
0.0
100
AcDbText
 73
         2
  0
TEXT
  5
1F4
100
AcDbEntity
  8
PIN_NUMBERS_TOP
100
AcDbText
 10
1.664136
 20
-8.570004
 30
0.0
 40
0.508
  1
59
  7
COURIER_NEW
 72
         1
 11
2.1
 21
-8.3475
 31
0.0
100
AcDbText
 73
         2
  0
TEXT
  5
1F5
100
AcDbEntity
  8
PIN_NUMBERS_TOP
100
AcDbText
 10
1.664136
 20
-9.205004
 30
0.0
 40
0.508
  1
60
  7
COURIER_NEW
 72
         1
 11
2.1
 21
-8.9825
 31
0.0
100
AcDbText
 73
         2
  0
TEXT
  5
1F6
100
AcDbEntity
  8
PIN_NUMBERS_TOP
100
AcDbText
 10
1.664136
 20
-9.840004
 30
0.0
 40
0.508
  1
61
  7
COURIER_NEW
 72
         1
 11
2.1
 21
-9.6175
 31
0.0
100
AcDbText
 73
         2
  0
TEXT
  5
1F7
100
AcDbEntity
  8
PIN_NUMBERS_TOP
100
AcDbText
 10
1.664136
 20
-10.475004
 30
0.0
 40
0.508
  1
62
  7
COURIER_NEW
 72
         1
 11
2.1
 21
-10.2525
 31
0.0
100
AcDbText
 73
         2
  0
TEXT
  5
1F8
100
AcDbEntity
  8
PIN_NUMBERS_TOP
100
AcDbText
 10
1.664136
 20
-11.110004
 30
0.0
 40
0.508
  1
63
  7
COURIER_NEW
 72
         1
 11
2.1
 21
-10.8875
 31
0.0
100
AcDbText
 73
         2
  0
TEXT
  5
1F9
100
AcDbEntity
  8
PIN_NUMBERS_TOP
100
AcDbText
 10
1.664136
 20
-11.745004
 30
0.0
 40
0.508
  1
64
  7
COURIER_NEW
 72
         1
 11
2.1
 21
-11.5225
 31
0.0
100
AcDbText
 73
         2
  0
TEXT
  5
1FA
100
AcDbEntity
  8
PIN_NUMBERS_TOP
100
AcDbText
 10
1.664136
 20
-12.380004
 30
0.0
 40
0.508
  1
65
  7
COURIER_NEW
 72
         1
 11
2.1
 21
-12.1575
 31
0.0
100
AcDbText
 73
         2
  0
TEXT
  5
1FB
100
AcDbEntity
  8
PIN_NUMBERS_TOP
100
AcDbText
 10
1.664136
 20
-13.015004
 30
0.0
 40
0.508
  1
66
  7
COURIER_NEW
 72
         1
 11
2.1
 21
-12.7925
 31
0.0
100
AcDbText
 73
         2
  0
TEXT
  5
1FC
100
AcDbEntity
  8
PIN_NUMBERS_TOP
100
AcDbText
 10
1.664136
 20
-13.650004
 30
0.0
 40
0.508
  1
67
  7
COURIER_NEW
 72
         1
 11
2.1
 21
-13.4275
 31
0.0
100
AcDbText
 73
         2
  0
TEXT
  5
1FD
100
AcDbEntity
  8
PIN_NUMBERS_TOP
100
AcDbText
 10
1.664136
 20
-14.285004
 30
0.0
 40
0.508
  1
68
  7
COURIER_NEW
 72
         1
 11
2.1
 21
-14.0625
 31
0.0
100
AcDbText
 73
         2
  0
TEXT
  5
1FE
100
AcDbEntity
  8
PIN_NUMBERS_TOP
100
AcDbText
 10
1.664136
 20
-14.920004
 30
0.0
 40
0.508
  1
69
  7
COURIER_NEW
 72
         1
 11
2.1
 21
-14.6975
 31
0.0
100
AcDbText
 73
         2
  0
TEXT
  5
1FF
100
AcDbEntity
  8
PIN_NUMBERS_TOP
100
AcDbText
 10
1.664136
 20
-15.555004
 30
0.0
 40
0.508
  1
70
  7
COURIER_NEW
 72
         1
 11
2.1
 21
-15.3325
 31
0.0
100
AcDbText
 73
         2
  0
TEXT
  5
200
100
AcDbEntity
  8
PIN_NUMBERS_TOP
100
AcDbText
 10
1.664136
 20
-16.190004
 30
0.0
 40
0.508
  1
71
  7
COURIER_NEW
 72
         1
 11
2.1
 21
-15.9675
 31
0.0
100
AcDbText
 73
         2
  0
TEXT
  5
201
100
AcDbEntity
  8
PIN_NUMBERS_TOP
100
AcDbText
 10
1.664136
 20
-16.825004
 30
0.0
 40
0.508
  1
72
  7
COURIER_NEW
 72
         1
 11
2.1
 21
-16.6025
 31
0.0
100
AcDbText
 73
         2
  0
TEXT
  5
202
100
AcDbEntity
  8
PIN_NUMBERS_TOP
100
AcDbText
 10
1.664136
 20
-17.460004
 30
0.0
 40
0.508
  1
73
  7
COURIER_NEW
 72
         1
 11
2.1
 21
-17.2375
 31
0.0
100
AcDbText
 73
         2
  0
TEXT
  5
203
100
AcDbEntity
  8
PIN_NUMBERS_TOP
100
AcDbText
 10
1.664136
 20
-18.095004
 30
0.0
 40
0.508
  1
74
  7
COURIER_NEW
 72
         1
 11
2.1
 21
-17.8725
 31
0.0
100
AcDbText
 73
         2
  0
TEXT
  5
204
100
AcDbEntity
  8
PIN_NUMBERS_TOP
100
AcDbText
 10
1.664136
 20
-18.730004
 30
0.0
 40
0.508
  1
75
  7
COURIER_NEW
 72
         1
 11
2.1
 21
-18.5075
 31
0.0
100
AcDbText
 73
         2
  0
TEXT
  5
205
100
AcDbEntity
  8
PIN_NUMBERS_TOP
100
AcDbText
 10
1.664136
 20
-19.365004
 30
0.0
 40
0.508
  1
76
  7
COURIER_NEW
 72
         1
 11
2.1
 21
-19.1425
 31
0.0
100
AcDbText
 73
         2
  0
TEXT
  5
206
100
AcDbEntity
  8
PIN_NUMBERS_TOP
100
AcDbText
 10
1.664136
 20
-20.000004
 30
0.0
 40
0.508
  1
77
  7
COURIER_NEW
 72
         1
 11
2.1
 21
-19.7775
 31
0.0
100
AcDbText
 73
         2
  0
TEXT
  5
207
100
AcDbEntity
  8
PIN_NUMBERS_TOP
100
AcDbText
 10
1.664136
 20
-20.635004
 30
0.0
 40
0.508
  1
78
  7
COURIER_NEW
 72
         1
 11
2.1
 21
-20.4125
 31
0.0
100
AcDbText
 73
         2
  0
TEXT
  5
208
100
AcDbEntity
  8
PIN_NUMBERS_TOP
100
AcDbText
 10
1.664136
 20
-21.270004
 30
0.0
 40
0.508
  1
79
  7
COURIER_NEW
 72
         1
 11
2.1
 21
-21.0475
 31
0.0
100
AcDbText
 73
         2
  0
TEXT
  5
209
100
AcDbEntity
  8
PIN_NUMBERS_TOP
100
AcDbText
 10
1.664136
 20
-21.905004
 30
0.0
 40
0.508
  1
80
  7
COURIER_NEW
 72
         1
 11
2.1
 21
-21.6825
 31
0.0
100
AcDbText
 73
         2
  0
TEXT
  5
20A
100
AcDbEntity
  8
PIN_NUMBERS_TOP
100
AcDbText
 10
1.664136
 20
-22.540004
 30
0.0
 40
0.508
  1
81
  7
COURIER_NEW
 72
         1
 11
2.1
 21
-22.3175
 31
0.0
100
AcDbText
 73
         2
  0
TEXT
  5
20B
100
AcDbEntity
  8
PIN_NUMBERS_TOP
100
AcDbText
 10
1.664136
 20
-23.175004
 30
0.0
 40
0.508
  1
82
  7
COURIER_NEW
 72
         1
 11
2.1
 21
-22.9525
 31
0.0
100
AcDbText
 73
         2
  0
TEXT
  5
20C
100
AcDbEntity
  8
PIN_NUMBERS_TOP
100
AcDbText
 10
1.664136
 20
-23.810004
 30
0.0
 40
0.508
  1
83
  7
COURIER_NEW
 72
         1
 11
2.1
 21
-23.5875
 31
0.0
100
AcDbText
 73
         2
  0
TEXT
  5
20D
100
AcDbEntity
  8
PIN_NUMBERS_TOP
100
AcDbText
 10
1.664136
 20
-24.445004
 30
0.0
 40
0.508
  1
84
  7
COURIER_NEW
 72
         1
 11
2.1
 21
-24.2225
 31
0.0
100
AcDbText
 73
         2
  0
TEXT
  5
20E
100
AcDbEntity
  8
PIN_NUMBERS_TOP
100
AcDbText
 10
1.664136
 20
-25.080004
 30
0.0
 40
0.508
  1
85
  7
COURIER_NEW
 72
         1
 11
2.1
 21
-24.8575
 31
0.0
100
AcDbText
 73
         2
  0
TEXT
  5
20F
100
AcDbEntity
  8
PIN_NUMBERS_TOP
100
AcDbText
 10
1.664136
 20
-25.715004
 30
0.0
 40
0.508
  1
86
  7
COURIER_NEW
 72
         1
 11
2.1
 21
-25.4925
 31
0.0
100
AcDbText
 73
         2
  0
TEXT
  5
210
100
AcDbEntity
  8
PIN_NUMBERS_TOP
100
AcDbText
 10
1.664136
 20
-26.350004
 30
0.0
 40
0.508
  1
87
  7
COURIER_NEW
 72
         1
 11
2.1
 21
-26.1275
 31
0.0
100
AcDbText
 73
         2
  0
TEXT
  5
211
100
AcDbEntity
  8
PIN_NUMBERS_TOP
100
AcDbText
 10
1.664136
 20
-26.985004
 30
0.0
 40
0.508
  1
88
  7
COURIER_NEW
 72
         1
 11
2.1
 21
-26.7625
 31
0.0
100
AcDbText
 73
         2
  0
TEXT
  5
212
100
AcDbEntity
  8
PIN_NUMBERS_TOP
100
AcDbText
 10
1.664136
 20
-27.620004
 30
0.0
 40
0.508
  1
89
  7
COURIER_NEW
 72
         1
 11
2.1
 21
-27.3975
 31
0.0
100
AcDbText
 73
         2
  0
TEXT
  5
213
100
AcDbEntity
  8
PIN_NUMBERS_TOP
100
AcDbText
 10
1.664136
 20
-28.255004
 30
0.0
 40
0.508
  1
90
  7
COURIER_NEW
 72
         1
 11
2.1
 21
-28.0325
 31
0.0
100
AcDbText
 73
         2
  0
TEXT
  5
214
100
AcDbEntity
  8
PIN_NUMBERS_TOP
100
AcDbText
 10
1.664136
 20
-28.890004
 30
0.0
 40
0.508
  1
91
  7
COURIER_NEW
 72
         1
 11
2.1
 21
-28.6675
 31
0.0
100
AcDbText
 73
         2
  0
TEXT
  5
215
100
AcDbEntity
  8
PIN_NUMBERS_TOP
100
AcDbText
 10
1.664136
 20
-29.525004
 30
0.0
 40
0.508
  1
92
  7
COURIER_NEW
 72
         1
 11
2.1
 21
-29.3025
 31
0.0
100
AcDbText
 73
         2
  0
TEXT
  5
216
100
AcDbEntity
  8
PIN_NUMBERS_TOP
100
AcDbText
 10
1.664136
 20
-30.160004
 30
0.0
 40
0.508
  1
93
  7
COURIER_NEW
 72
         1
 11
2.1
 21
-29.9375
 31
0.0
100
AcDbText
 73
         2
  0
TEXT
  5
217
100
AcDbEntity
  8
PIN_NUMBERS_TOP
100
AcDbText
 10
1.664136
 20
-30.795004
 30
0.0
 40
0.508
  1
94
  7
COURIER_NEW
 72
         1
 11
2.1
 21
-30.5725
 31
0.0
100
AcDbText
 73
         2
  0
TEXT
  5
218
100
AcDbEntity
  8
PIN_NUMBERS_TOP
100
AcDbText
 10
1.664136
 20
-31.430004
 30
0.0
 40
0.508
  1
95
  7
COURIER_NEW
 72
         1
 11
2.1
 21
-31.2075
 31
0.0
100
AcDbText
 73
         2
  0
TEXT
  5
219
100
AcDbEntity
  8
PIN_NUMBERS_TOP
100
AcDbText
 10
1.664136
 20
-32.065004
 30
0.0
 40
0.508
  1
96
  7
COURIER_NEW
 72
         1
 11
2.1
 21
-31.8425
 31
0.0
100
AcDbText
 73
         2
  0
TEXT
  5
21A
100
AcDbEntity
  8
PIN_NUMBERS_TOP
100
AcDbText
 10
1.664136
 20
-32.700004
 30
0.0
 40
0.508
  1
97
  7
COURIER_NEW
 72
         1
 11
2.1
 21
-32.4775
 31
0.0
100
AcDbText
 73
         2
  0
TEXT
  5
21B
100
AcDbEntity
  8
PIN_NUMBERS_TOP
100
AcDbText
 10
1.664136
 20
-33.335004
 30
0.0
 40
0.508
  1
98
  7
COURIER_NEW
 72
         1
 11
2.1
 21
-33.1125
 31
0.0
100
AcDbText
 73
         2
  0
TEXT
  5
21C
100
AcDbEntity
  8
PIN_NUMBERS_TOP
100
AcDbText
 10
1.664136
 20
-33.970004
 30
0.0
 40
0.508
  1
99
  7
COURIER_NEW
 72
         1
 11
2.1
 21
-33.7475
 31
0.0
100
AcDbText
 73
         2
  0
TEXT
  5
21D
100
AcDbEntity
  8
PIN_NUMBERS_TOP
100
AcDbText
 10
1.446204
 20
-34.605004
 30
0.0
 40
0.508
  1
100
  7
COURIER_NEW
 72
         1
 11
2.1
 21
-34.3825
 31
0.0
100
AcDbText
 73
         2
  0
TEXT
  5
21E
100
AcDbEntity
  8
PIN_NUMBERS_TOP
100
AcDbText
 10
44.846204
 20
-3.490004
 30
0.0
 40
0.508
  1
101
  7
COURIER_NEW
 72
         1
 11
45.5
 21
-3.2675
 31
0.0
100
AcDbText
 73
         2
  0
TEXT
  5
21F
100
AcDbEntity
  8
PIN_NUMBERS_TOP
100
AcDbText
 10
44.846204
 20
-4.125004
 30
0.0
 40
0.508
  1
102
  7
COURIER_NEW
 72
         1
 11
45.5
 21
-3.9025
 31
0.0
100
AcDbText
 73
         2
  0
TEXT
  5
220
100
AcDbEntity
  8
PIN_NUMBERS_TOP
100
AcDbText
 10
44.846204
 20
-4.760004
 30
0.0
 40
0.508
  1
103
  7
COURIER_NEW
 72
         1
 11
45.5
 21
-4.5375
 31
0.0
100
AcDbText
 73
         2
  0
TEXT
  5
221
100
AcDbEntity
  8
PIN_NUMBERS_TOP
100
AcDbText
 10
44.846204
 20
-5.395004
 30
0.0
 40
0.508
  1
104
  7
COURIER_NEW
 72
         1
 11
45.5
 21
-5.1725
 31
0.0
100
AcDbText
 73
         2
  0
TEXT
  5
222
100
AcDbEntity
  8
PIN_NUMBERS_TOP
100
AcDbText
 10
44.846204
 20
-6.030004
 30
0.0
 40
0.508
  1
105
  7
COURIER_NEW
 72
         1
 11
45.5
 21
-5.8075
 31
0.0
100
AcDbText
 73
         2
  0
TEXT
  5
223
100
AcDbEntity
  8
PIN_NUMBERS_TOP
100
AcDbText
 10
44.846204
 20
-6.665004
 30
0.0
 40
0.508
  1
106
  7
COURIER_NEW
 72
         1
 11
45.5
 21
-6.4425
 31
0.0
100
AcDbText
 73
         2
  0
TEXT
  5
224
100
AcDbEntity
  8
PIN_NUMBERS_TOP
100
AcDbText
 10
44.846204
 20
-7.300004
 30
0.0
 40
0.508
  1
107
  7
COURIER_NEW
 72
         1
 11
45.5
 21
-7.0775
 31
0.0
100
AcDbText
 73
         2
  0
TEXT
  5
225
100
AcDbEntity
  8
PIN_NUMBERS_TOP
100
AcDbText
 10
44.846204
 20
-7.935004
 30
0.0
 40
0.508
  1
108
  7
COURIER_NEW
 72
         1
 11
45.5
 21
-7.7125
 31
0.0
100
AcDbText
 73
         2
  0
TEXT
  5
226
100
AcDbEntity
  8
PIN_NUMBERS_TOP
100
AcDbText
 10
44.846204
 20
-8.570004
 30
0.0
 40
0.508
  1
109
  7
COURIER_NEW
 72
         1
 11
45.5
 21
-8.3475
 31
0.0
100
AcDbText
 73
         2
  0
TEXT
  5
227
100
AcDbEntity
  8
PIN_NUMBERS_TOP
100
AcDbText
 10
44.846204
 20
-9.205004
 30
0.0
 40
0.508
  1
110
  7
COURIER_NEW
 72
         1
 11
45.5
 21
-8.9825
 31
0.0
100
AcDbText
 73
         2
  0
TEXT
  5
228
100
AcDbEntity
  8
PIN_NUMBERS_TOP
100
AcDbText
 10
44.846204
 20
-9.840004
 30
0.0
 40
0.508
  1
111
  7
COURIER_NEW
 72
         1
 11
45.5
 21
-9.6175
 31
0.0
100
AcDbText
 73
         2
  0
TEXT
  5
229
100
AcDbEntity
  8
PIN_NUMBERS_TOP
100
AcDbText
 10
44.846204
 20
-10.475004
 30
0.0
 40
0.508
  1
112
  7
COURIER_NEW
 72
         1
 11
45.5
 21
-10.2525
 31
0.0
100
AcDbText
 73
         2
  0
TEXT
  5
22A
100
AcDbEntity
  8
PIN_NUMBERS_TOP
100
AcDbText
 10
44.846204
 20
-11.110004
 30
0.0
 40
0.508
  1
113
  7
COURIER_NEW
 72
         1
 11
45.5
 21
-10.8875
 31
0.0
100
AcDbText
 73
         2
  0
TEXT
  5
22B
100
AcDbEntity
  8
PIN_NUMBERS_TOP
100
AcDbText
 10
44.846204
 20
-11.745004
 30
0.0
 40
0.508
  1
114
  7
COURIER_NEW
 72
         1
 11
45.5
 21
-11.5225
 31
0.0
100
AcDbText
 73
         2
  0
TEXT
  5
22C
100
AcDbEntity
  8
PIN_NUMBERS_TOP
100
AcDbText
 10
44.846204
 20
-12.380004
 30
0.0
 40
0.508
  1
115
  7
COURIER_NEW
 72
         1
 11
45.5
 21
-12.1575
 31
0.0
100
AcDbText
 73
         2
  0
TEXT
  5
22D
100
AcDbEntity
  8
PIN_NUMBERS_TOP
100
AcDbText
 10
44.846204
 20
-13.015004
 30
0.0
 40
0.508
  1
116
  7
COURIER_NEW
 72
         1
 11
45.5
 21
-12.7925
 31
0.0
100
AcDbText
 73
         2
  0
TEXT
  5
22E
100
AcDbEntity
  8
PIN_NUMBERS_TOP
100
AcDbText
 10
44.846204
 20
-13.650004
 30
0.0
 40
0.508
  1
117
  7
COURIER_NEW
 72
         1
 11
45.5
 21
-13.4275
 31
0.0
100
AcDbText
 73
         2
  0
TEXT
  5
22F
100
AcDbEntity
  8
PIN_NUMBERS_TOP
100
AcDbText
 10
44.846204
 20
-14.285004
 30
0.0
 40
0.508
  1
118
  7
COURIER_NEW
 72
         1
 11
45.5
 21
-14.0625
 31
0.0
100
AcDbText
 73
         2
  0
TEXT
  5
230
100
AcDbEntity
  8
PIN_NUMBERS_TOP
100
AcDbText
 10
44.846204
 20
-14.920004
 30
0.0
 40
0.508
  1
119
  7
COURIER_NEW
 72
         1
 11
45.5
 21
-14.6975
 31
0.0
100
AcDbText
 73
         2
  0
TEXT
  5
231
100
AcDbEntity
  8
PIN_NUMBERS_TOP
100
AcDbText
 10
44.846204
 20
-15.555004
 30
0.0
 40
0.508
  1
120
  7
COURIER_NEW
 72
         1
 11
45.5
 21
-15.3325
 31
0.0
100
AcDbText
 73
         2
  0
TEXT
  5
232
100
AcDbEntity
  8
PIN_NUMBERS_TOP
100
AcDbText
 10
44.846204
 20
-16.190004
 30
0.0
 40
0.508
  1
121
  7
COURIER_NEW
 72
         1
 11
45.5
 21
-15.9675
 31
0.0
100
AcDbText
 73
         2
  0
TEXT
  5
233
100
AcDbEntity
  8
PIN_NUMBERS_TOP
100
AcDbText
 10
44.846204
 20
-16.825004
 30
0.0
 40
0.508
  1
122
  7
COURIER_NEW
 72
         1
 11
45.5
 21
-16.6025
 31
0.0
100
AcDbText
 73
         2
  0
TEXT
  5
234
100
AcDbEntity
  8
PIN_NUMBERS_TOP
100
AcDbText
 10
44.846204
 20
-17.460004
 30
0.0
 40
0.508
  1
123
  7
COURIER_NEW
 72
         1
 11
45.5
 21
-17.2375
 31
0.0
100
AcDbText
 73
         2
  0
TEXT
  5
235
100
AcDbEntity
  8
PIN_NUMBERS_TOP
100
AcDbText
 10
44.846204
 20
-18.095004
 30
0.0
 40
0.508
  1
124
  7
COURIER_NEW
 72
         1
 11
45.5
 21
-17.8725
 31
0.0
100
AcDbText
 73
         2
  0
TEXT
  5
236
100
AcDbEntity
  8
PIN_NUMBERS_TOP
100
AcDbText
 10
44.846204
 20
-18.730004
 30
0.0
 40
0.508
  1
125
  7
COURIER_NEW
 72
         1
 11
45.5
 21
-18.5075
 31
0.0
100
AcDbText
 73
         2
  0
TEXT
  5
237
100
AcDbEntity
  8
PIN_NUMBERS_TOP
100
AcDbText
 10
44.846204
 20
-19.365004
 30
0.0
 40
0.508
  1
126
  7
COURIER_NEW
 72
         1
 11
45.5
 21
-19.1425
 31
0.0
100
AcDbText
 73
         2
  0
TEXT
  5
238
100
AcDbEntity
  8
PIN_NUMBERS_TOP
100
AcDbText
 10
44.846204
 20
-20.000004
 30
0.0
 40
0.508
  1
127
  7
COURIER_NEW
 72
         1
 11
45.5
 21
-19.7775
 31
0.0
100
AcDbText
 73
         2
  0
TEXT
  5
239
100
AcDbEntity
  8
PIN_NUMBERS_TOP
100
AcDbText
 10
44.846204
 20
-20.635004
 30
0.0
 40
0.508
  1
128
  7
COURIER_NEW
 72
         1
 11
45.5
 21
-20.4125
 31
0.0
100
AcDbText
 73
         2
  0
TEXT
  5
23A
100
AcDbEntity
  8
PIN_NUMBERS_TOP
100
AcDbText
 10
44.846204
 20
-21.270004
 30
0.0
 40
0.508
  1
129
  7
COURIER_NEW
 72
         1
 11
45.5
 21
-21.0475
 31
0.0
100
AcDbText
 73
         2
  0
TEXT
  5
23B
100
AcDbEntity
  8
PIN_NUMBERS_TOP
100
AcDbText
 10
44.846204
 20
-21.905004
 30
0.0
 40
0.508
  1
130
  7
COURIER_NEW
 72
         1
 11
45.5
 21
-21.6825
 31
0.0
100
AcDbText
 73
         2
  0
TEXT
  5
23C
100
AcDbEntity
  8
PIN_NUMBERS_TOP
100
AcDbText
 10
44.846204
 20
-22.540004
 30
0.0
 40
0.508
  1
131
  7
COURIER_NEW
 72
         1
 11
45.5
 21
-22.3175
 31
0.0
100
AcDbText
 73
         2
  0
TEXT
  5
23D
100
AcDbEntity
  8
PIN_NUMBERS_TOP
100
AcDbText
 10
44.846204
 20
-23.175004
 30
0.0
 40
0.508
  1
132
  7
COURIER_NEW
 72
         1
 11
45.5
 21
-22.9525
 31
0.0
100
AcDbText
 73
         2
  0
TEXT
  5
23E
100
AcDbEntity
  8
PIN_NUMBERS_TOP
100
AcDbText
 10
44.846204
 20
-23.810004
 30
0.0
 40
0.508
  1
133
  7
COURIER_NEW
 72
         1
 11
45.5
 21
-23.5875
 31
0.0
100
AcDbText
 73
         2
  0
TEXT
  5
23F
100
AcDbEntity
  8
PIN_NUMBERS_TOP
100
AcDbText
 10
44.846204
 20
-24.445004
 30
0.0
 40
0.508
  1
134
  7
COURIER_NEW
 72
         1
 11
45.5
 21
-24.2225
 31
0.0
100
AcDbText
 73
         2
  0
TEXT
  5
240
100
AcDbEntity
  8
PIN_NUMBERS_TOP
100
AcDbText
 10
44.846204
 20
-25.080004
 30
0.0
 40
0.508
  1
135
  7
COURIER_NEW
 72
         1
 11
45.5
 21
-24.8575
 31
0.0
100
AcDbText
 73
         2
  0
TEXT
  5
241
100
AcDbEntity
  8
PIN_NUMBERS_TOP
100
AcDbText
 10
44.846204
 20
-25.715004
 30
0.0
 40
0.508
  1
136
  7
COURIER_NEW
 72
         1
 11
45.5
 21
-25.4925
 31
0.0
100
AcDbText
 73
         2
  0
TEXT
  5
242
100
AcDbEntity
  8
PIN_NUMBERS_TOP
100
AcDbText
 10
44.846204
 20
-26.350004
 30
0.0
 40
0.508
  1
137
  7
COURIER_NEW
 72
         1
 11
45.5
 21
-26.1275
 31
0.0
100
AcDbText
 73
         2
  0
TEXT
  5
243
100
AcDbEntity
  8
PIN_NUMBERS_TOP
100
AcDbText
 10
44.846204
 20
-26.985004
 30
0.0
 40
0.508
  1
138
  7
COURIER_NEW
 72
         1
 11
45.5
 21
-26.7625
 31
0.0
100
AcDbText
 73
         2
  0
TEXT
  5
244
100
AcDbEntity
  8
PIN_NUMBERS_TOP
100
AcDbText
 10
44.846204
 20
-27.620004
 30
0.0
 40
0.508
  1
139
  7
COURIER_NEW
 72
         1
 11
45.5
 21
-27.3975
 31
0.0
100
AcDbText
 73
         2
  0
TEXT
  5
245
100
AcDbEntity
  8
PIN_NUMBERS_TOP
100
AcDbText
 10
44.846204
 20
-28.255004
 30
0.0
 40
0.508
  1
140
  7
COURIER_NEW
 72
         1
 11
45.5
 21
-28.0325
 31
0.0
100
AcDbText
 73
         2
  0
TEXT
  5
246
100
AcDbEntity
  8
PIN_NUMBERS_TOP
100
AcDbText
 10
44.846204
 20
-28.890004
 30
0.0
 40
0.508
  1
141
  7
COURIER_NEW
 72
         1
 11
45.5
 21
-28.6675
 31
0.0
100
AcDbText
 73
         2
  0
TEXT
  5
247
100
AcDbEntity
  8
PIN_NUMBERS_TOP
100
AcDbText
 10
44.846204
 20
-29.525004
 30
0.0
 40
0.508
  1
142
  7
COURIER_NEW
 72
         1
 11
45.5
 21
-29.3025
 31
0.0
100
AcDbText
 73
         2
  0
TEXT
  5
248
100
AcDbEntity
  8
PIN_NUMBERS_TOP
100
AcDbText
 10
44.846204
 20
-30.160004
 30
0.0
 40
0.508
  1
143
  7
COURIER_NEW
 72
         1
 11
45.5
 21
-29.9375
 31
0.0
100
AcDbText
 73
         2
  0
TEXT
  5
249
100
AcDbEntity
  8
PIN_NUMBERS_TOP
100
AcDbText
 10
44.846204
 20
-30.795004
 30
0.0
 40
0.508
  1
144
  7
COURIER_NEW
 72
         1
 11
45.5
 21
-30.5725
 31
0.0
100
AcDbText
 73
         2
  0
TEXT
  5
24A
100
AcDbEntity
  8
PIN_NUMBERS_TOP
100
AcDbText
 10
44.846204
 20
-31.430004
 30
0.0
 40
0.508
  1
145
  7
COURIER_NEW
 72
         1
 11
45.5
 21
-31.2075
 31
0.0
100
AcDbText
 73
         2
  0
TEXT
  5
24B
100
AcDbEntity
  8
PIN_NUMBERS_TOP
100
AcDbText
 10
44.846204
 20
-32.065004
 30
0.0
 40
0.508
  1
146
  7
COURIER_NEW
 72
         1
 11
45.5
 21
-31.8425
 31
0.0
100
AcDbText
 73
         2
  0
TEXT
  5
24C
100
AcDbEntity
  8
PIN_NUMBERS_TOP
100
AcDbText
 10
44.846204
 20
-32.700004
 30
0.0
 40
0.508
  1
147
  7
COURIER_NEW
 72
         1
 11
45.5
 21
-32.4775
 31
0.0
100
AcDbText
 73
         2
  0
TEXT
  5
24D
100
AcDbEntity
  8
PIN_NUMBERS_TOP
100
AcDbText
 10
44.846204
 20
-33.335004
 30
0.0
 40
0.508
  1
148
  7
COURIER_NEW
 72
         1
 11
45.5
 21
-33.1125
 31
0.0
100
AcDbText
 73
         2
  0
TEXT
  5
24E
100
AcDbEntity
  8
PIN_NUMBERS_TOP
100
AcDbText
 10
44.846204
 20
-33.970004
 30
0.0
 40
0.508
  1
149
  7
COURIER_NEW
 72
         1
 11
45.5
 21
-33.7475
 31
0.0
100
AcDbText
 73
         2
  0
TEXT
  5
24F
100
AcDbEntity
  8
PIN_NUMBERS_TOP
100
AcDbText
 10
44.846204
 20
-34.605004
 30
0.0
 40
0.508
  1
150
  7
COURIER_NEW
 72
         1
 11
45.5
 21
-34.3825
 31
0.0
100
AcDbText
 73
         2
  0
TEXT
  5
250
100
AcDbEntity
  8
PIN_NUMBERS_TOP
100
AcDbText
 10
49.046204
 20
-3.490004
 30
0.0
 40
0.508
  1
151
  7
COURIER_NEW
 72
         1
 11
49.7
 21
-3.2675
 31
0.0
100
AcDbText
 73
         2
  0
TEXT
  5
251
100
AcDbEntity
  8
PIN_NUMBERS_TOP
100
AcDbText
 10
49.046204
 20
-4.125004
 30
0.0
 40
0.508
  1
152
  7
COURIER_NEW
 72
         1
 11
49.7
 21
-3.9025
 31
0.0
100
AcDbText
 73
         2
  0
TEXT
  5
252
100
AcDbEntity
  8
PIN_NUMBERS_TOP
100
AcDbText
 10
49.046204
 20
-4.760004
 30
0.0
 40
0.508
  1
153
  7
COURIER_NEW
 72
         1
 11
49.7
 21
-4.5375
 31
0.0
100
AcDbText
 73
         2
  0
TEXT
  5
253
100
AcDbEntity
  8
PIN_NUMBERS_TOP
100
AcDbText
 10
49.046204
 20
-5.395004
 30
0.0
 40
0.508
  1
154
  7
COURIER_NEW
 72
         1
 11
49.7
 21
-5.1725
 31
0.0
100
AcDbText
 73
         2
  0
TEXT
  5
254
100
AcDbEntity
  8
PIN_NUMBERS_TOP
100
AcDbText
 10
49.046204
 20
-6.030004
 30
0.0
 40
0.508
  1
155
  7
COURIER_NEW
 72
         1
 11
49.7
 21
-5.8075
 31
0.0
100
AcDbText
 73
         2
  0
TEXT
  5
255
100
AcDbEntity
  8
PIN_NUMBERS_TOP
100
AcDbText
 10
49.046204
 20
-6.665004
 30
0.0
 40
0.508
  1
156
  7
COURIER_NEW
 72
         1
 11
49.7
 21
-6.4425
 31
0.0
100
AcDbText
 73
         2
  0
TEXT
  5
256
100
AcDbEntity
  8
PIN_NUMBERS_TOP
100
AcDbText
 10
49.046204
 20
-7.300004
 30
0.0
 40
0.508
  1
157
  7
COURIER_NEW
 72
         1
 11
49.7
 21
-7.0775
 31
0.0
100
AcDbText
 73
         2
  0
TEXT
  5
257
100
AcDbEntity
  8
PIN_NUMBERS_TOP
100
AcDbText
 10
49.046204
 20
-7.935004
 30
0.0
 40
0.508
  1
158
  7
COURIER_NEW
 72
         1
 11
49.7
 21
-7.7125
 31
0.0
100
AcDbText
 73
         2
  0
TEXT
  5
258
100
AcDbEntity
  8
PIN_NUMBERS_TOP
100
AcDbText
 10
49.046204
 20
-8.570004
 30
0.0
 40
0.508
  1
159
  7
COURIER_NEW
 72
         1
 11
49.7
 21
-8.3475
 31
0.0
100
AcDbText
 73
         2
  0
TEXT
  5
259
100
AcDbEntity
  8
PIN_NUMBERS_TOP
100
AcDbText
 10
49.046204
 20
-9.205004
 30
0.0
 40
0.508
  1
160
  7
COURIER_NEW
 72
         1
 11
49.7
 21
-8.9825
 31
0.0
100
AcDbText
 73
         2
  0
TEXT
  5
25A
100
AcDbEntity
  8
PIN_NUMBERS_TOP
100
AcDbText
 10
49.046204
 20
-9.840004
 30
0.0
 40
0.508
  1
161
  7
COURIER_NEW
 72
         1
 11
49.7
 21
-9.6175
 31
0.0
100
AcDbText
 73
         2
  0
TEXT
  5
25B
100
AcDbEntity
  8
PIN_NUMBERS_TOP
100
AcDbText
 10
49.046204
 20
-10.475004
 30
0.0
 40
0.508
  1
162
  7
COURIER_NEW
 72
         1
 11
49.7
 21
-10.2525
 31
0.0
100
AcDbText
 73
         2
  0
TEXT
  5
25C
100
AcDbEntity
  8
PIN_NUMBERS_TOP
100
AcDbText
 10
49.046204
 20
-11.110004
 30
0.0
 40
0.508
  1
163
  7
COURIER_NEW
 72
         1
 11
49.7
 21
-10.8875
 31
0.0
100
AcDbText
 73
         2
  0
TEXT
  5
25D
100
AcDbEntity
  8
PIN_NUMBERS_TOP
100
AcDbText
 10
49.046204
 20
-11.745004
 30
0.0
 40
0.508
  1
164
  7
COURIER_NEW
 72
         1
 11
49.7
 21
-11.5225
 31
0.0
100
AcDbText
 73
         2
  0
TEXT
  5
25E
100
AcDbEntity
  8
PIN_NUMBERS_TOP
100
AcDbText
 10
49.046204
 20
-12.380004
 30
0.0
 40
0.508
  1
165
  7
COURIER_NEW
 72
         1
 11
49.7
 21
-12.1575
 31
0.0
100
AcDbText
 73
         2
  0
TEXT
  5
25F
100
AcDbEntity
  8
PIN_NUMBERS_TOP
100
AcDbText
 10
49.046204
 20
-13.015004
 30
0.0
 40
0.508
  1
166
  7
COURIER_NEW
 72
         1
 11
49.7
 21
-12.7925
 31
0.0
100
AcDbText
 73
         2
  0
TEXT
  5
260
100
AcDbEntity
  8
PIN_NUMBERS_TOP
100
AcDbText
 10
49.046204
 20
-13.650004
 30
0.0
 40
0.508
  1
167
  7
COURIER_NEW
 72
         1
 11
49.7
 21
-13.4275
 31
0.0
100
AcDbText
 73
         2
  0
TEXT
  5
261
100
AcDbEntity
  8
PIN_NUMBERS_TOP
100
AcDbText
 10
49.046204
 20
-14.285004
 30
0.0
 40
0.508
  1
168
  7
COURIER_NEW
 72
         1
 11
49.7
 21
-14.0625
 31
0.0
100
AcDbText
 73
         2
  0
TEXT
  5
262
100
AcDbEntity
  8
PIN_NUMBERS_TOP
100
AcDbText
 10
49.046204
 20
-14.920004
 30
0.0
 40
0.508
  1
169
  7
COURIER_NEW
 72
         1
 11
49.7
 21
-14.6975
 31
0.0
100
AcDbText
 73
         2
  0
TEXT
  5
263
100
AcDbEntity
  8
PIN_NUMBERS_TOP
100
AcDbText
 10
49.046204
 20
-15.555004
 30
0.0
 40
0.508
  1
170
  7
COURIER_NEW
 72
         1
 11
49.7
 21
-15.3325
 31
0.0
100
AcDbText
 73
         2
  0
TEXT
  5
264
100
AcDbEntity
  8
PIN_NUMBERS_TOP
100
AcDbText
 10
49.046204
 20
-16.190004
 30
0.0
 40
0.508
  1
171
  7
COURIER_NEW
 72
         1
 11
49.7
 21
-15.9675
 31
0.0
100
AcDbText
 73
         2
  0
TEXT
  5
265
100
AcDbEntity
  8
PIN_NUMBERS_TOP
100
AcDbText
 10
49.046204
 20
-16.825004
 30
0.0
 40
0.508
  1
172
  7
COURIER_NEW
 72
         1
 11
49.7
 21
-16.6025
 31
0.0
100
AcDbText
 73
         2
  0
TEXT
  5
266
100
AcDbEntity
  8
PIN_NUMBERS_TOP
100
AcDbText
 10
49.046204
 20
-17.460004
 30
0.0
 40
0.508
  1
173
  7
COURIER_NEW
 72
         1
 11
49.7
 21
-17.2375
 31
0.0
100
AcDbText
 73
         2
  0
TEXT
  5
267
100
AcDbEntity
  8
PIN_NUMBERS_TOP
100
AcDbText
 10
49.046204
 20
-18.095004
 30
0.0
 40
0.508
  1
174
  7
COURIER_NEW
 72
         1
 11
49.7
 21
-17.8725
 31
0.0
100
AcDbText
 73
         2
  0
TEXT
  5
268
100
AcDbEntity
  8
PIN_NUMBERS_TOP
100
AcDbText
 10
49.046204
 20
-18.730004
 30
0.0
 40
0.508
  1
175
  7
COURIER_NEW
 72
         1
 11
49.7
 21
-18.5075
 31
0.0
100
AcDbText
 73
         2
  0
TEXT
  5
269
100
AcDbEntity
  8
PIN_NUMBERS_TOP
100
AcDbText
 10
49.046204
 20
-19.365004
 30
0.0
 40
0.508
  1
176
  7
COURIER_NEW
 72
         1
 11
49.7
 21
-19.1425
 31
0.0
100
AcDbText
 73
         2
  0
TEXT
  5
26A
100
AcDbEntity
  8
PIN_NUMBERS_TOP
100
AcDbText
 10
49.046204
 20
-20.000004
 30
0.0
 40
0.508
  1
177
  7
COURIER_NEW
 72
         1
 11
49.7
 21
-19.7775
 31
0.0
100
AcDbText
 73
         2
  0
TEXT
  5
26B
100
AcDbEntity
  8
PIN_NUMBERS_TOP
100
AcDbText
 10
49.046204
 20
-20.635004
 30
0.0
 40
0.508
  1
178
  7
COURIER_NEW
 72
         1
 11
49.7
 21
-20.4125
 31
0.0
100
AcDbText
 73
         2
  0
TEXT
  5
26C
100
AcDbEntity
  8
PIN_NUMBERS_TOP
100
AcDbText
 10
49.046204
 20
-21.270004
 30
0.0
 40
0.508
  1
179
  7
COURIER_NEW
 72
         1
 11
49.7
 21
-21.0475
 31
0.0
100
AcDbText
 73
         2
  0
TEXT
  5
26D
100
AcDbEntity
  8
PIN_NUMBERS_TOP
100
AcDbText
 10
49.046204
 20
-21.905004
 30
0.0
 40
0.508
  1
180
  7
COURIER_NEW
 72
         1
 11
49.7
 21
-21.6825
 31
0.0
100
AcDbText
 73
         2
  0
TEXT
  5
26E
100
AcDbEntity
  8
PIN_NUMBERS_TOP
100
AcDbText
 10
49.046204
 20
-22.540004
 30
0.0
 40
0.508
  1
181
  7
COURIER_NEW
 72
         1
 11
49.7
 21
-22.3175
 31
0.0
100
AcDbText
 73
         2
  0
TEXT
  5
26F
100
AcDbEntity
  8
PIN_NUMBERS_TOP
100
AcDbText
 10
49.046204
 20
-23.175004
 30
0.0
 40
0.508
  1
182
  7
COURIER_NEW
 72
         1
 11
49.7
 21
-22.9525
 31
0.0
100
AcDbText
 73
         2
  0
TEXT
  5
270
100
AcDbEntity
  8
PIN_NUMBERS_TOP
100
AcDbText
 10
49.046204
 20
-23.810004
 30
0.0
 40
0.508
  1
183
  7
COURIER_NEW
 72
         1
 11
49.7
 21
-23.5875
 31
0.0
100
AcDbText
 73
         2
  0
TEXT
  5
271
100
AcDbEntity
  8
PIN_NUMBERS_TOP
100
AcDbText
 10
49.046204
 20
-24.445004
 30
0.0
 40
0.508
  1
184
  7
COURIER_NEW
 72
         1
 11
49.7
 21
-24.2225
 31
0.0
100
AcDbText
 73
         2
  0
TEXT
  5
272
100
AcDbEntity
  8
PIN_NUMBERS_TOP
100
AcDbText
 10
49.046204
 20
-25.080004
 30
0.0
 40
0.508
  1
185
  7
COURIER_NEW
 72
         1
 11
49.7
 21
-24.8575
 31
0.0
100
AcDbText
 73
         2
  0
TEXT
  5
273
100
AcDbEntity
  8
PIN_NUMBERS_TOP
100
AcDbText
 10
49.046204
 20
-25.715004
 30
0.0
 40
0.508
  1
186
  7
COURIER_NEW
 72
         1
 11
49.7
 21
-25.4925
 31
0.0
100
AcDbText
 73
         2
  0
TEXT
  5
274
100
AcDbEntity
  8
PIN_NUMBERS_TOP
100
AcDbText
 10
49.046204
 20
-26.350004
 30
0.0
 40
0.508
  1
187
  7
COURIER_NEW
 72
         1
 11
49.7
 21
-26.1275
 31
0.0
100
AcDbText
 73
         2
  0
TEXT
  5
275
100
AcDbEntity
  8
PIN_NUMBERS_TOP
100
AcDbText
 10
49.046204
 20
-26.985004
 30
0.0
 40
0.508
  1
188
  7
COURIER_NEW
 72
         1
 11
49.7
 21
-26.7625
 31
0.0
100
AcDbText
 73
         2
  0
TEXT
  5
276
100
AcDbEntity
  8
PIN_NUMBERS_TOP
100
AcDbText
 10
49.046204
 20
-27.620004
 30
0.0
 40
0.508
  1
189
  7
COURIER_NEW
 72
         1
 11
49.7
 21
-27.3975
 31
0.0
100
AcDbText
 73
         2
  0
TEXT
  5
277
100
AcDbEntity
  8
PIN_NUMBERS_TOP
100
AcDbText
 10
49.046204
 20
-28.255004
 30
0.0
 40
0.508
  1
190
  7
COURIER_NEW
 72
         1
 11
49.7
 21
-28.0325
 31
0.0
100
AcDbText
 73
         2
  0
TEXT
  5
278
100
AcDbEntity
  8
PIN_NUMBERS_TOP
100
AcDbText
 10
49.046204
 20
-28.890004
 30
0.0
 40
0.508
  1
191
  7
COURIER_NEW
 72
         1
 11
49.7
 21
-28.6675
 31
0.0
100
AcDbText
 73
         2
  0
TEXT
  5
279
100
AcDbEntity
  8
PIN_NUMBERS_TOP
100
AcDbText
 10
49.046204
 20
-29.525004
 30
0.0
 40
0.508
  1
192
  7
COURIER_NEW
 72
         1
 11
49.7
 21
-29.3025
 31
0.0
100
AcDbText
 73
         2
  0
TEXT
  5
27A
100
AcDbEntity
  8
PIN_NUMBERS_TOP
100
AcDbText
 10
49.046204
 20
-30.160004
 30
0.0
 40
0.508
  1
193
  7
COURIER_NEW
 72
         1
 11
49.7
 21
-29.9375
 31
0.0
100
AcDbText
 73
         2
  0
TEXT
  5
27B
100
AcDbEntity
  8
PIN_NUMBERS_TOP
100
AcDbText
 10
49.046204
 20
-30.795004
 30
0.0
 40
0.508
  1
194
  7
COURIER_NEW
 72
         1
 11
49.7
 21
-30.5725
 31
0.0
100
AcDbText
 73
         2
  0
TEXT
  5
27C
100
AcDbEntity
  8
PIN_NUMBERS_TOP
100
AcDbText
 10
49.046204
 20
-31.430004
 30
0.0
 40
0.508
  1
195
  7
COURIER_NEW
 72
         1
 11
49.7
 21
-31.2075
 31
0.0
100
AcDbText
 73
         2
  0
TEXT
  5
27D
100
AcDbEntity
  8
PIN_NUMBERS_TOP
100
AcDbText
 10
49.046204
 20
-32.065004
 30
0.0
 40
0.508
  1
196
  7
COURIER_NEW
 72
         1
 11
49.7
 21
-31.8425
 31
0.0
100
AcDbText
 73
         2
  0
TEXT
  5
27E
100
AcDbEntity
  8
PIN_NUMBERS_TOP
100
AcDbText
 10
49.046204
 20
-32.700004
 30
0.0
 40
0.508
  1
197
  7
COURIER_NEW
 72
         1
 11
49.7
 21
-32.4775
 31
0.0
100
AcDbText
 73
         2
  0
TEXT
  5
27F
100
AcDbEntity
  8
PIN_NUMBERS_TOP
100
AcDbText
 10
49.046204
 20
-33.335004
 30
0.0
 40
0.508
  1
198
  7
COURIER_NEW
 72
         1
 11
49.7
 21
-33.1125
 31
0.0
100
AcDbText
 73
         2
  0
TEXT
  5
280
100
AcDbEntity
  8
PIN_NUMBERS_TOP
100
AcDbText
 10
49.046204
 20
-33.970004
 30
0.0
 40
0.508
  1
199
  7
COURIER_NEW
 72
         1
 11
49.7
 21
-33.7475
 31
0.0
100
AcDbText
 73
         2
  0
TEXT
  5
281
100
AcDbEntity
  8
PIN_NUMBERS_TOP
100
AcDbText
 10
49.046204
 20
-34.605004
 30
0.0
 40
0.508
  1
200
  7
COURIER_NEW
 72
         1
 11
49.7
 21
-34.3825
 31
0.0
100
AcDbText
 73
         2
  0
TEXT
  5
282
100
AcDbEntity
  8
PIN_NUMBERS_TOP
100
AcDbText
 10
-0.653796
 20
-0.442504
 30
0.0
 40
0.508
  1
201
  7
COURIER_NEW
 72
         1
 11
0.0
 21
-0.22
 31
0.0
100
AcDbText
 73
         2
  0
TEXT
  5
283
100
AcDbEntity
  8
PIN_NUMBERS_TOP
100
AcDbText
 10
-0.653796
 20
-37.660204
 30
0.0
 40
0.508
  1
202
  7
COURIER_NEW
 72
         1
 11
0.0
 21
-37.4377
 31
0.0
100
AcDbText
 73
         2
  0
TEXT
  5
284
100
AcDbEntity
  8
PIN_NUMBERS_TOP
100
AcDbText
 10
46.946204
 20
-0.442504
 30
0.0
 40
0.508
  1
203
  7
COURIER_NEW
 72
         1
 11
47.6
 21
-0.22
 31
0.0
100
AcDbText
 73
         2
  0
TEXT
  5
285
100
AcDbEntity
  8
PIN_NUMBERS_TOP
100
AcDbText
 10
46.946204
 20
-37.662504
 30
0.0
 40
0.508
  1
204
  7
COURIER_NEW
 72
         1
 11
47.6
 21
-37.44
 31
0.0
100
AcDbText
 73
         2
  0
TEXT
  5
286
100
AcDbEntity
  8
PIN_NUMBERS_TOP
100
AcDbText
 10
-2.153796
 20
4.088496
 30
0.0
 40
0.508
  1
205
  7
COURIER_NEW
 72
         1
 11
-1.5
 21
4.311
 31
0.0
100
AcDbText
 73
         2
  0
TEXT
  5
287
100
AcDbEntity
  8
PIN_NUMBERS_TOP
100
AcDbText
 10
48.422204
 20
-42.394504
 30
0.0
 40
0.508
  1
206
  7
COURIER_NEW
 72
         1
 11
49.076
 21
-42.172
 31
0.0
100
AcDbText
 73
         2
  0
TEXT
  5
288
100
AcDbEntity
  8
PIN_NUMBERS_TOP
100
AcDbText
 10
48.426204
 20
4.087496
 30
0.0
 40
0.508
  1
207
  7
COURIER_NEW
 72
         1
 11
49.08
 21
4.31
 31
0.0
100
AcDbText
 73
         2
  0
TEXT
  5
289
100
AcDbEntity
  8
PIN_NUMBERS_TOP
100
AcDbText
 10
-2.153796
 20
-42.392504
 30
0.0
 40
0.508
  1
208
  7
COURIER_NEW
 72
         1
 11
-1.5
 21
-42.17
 31
0.0
100
AcDbText
 73
         2
  0
LWPOLYLINE
  5
28A
100
AcDbEntity
  8
PLACEMENT_OUTLINES_TOP
100
AcDbPolyline
 90
        4
 70
         1
 43
0.2
 38
4.3
 10
-4.2
 20
-39.5
 10
-4.2
 20
2.0
 10
4.0
 20
2.0
 10
4.0
 20
-39.5
  0
LWPOLYLINE
  5
28B
100
AcDbEntity
  8
PLACEMENT_OUTLINES_TOP
100
AcDbPolyline
 90
        4
 70
         1
 43
0.2
 38
4.3
 10
43.55
 20
-39.5
 10
43.55
 20
2.0
 10
51.75
 20
2.0
 10
51.75
 20
-39.5
  0
LWPOLYLINE
  5
28C
100
AcDbEntity
  8
SILKSCREEN_OUTLINES_TOP
100
AcDbPolyline
 90
        4
 70
         1
 43
0.2
 10
43.815
 20
-39.75
 10
43.815
 20
1.905
 10
51.415
 20
1.905
 10
51.415
 20
-39.75
  0
LWPOLYLINE
  5
28D
100
AcDbEntity
  8
SILKSCREEN_OUTLINES_TOP
100
AcDbPolyline
 90
        2
 70
         0
 43
0.2
 10
2.0
 20
1.75
 10
3.75
 20
-0.25
  0
LWPOLYLINE
  5
28E
100
AcDbEntity
  8
SILKSCREEN_OUTLINES_TOP
100
AcDbPolyline
 90
        2
 70
         0
 43
0.2
 10
49.5
 20
1.75
 10
51.25
 20
-0.25
  0
LWPOLYLINE
  5
28F
100
AcDbEntity
  8
SILKSCREEN_OUTLINES_TOP
100
AcDbPolyline
 90
        4
 70
         1
 43
0.2
 10
-4.2
 20
-45.4
 10
-4.2
 20
7.4
 10
51.8
 20
7.4
 10
51.8
 20
-45.4
  0
LWPOLYLINE
  5
290
100
AcDbEntity
  8
SILKSCREEN_OUTLINES_TOP
100
AcDbPolyline
 90
        4
 70
         1
 43
0.2
 10
-3.81
 20
-39.75
 10
-3.81
 20
1.905
 10
3.79
 20
1.905
 10
3.79
 20
-39.75
  0
TEXT
  5
292
100
AcDbEntity
  8
SILKSCREEN_REF_DES_TOP
100
AcDbText
 10
15.6605
 20
9.17
 30
0.0
 40
1.5
  1
Ref Des
  7
VERIBEST_GERBER_0
 72
         2
 11
25.22
 21
9.17
 31
0.0
100
AcDbText
 73
         1
  0
LWPOLYLINE
  5
293
100
AcDbEntity
  8
SOLDERMASK_PADS_BTM
100
AcDbPolyline
 90
        2
 70
         1
 43
2.25
 10
-2.625
 20
4.311
 42
-1.0
 10
-0.375
 20
4.311
 42
-1.0
  0
LWPOLYLINE
  5
294
100
AcDbEntity
  8
SOLDERMASK_PADS_BTM
100
AcDbPolyline
 90
        2
 70
         1
 43
2.25
 10
47.951
 20
-42.172
 42
-1.0
 10
50.201
 20
-42.172
 42
-1.0
  0
LWPOLYLINE
  5
295
100
AcDbEntity
  8
SOLDERMASK_PADS_BTM
100
AcDbPolyline
 90
        2
 70
         1
 43
2.25
 10
47.955
 20
4.31
 42
-1.0
 10
50.205
 20
4.31
 42
-1.0
  0
LWPOLYLINE
  5
296
100
AcDbEntity
  8
SOLDERMASK_PADS_BTM
100
AcDbPolyline
 90
        2
 70
         1
 43
2.25
 10
-2.625
 20
-42.17
 42
-1.0
 10
-0.375
 20
-42.17
 42
-1.0
  0
SOLID
  5
297
100
AcDbEntity
  8
SOLDERMASK_PADS_TOP
100
AcDbTrace
 10
-3.35
 20
-3.4425
 30
0.0
 11
-0.85
 21
-3.4425
 31
0.0
 12
-3.35
 22
-3.0925
 32
0.0
 13
-0.85
 23
-3.0925
 33
0.0
  0
SOLID
  5
298
100
AcDbEntity
  8
SOLDERMASK_PADS_TOP
100
AcDbTrace
 10
-3.35
 20
-4.0775
 30
0.0
 11
-0.85
 21
-4.0775
 31
0.0
 12
-3.35
 22
-3.7275
 32
0.0
 13
-0.85
 23
-3.7275
 33
0.0
  0
SOLID
  5
299
100
AcDbEntity
  8
SOLDERMASK_PADS_TOP
100
AcDbTrace
 10
-3.35
 20
-4.7125
 30
0.0
 11
-0.85
 21
-4.7125
 31
0.0
 12
-3.35
 22
-4.3625
 32
0.0
 13
-0.85
 23
-4.3625
 33
0.0
  0
SOLID
  5
29A
100
AcDbEntity
  8
SOLDERMASK_PADS_TOP
100
AcDbTrace
 10
-3.35
 20
-5.3475
 30
0.0
 11
-0.85
 21
-5.3475
 31
0.0
 12
-3.35
 22
-4.9975
 32
0.0
 13
-0.85
 23
-4.9975
 33
0.0
  0
SOLID
  5
29B
100
AcDbEntity
  8
SOLDERMASK_PADS_TOP
100
AcDbTrace
 10
-3.35
 20
-5.9825
 30
0.0
 11
-0.85
 21
-5.9825
 31
0.0
 12
-3.35
 22
-5.6325
 32
0.0
 13
-0.85
 23
-5.6325
 33
0.0
  0
SOLID
  5
29C
100
AcDbEntity
  8
SOLDERMASK_PADS_TOP
100
AcDbTrace
 10
-3.35
 20
-6.6175
 30
0.0
 11
-0.85
 21
-6.6175
 31
0.0
 12
-3.35
 22
-6.2675
 32
0.0
 13
-0.85
 23
-6.2675
 33
0.0
  0
SOLID
  5
29D
100
AcDbEntity
  8
SOLDERMASK_PADS_TOP
100
AcDbTrace
 10
-3.35
 20
-7.2525
 30
0.0
 11
-0.85
 21
-7.2525
 31
0.0
 12
-3.35
 22
-6.9025
 32
0.0
 13
-0.85
 23
-6.9025
 33
0.0
  0
SOLID
  5
29E
100
AcDbEntity
  8
SOLDERMASK_PADS_TOP
100
AcDbTrace
 10
-3.35
 20
-7.8875
 30
0.0
 11
-0.85
 21
-7.8875
 31
0.0
 12
-3.35
 22
-7.5375
 32
0.0
 13
-0.85
 23
-7.5375
 33
0.0
  0
SOLID
  5
29F
100
AcDbEntity
  8
SOLDERMASK_PADS_TOP
100
AcDbTrace
 10
-3.35
 20
-8.5225
 30
0.0
 11
-0.85
 21
-8.5225
 31
0.0
 12
-3.35
 22
-8.1725
 32
0.0
 13
-0.85
 23
-8.1725
 33
0.0
  0
SOLID
  5
2A0
100
AcDbEntity
  8
SOLDERMASK_PADS_TOP
100
AcDbTrace
 10
-3.35
 20
-9.1575
 30
0.0
 11
-0.85
 21
-9.1575
 31
0.0
 12
-3.35
 22
-8.8075
 32
0.0
 13
-0.85
 23
-8.8075
 33
0.0
  0
SOLID
  5
2A1
100
AcDbEntity
  8
SOLDERMASK_PADS_TOP
100
AcDbTrace
 10
-3.35
 20
-9.7925
 30
0.0
 11
-0.85
 21
-9.7925
 31
0.0
 12
-3.35
 22
-9.4425
 32
0.0
 13
-0.85
 23
-9.4425
 33
0.0
  0
SOLID
  5
2A2
100
AcDbEntity
  8
SOLDERMASK_PADS_TOP
100
AcDbTrace
 10
-3.35
 20
-10.4275
 30
0.0
 11
-0.85
 21
-10.4275
 31
0.0
 12
-3.35
 22
-10.0775
 32
0.0
 13
-0.85
 23
-10.0775
 33
0.0
  0
SOLID
  5
2A3
100
AcDbEntity
  8
SOLDERMASK_PADS_TOP
100
AcDbTrace
 10
-3.35
 20
-11.0625
 30
0.0
 11
-0.85
 21
-11.0625
 31
0.0
 12
-3.35
 22
-10.7125
 32
0.0
 13
-0.85
 23
-10.7125
 33
0.0
  0
SOLID
  5
2A4
100
AcDbEntity
  8
SOLDERMASK_PADS_TOP
100
AcDbTrace
 10
-3.35
 20
-11.6975
 30
0.0
 11
-0.85
 21
-11.6975
 31
0.0
 12
-3.35
 22
-11.3475
 32
0.0
 13
-0.85
 23
-11.3475
 33
0.0
  0
SOLID
  5
2A5
100
AcDbEntity
  8
SOLDERMASK_PADS_TOP
100
AcDbTrace
 10
-3.35
 20
-12.3325
 30
0.0
 11
-0.85
 21
-12.3325
 31
0.0
 12
-3.35
 22
-11.9825
 32
0.0
 13
-0.85
 23
-11.9825
 33
0.0
  0
SOLID
  5
2A6
100
AcDbEntity
  8
SOLDERMASK_PADS_TOP
100
AcDbTrace
 10
-3.35
 20
-12.9675
 30
0.0
 11
-0.85
 21
-12.9675
 31
0.0
 12
-3.35
 22
-12.6175
 32
0.0
 13
-0.85
 23
-12.6175
 33
0.0
  0
SOLID
  5
2A7
100
AcDbEntity
  8
SOLDERMASK_PADS_TOP
100
AcDbTrace
 10
-3.35
 20
-13.6025
 30
0.0
 11
-0.85
 21
-13.6025
 31
0.0
 12
-3.35
 22
-13.2525
 32
0.0
 13
-0.85
 23
-13.2525
 33
0.0
  0
SOLID
  5
2A8
100
AcDbEntity
  8
SOLDERMASK_PADS_TOP
100
AcDbTrace
 10
-3.35
 20
-14.2375
 30
0.0
 11
-0.85
 21
-14.2375
 31
0.0
 12
-3.35
 22
-13.8875
 32
0.0
 13
-0.85
 23
-13.8875
 33
0.0
  0
SOLID
  5
2A9
100
AcDbEntity
  8
SOLDERMASK_PADS_TOP
100
AcDbTrace
 10
-3.35
 20
-14.8725
 30
0.0
 11
-0.85
 21
-14.8725
 31
0.0
 12
-3.35
 22
-14.5225
 32
0.0
 13
-0.85
 23
-14.5225
 33
0.0
  0
SOLID
  5
2AA
100
AcDbEntity
  8
SOLDERMASK_PADS_TOP
100
AcDbTrace
 10
-3.35
 20
-15.5075
 30
0.0
 11
-0.85
 21
-15.5075
 31
0.0
 12
-3.35
 22
-15.1575
 32
0.0
 13
-0.85
 23
-15.1575
 33
0.0
  0
SOLID
  5
2AB
100
AcDbEntity
  8
SOLDERMASK_PADS_TOP
100
AcDbTrace
 10
-3.35
 20
-16.1425
 30
0.0
 11
-0.85
 21
-16.1425
 31
0.0
 12
-3.35
 22
-15.7925
 32
0.0
 13
-0.85
 23
-15.7925
 33
0.0
  0
SOLID
  5
2AC
100
AcDbEntity
  8
SOLDERMASK_PADS_TOP
100
AcDbTrace
 10
-3.35
 20
-16.7775
 30
0.0
 11
-0.85
 21
-16.7775
 31
0.0
 12
-3.35
 22
-16.4275
 32
0.0
 13
-0.85
 23
-16.4275
 33
0.0
  0
SOLID
  5
2AD
100
AcDbEntity
  8
SOLDERMASK_PADS_TOP
100
AcDbTrace
 10
-3.35
 20
-17.4125
 30
0.0
 11
-0.85
 21
-17.4125
 31
0.0
 12
-3.35
 22
-17.0625
 32
0.0
 13
-0.85
 23
-17.0625
 33
0.0
  0
SOLID
  5
2AE
100
AcDbEntity
  8
SOLDERMASK_PADS_TOP
100
AcDbTrace
 10
-3.35
 20
-18.0475
 30
0.0
 11
-0.85
 21
-18.0475
 31
0.0
 12
-3.35
 22
-17.6975
 32
0.0
 13
-0.85
 23
-17.6975
 33
0.0
  0
SOLID
  5
2AF
100
AcDbEntity
  8
SOLDERMASK_PADS_TOP
100
AcDbTrace
 10
-3.35
 20
-18.6825
 30
0.0
 11
-0.85
 21
-18.6825
 31
0.0
 12
-3.35
 22
-18.3325
 32
0.0
 13
-0.85
 23
-18.3325
 33
0.0
  0
SOLID
  5
2B0
100
AcDbEntity
  8
SOLDERMASK_PADS_TOP
100
AcDbTrace
 10
-3.35
 20
-19.3175
 30
0.0
 11
-0.85
 21
-19.3175
 31
0.0
 12
-3.35
 22
-18.9675
 32
0.0
 13
-0.85
 23
-18.9675
 33
0.0
  0
SOLID
  5
2B1
100
AcDbEntity
  8
SOLDERMASK_PADS_TOP
100
AcDbTrace
 10
-3.35
 20
-19.9525
 30
0.0
 11
-0.85
 21
-19.9525
 31
0.0
 12
-3.35
 22
-19.6025
 32
0.0
 13
-0.85
 23
-19.6025
 33
0.0
  0
SOLID
  5
2B2
100
AcDbEntity
  8
SOLDERMASK_PADS_TOP
100
AcDbTrace
 10
-3.35
 20
-20.5875
 30
0.0
 11
-0.85
 21
-20.5875
 31
0.0
 12
-3.35
 22
-20.2375
 32
0.0
 13
-0.85
 23
-20.2375
 33
0.0
  0
SOLID
  5
2B3
100
AcDbEntity
  8
SOLDERMASK_PADS_TOP
100
AcDbTrace
 10
-3.35
 20
-21.2225
 30
0.0
 11
-0.85
 21
-21.2225
 31
0.0
 12
-3.35
 22
-20.8725
 32
0.0
 13
-0.85
 23
-20.8725
 33
0.0
  0
SOLID
  5
2B4
100
AcDbEntity
  8
SOLDERMASK_PADS_TOP
100
AcDbTrace
 10
-3.35
 20
-21.8575
 30
0.0
 11
-0.85
 21
-21.8575
 31
0.0
 12
-3.35
 22
-21.5075
 32
0.0
 13
-0.85
 23
-21.5075
 33
0.0
  0
SOLID
  5
2B5
100
AcDbEntity
  8
SOLDERMASK_PADS_TOP
100
AcDbTrace
 10
-3.35
 20
-22.4925
 30
0.0
 11
-0.85
 21
-22.4925
 31
0.0
 12
-3.35
 22
-22.1425
 32
0.0
 13
-0.85
 23
-22.1425
 33
0.0
  0
SOLID
  5
2B6
100
AcDbEntity
  8
SOLDERMASK_PADS_TOP
100
AcDbTrace
 10
-3.35
 20
-23.1275
 30
0.0
 11
-0.85
 21
-23.1275
 31
0.0
 12
-3.35
 22
-22.7775
 32
0.0
 13
-0.85
 23
-22.7775
 33
0.0
  0
SOLID
  5
2B7
100
AcDbEntity
  8
SOLDERMASK_PADS_TOP
100
AcDbTrace
 10
-3.35
 20
-23.7625
 30
0.0
 11
-0.85
 21
-23.7625
 31
0.0
 12
-3.35
 22
-23.4125
 32
0.0
 13
-0.85
 23
-23.4125
 33
0.0
  0
SOLID
  5
2B8
100
AcDbEntity
  8
SOLDERMASK_PADS_TOP
100
AcDbTrace
 10
-3.35
 20
-24.3975
 30
0.0
 11
-0.85
 21
-24.3975
 31
0.0
 12
-3.35
 22
-24.0475
 32
0.0
 13
-0.85
 23
-24.0475
 33
0.0
  0
SOLID
  5
2B9
100
AcDbEntity
  8
SOLDERMASK_PADS_TOP
100
AcDbTrace
 10
-3.35
 20
-25.0325
 30
0.0
 11
-0.85
 21
-25.0325
 31
0.0
 12
-3.35
 22
-24.6825
 32
0.0
 13
-0.85
 23
-24.6825
 33
0.0
  0
SOLID
  5
2BA
100
AcDbEntity
  8
SOLDERMASK_PADS_TOP
100
AcDbTrace
 10
-3.35
 20
-25.6675
 30
0.0
 11
-0.85
 21
-25.6675
 31
0.0
 12
-3.35
 22
-25.3175
 32
0.0
 13
-0.85
 23
-25.3175
 33
0.0
  0
SOLID
  5
2BB
100
AcDbEntity
  8
SOLDERMASK_PADS_TOP
100
AcDbTrace
 10
-3.35
 20
-26.3025
 30
0.0
 11
-0.85
 21
-26.3025
 31
0.0
 12
-3.35
 22
-25.9525
 32
0.0
 13
-0.85
 23
-25.9525
 33
0.0
  0
SOLID
  5
2BC
100
AcDbEntity
  8
SOLDERMASK_PADS_TOP
100
AcDbTrace
 10
-3.35
 20
-26.9375
 30
0.0
 11
-0.85
 21
-26.9375
 31
0.0
 12
-3.35
 22
-26.5875
 32
0.0
 13
-0.85
 23
-26.5875
 33
0.0
  0
SOLID
  5
2BD
100
AcDbEntity
  8
SOLDERMASK_PADS_TOP
100
AcDbTrace
 10
-3.35
 20
-27.5725
 30
0.0
 11
-0.85
 21
-27.5725
 31
0.0
 12
-3.35
 22
-27.2225
 32
0.0
 13
-0.85
 23
-27.2225
 33
0.0
  0
SOLID
  5
2BE
100
AcDbEntity
  8
SOLDERMASK_PADS_TOP
100
AcDbTrace
 10
-3.35
 20
-28.2075
 30
0.0
 11
-0.85
 21
-28.2075
 31
0.0
 12
-3.35
 22
-27.8575
 32
0.0
 13
-0.85
 23
-27.8575
 33
0.0
  0
SOLID
  5
2BF
100
AcDbEntity
  8
SOLDERMASK_PADS_TOP
100
AcDbTrace
 10
-3.35
 20
-28.8425
 30
0.0
 11
-0.85
 21
-28.8425
 31
0.0
 12
-3.35
 22
-28.4925
 32
0.0
 13
-0.85
 23
-28.4925
 33
0.0
  0
SOLID
  5
2C0
100
AcDbEntity
  8
SOLDERMASK_PADS_TOP
100
AcDbTrace
 10
-3.35
 20
-29.4775
 30
0.0
 11
-0.85
 21
-29.4775
 31
0.0
 12
-3.35
 22
-29.1275
 32
0.0
 13
-0.85
 23
-29.1275
 33
0.0
  0
SOLID
  5
2C1
100
AcDbEntity
  8
SOLDERMASK_PADS_TOP
100
AcDbTrace
 10
-3.35
 20
-30.1125
 30
0.0
 11
-0.85
 21
-30.1125
 31
0.0
 12
-3.35
 22
-29.7625
 32
0.0
 13
-0.85
 23
-29.7625
 33
0.0
  0
SOLID
  5
2C2
100
AcDbEntity
  8
SOLDERMASK_PADS_TOP
100
AcDbTrace
 10
-3.35
 20
-30.7475
 30
0.0
 11
-0.85
 21
-30.7475
 31
0.0
 12
-3.35
 22
-30.3975
 32
0.0
 13
-0.85
 23
-30.3975
 33
0.0
  0
SOLID
  5
2C3
100
AcDbEntity
  8
SOLDERMASK_PADS_TOP
100
AcDbTrace
 10
-3.35
 20
-31.3825
 30
0.0
 11
-0.85
 21
-31.3825
 31
0.0
 12
-3.35
 22
-31.0325
 32
0.0
 13
-0.85
 23
-31.0325
 33
0.0
  0
SOLID
  5
2C4
100
AcDbEntity
  8
SOLDERMASK_PADS_TOP
100
AcDbTrace
 10
-3.35
 20
-32.0175
 30
0.0
 11
-0.85
 21
-32.0175
 31
0.0
 12
-3.35
 22
-31.6675
 32
0.0
 13
-0.85
 23
-31.6675
 33
0.0
  0
SOLID
  5
2C5
100
AcDbEntity
  8
SOLDERMASK_PADS_TOP
100
AcDbTrace
 10
-3.35
 20
-32.6525
 30
0.0
 11
-0.85
 21
-32.6525
 31
0.0
 12
-3.35
 22
-32.3025
 32
0.0
 13
-0.85
 23
-32.3025
 33
0.0
  0
SOLID
  5
2C6
100
AcDbEntity
  8
SOLDERMASK_PADS_TOP
100
AcDbTrace
 10
-3.35
 20
-33.2875
 30
0.0
 11
-0.85
 21
-33.2875
 31
0.0
 12
-3.35
 22
-32.9375
 32
0.0
 13
-0.85
 23
-32.9375
 33
0.0
  0
SOLID
  5
2C7
100
AcDbEntity
  8
SOLDERMASK_PADS_TOP
100
AcDbTrace
 10
-3.35
 20
-33.9225
 30
0.0
 11
-0.85
 21
-33.9225
 31
0.0
 12
-3.35
 22
-33.5725
 32
0.0
 13
-0.85
 23
-33.5725
 33
0.0
  0
SOLID
  5
2C8
100
AcDbEntity
  8
SOLDERMASK_PADS_TOP
100
AcDbTrace
 10
-3.35
 20
-34.5575
 30
0.0
 11
-0.85
 21
-34.5575
 31
0.0
 12
-3.35
 22
-34.2075
 32
0.0
 13
-0.85
 23
-34.2075
 33
0.0
  0
SOLID
  5
2C9
100
AcDbEntity
  8
SOLDERMASK_PADS_TOP
100
AcDbTrace
 10
0.85
 20
-3.4425
 30
0.0
 11
3.35
 21
-3.4425
 31
0.0
 12
0.85
 22
-3.0925
 32
0.0
 13
3.35
 23
-3.0925
 33
0.0
  0
SOLID
  5
2CA
100
AcDbEntity
  8
SOLDERMASK_PADS_TOP
100
AcDbTrace
 10
0.85
 20
-4.0775
 30
0.0
 11
3.35
 21
-4.0775
 31
0.0
 12
0.85
 22
-3.7275
 32
0.0
 13
3.35
 23
-3.7275
 33
0.0
  0
SOLID
  5
2CB
100
AcDbEntity
  8
SOLDERMASK_PADS_TOP
100
AcDbTrace
 10
0.85
 20
-4.7125
 30
0.0
 11
3.35
 21
-4.7125
 31
0.0
 12
0.85
 22
-4.3625
 32
0.0
 13
3.35
 23
-4.3625
 33
0.0
  0
SOLID
  5
2CC
100
AcDbEntity
  8
SOLDERMASK_PADS_TOP
100
AcDbTrace
 10
0.85
 20
-5.3475
 30
0.0
 11
3.35
 21
-5.3475
 31
0.0
 12
0.85
 22
-4.9975
 32
0.0
 13
3.35
 23
-4.9975
 33
0.0
  0
SOLID
  5
2CD
100
AcDbEntity
  8
SOLDERMASK_PADS_TOP
100
AcDbTrace
 10
0.85
 20
-5.9825
 30
0.0
 11
3.35
 21
-5.9825
 31
0.0
 12
0.85
 22
-5.6325
 32
0.0
 13
3.35
 23
-5.6325
 33
0.0
  0
SOLID
  5
2CE
100
AcDbEntity
  8
SOLDERMASK_PADS_TOP
100
AcDbTrace
 10
0.85
 20
-6.6175
 30
0.0
 11
3.35
 21
-6.6175
 31
0.0
 12
0.85
 22
-6.2675
 32
0.0
 13
3.35
 23
-6.2675
 33
0.0
  0
SOLID
  5
2CF
100
AcDbEntity
  8
SOLDERMASK_PADS_TOP
100
AcDbTrace
 10
0.85
 20
-7.2525
 30
0.0
 11
3.35
 21
-7.2525
 31
0.0
 12
0.85
 22
-6.9025
 32
0.0
 13
3.35
 23
-6.9025
 33
0.0
  0
SOLID
  5
2D0
100
AcDbEntity
  8
SOLDERMASK_PADS_TOP
100
AcDbTrace
 10
0.85
 20
-7.8875
 30
0.0
 11
3.35
 21
-7.8875
 31
0.0
 12
0.85
 22
-7.5375
 32
0.0
 13
3.35
 23
-7.5375
 33
0.0
  0
SOLID
  5
2D1
100
AcDbEntity
  8
SOLDERMASK_PADS_TOP
100
AcDbTrace
 10
0.85
 20
-8.5225
 30
0.0
 11
3.35
 21
-8.5225
 31
0.0
 12
0.85
 22
-8.1725
 32
0.0
 13
3.35
 23
-8.1725
 33
0.0
  0
SOLID
  5
2D2
100
AcDbEntity
  8
SOLDERMASK_PADS_TOP
100
AcDbTrace
 10
0.85
 20
-9.1575
 30
0.0
 11
3.35
 21
-9.1575
 31
0.0
 12
0.85
 22
-8.8075
 32
0.0
 13
3.35
 23
-8.8075
 33
0.0
  0
SOLID
  5
2D3
100
AcDbEntity
  8
SOLDERMASK_PADS_TOP
100
AcDbTrace
 10
0.85
 20
-9.7925
 30
0.0
 11
3.35
 21
-9.7925
 31
0.0
 12
0.85
 22
-9.4425
 32
0.0
 13
3.35
 23
-9.4425
 33
0.0
  0
SOLID
  5
2D4
100
AcDbEntity
  8
SOLDERMASK_PADS_TOP
100
AcDbTrace
 10
0.85
 20
-10.4275
 30
0.0
 11
3.35
 21
-10.4275
 31
0.0
 12
0.85
 22
-10.0775
 32
0.0
 13
3.35
 23
-10.0775
 33
0.0
  0
SOLID
  5
2D5
100
AcDbEntity
  8
SOLDERMASK_PADS_TOP
100
AcDbTrace
 10
0.85
 20
-11.0625
 30
0.0
 11
3.35
 21
-11.0625
 31
0.0
 12
0.85
 22
-10.7125
 32
0.0
 13
3.35
 23
-10.7125
 33
0.0
  0
SOLID
  5
2D6
100
AcDbEntity
  8
SOLDERMASK_PADS_TOP
100
AcDbTrace
 10
0.85
 20
-11.6975
 30
0.0
 11
3.35
 21
-11.6975
 31
0.0
 12
0.85
 22
-11.3475
 32
0.0
 13
3.35
 23
-11.3475
 33
0.0
  0
SOLID
  5
2D7
100
AcDbEntity
  8
SOLDERMASK_PADS_TOP
100
AcDbTrace
 10
0.85
 20
-12.3325
 30
0.0
 11
3.35
 21
-12.3325
 31
0.0
 12
0.85
 22
-11.9825
 32
0.0
 13
3.35
 23
-11.9825
 33
0.0
  0
SOLID
  5
2D8
100
AcDbEntity
  8
SOLDERMASK_PADS_TOP
100
AcDbTrace
 10
0.85
 20
-12.9675
 30
0.0
 11
3.35
 21
-12.9675
 31
0.0
 12
0.85
 22
-12.6175
 32
0.0
 13
3.35
 23
-12.6175
 33
0.0
  0
SOLID
  5
2D9
100
AcDbEntity
  8
SOLDERMASK_PADS_TOP
100
AcDbTrace
 10
0.85
 20
-13.6025
 30
0.0
 11
3.35
 21
-13.6025
 31
0.0
 12
0.85
 22
-13.2525
 32
0.0
 13
3.35
 23
-13.2525
 33
0.0
  0
SOLID
  5
2DA
100
AcDbEntity
  8
SOLDERMASK_PADS_TOP
100
AcDbTrace
 10
0.85
 20
-14.2375
 30
0.0
 11
3.35
 21
-14.2375
 31
0.0
 12
0.85
 22
-13.8875
 32
0.0
 13
3.35
 23
-13.8875
 33
0.0
  0
SOLID
  5
2DB
100
AcDbEntity
  8
SOLDERMASK_PADS_TOP
100
AcDbTrace
 10
0.85
 20
-14.8725
 30
0.0
 11
3.35
 21
-14.8725
 31
0.0
 12
0.85
 22
-14.5225
 32
0.0
 13
3.35
 23
-14.5225
 33
0.0
  0
SOLID
  5
2DC
100
AcDbEntity
  8
SOLDERMASK_PADS_TOP
100
AcDbTrace
 10
0.85
 20
-15.5075
 30
0.0
 11
3.35
 21
-15.5075
 31
0.0
 12
0.85
 22
-15.1575
 32
0.0
 13
3.35
 23
-15.1575
 33
0.0
  0
SOLID
  5
2DD
100
AcDbEntity
  8
SOLDERMASK_PADS_TOP
100
AcDbTrace
 10
0.85
 20
-16.1425
 30
0.0
 11
3.35
 21
-16.1425
 31
0.0
 12
0.85
 22
-15.7925
 32
0.0
 13
3.35
 23
-15.7925
 33
0.0
  0
SOLID
  5
2DE
100
AcDbEntity
  8
SOLDERMASK_PADS_TOP
100
AcDbTrace
 10
0.85
 20
-16.7775
 30
0.0
 11
3.35
 21
-16.7775
 31
0.0
 12
0.85
 22
-16.4275
 32
0.0
 13
3.35
 23
-16.4275
 33
0.0
  0
SOLID
  5
2DF
100
AcDbEntity
  8
SOLDERMASK_PADS_TOP
100
AcDbTrace
 10
0.85
 20
-17.4125
 30
0.0
 11
3.35
 21
-17.4125
 31
0.0
 12
0.85
 22
-17.0625
 32
0.0
 13
3.35
 23
-17.0625
 33
0.0
  0
SOLID
  5
2E0
100
AcDbEntity
  8
SOLDERMASK_PADS_TOP
100
AcDbTrace
 10
0.85
 20
-18.0475
 30
0.0
 11
3.35
 21
-18.0475
 31
0.0
 12
0.85
 22
-17.6975
 32
0.0
 13
3.35
 23
-17.6975
 33
0.0
  0
SOLID
  5
2E1
100
AcDbEntity
  8
SOLDERMASK_PADS_TOP
100
AcDbTrace
 10
0.85
 20
-18.6825
 30
0.0
 11
3.35
 21
-18.6825
 31
0.0
 12
0.85
 22
-18.3325
 32
0.0
 13
3.35
 23
-18.3325
 33
0.0
  0
SOLID
  5
2E2
100
AcDbEntity
  8
SOLDERMASK_PADS_TOP
100
AcDbTrace
 10
0.85
 20
-19.3175
 30
0.0
 11
3.35
 21
-19.3175
 31
0.0
 12
0.85
 22
-18.9675
 32
0.0
 13
3.35
 23
-18.9675
 33
0.0
  0
SOLID
  5
2E3
100
AcDbEntity
  8
SOLDERMASK_PADS_TOP
100
AcDbTrace
 10
0.85
 20
-19.9525
 30
0.0
 11
3.35
 21
-19.9525
 31
0.0
 12
0.85
 22
-19.6025
 32
0.0
 13
3.35
 23
-19.6025
 33
0.0
  0
SOLID
  5
2E4
100
AcDbEntity
  8
SOLDERMASK_PADS_TOP
100
AcDbTrace
 10
0.85
 20
-20.5875
 30
0.0
 11
3.35
 21
-20.5875
 31
0.0
 12
0.85
 22
-20.2375
 32
0.0
 13
3.35
 23
-20.2375
 33
0.0
  0
SOLID
  5
2E5
100
AcDbEntity
  8
SOLDERMASK_PADS_TOP
100
AcDbTrace
 10
0.85
 20
-21.2225
 30
0.0
 11
3.35
 21
-21.2225
 31
0.0
 12
0.85
 22
-20.8725
 32
0.0
 13
3.35
 23
-20.8725
 33
0.0
  0
SOLID
  5
2E6
100
AcDbEntity
  8
SOLDERMASK_PADS_TOP
100
AcDbTrace
 10
0.85
 20
-21.8575
 30
0.0
 11
3.35
 21
-21.8575
 31
0.0
 12
0.85
 22
-21.5075
 32
0.0
 13
3.35
 23
-21.5075
 33
0.0
  0
SOLID
  5
2E7
100
AcDbEntity
  8
SOLDERMASK_PADS_TOP
100
AcDbTrace
 10
0.85
 20
-22.4925
 30
0.0
 11
3.35
 21
-22.4925
 31
0.0
 12
0.85
 22
-22.1425
 32
0.0
 13
3.35
 23
-22.1425
 33
0.0
  0
SOLID
  5
2E8
100
AcDbEntity
  8
SOLDERMASK_PADS_TOP
100
AcDbTrace
 10
0.85
 20
-23.1275
 30
0.0
 11
3.35
 21
-23.1275
 31
0.0
 12
0.85
 22
-22.7775
 32
0.0
 13
3.35
 23
-22.7775
 33
0.0
  0
SOLID
  5
2E9
100
AcDbEntity
  8
SOLDERMASK_PADS_TOP
100
AcDbTrace
 10
0.85
 20
-23.7625
 30
0.0
 11
3.35
 21
-23.7625
 31
0.0
 12
0.85
 22
-23.4125
 32
0.0
 13
3.35
 23
-23.4125
 33
0.0
  0
SOLID
  5
2EA
100
AcDbEntity
  8
SOLDERMASK_PADS_TOP
100
AcDbTrace
 10
0.85
 20
-24.3975
 30
0.0
 11
3.35
 21
-24.3975
 31
0.0
 12
0.85
 22
-24.0475
 32
0.0
 13
3.35
 23
-24.0475
 33
0.0
  0
SOLID
  5
2EB
100
AcDbEntity
  8
SOLDERMASK_PADS_TOP
100
AcDbTrace
 10
0.85
 20
-25.0325
 30
0.0
 11
3.35
 21
-25.0325
 31
0.0
 12
0.85
 22
-24.6825
 32
0.0
 13
3.35
 23
-24.6825
 33
0.0
  0
SOLID
  5
2EC
100
AcDbEntity
  8
SOLDERMASK_PADS_TOP
100
AcDbTrace
 10
0.85
 20
-25.6675
 30
0.0
 11
3.35
 21
-25.6675
 31
0.0
 12
0.85
 22
-25.3175
 32
0.0
 13
3.35
 23
-25.3175
 33
0.0
  0
SOLID
  5
2ED
100
AcDbEntity
  8
SOLDERMASK_PADS_TOP
100
AcDbTrace
 10
0.85
 20
-26.3025
 30
0.0
 11
3.35
 21
-26.3025
 31
0.0
 12
0.85
 22
-25.9525
 32
0.0
 13
3.35
 23
-25.9525
 33
0.0
  0
SOLID
  5
2EE
100
AcDbEntity
  8
SOLDERMASK_PADS_TOP
100
AcDbTrace
 10
0.85
 20
-26.9375
 30
0.0
 11
3.35
 21
-26.9375
 31
0.0
 12
0.85
 22
-26.5875
 32
0.0
 13
3.35
 23
-26.5875
 33
0.0
  0
SOLID
  5
2EF
100
AcDbEntity
  8
SOLDERMASK_PADS_TOP
100
AcDbTrace
 10
0.85
 20
-27.5725
 30
0.0
 11
3.35
 21
-27.5725
 31
0.0
 12
0.85
 22
-27.2225
 32
0.0
 13
3.35
 23
-27.2225
 33
0.0
  0
SOLID
  5
2F0
100
AcDbEntity
  8
SOLDERMASK_PADS_TOP
100
AcDbTrace
 10
0.85
 20
-28.2075
 30
0.0
 11
3.35
 21
-28.2075
 31
0.0
 12
0.85
 22
-27.8575
 32
0.0
 13
3.35
 23
-27.8575
 33
0.0
  0
SOLID
  5
2F1
100
AcDbEntity
  8
SOLDERMASK_PADS_TOP
100
AcDbTrace
 10
0.85
 20
-28.8425
 30
0.0
 11
3.35
 21
-28.8425
 31
0.0
 12
0.85
 22
-28.4925
 32
0.0
 13
3.35
 23
-28.4925
 33
0.0
  0
SOLID
  5
2F2
100
AcDbEntity
  8
SOLDERMASK_PADS_TOP
100
AcDbTrace
 10
0.85
 20
-29.4775
 30
0.0
 11
3.35
 21
-29.4775
 31
0.0
 12
0.85
 22
-29.1275
 32
0.0
 13
3.35
 23
-29.1275
 33
0.0
  0
SOLID
  5
2F3
100
AcDbEntity
  8
SOLDERMASK_PADS_TOP
100
AcDbTrace
 10
0.85
 20
-30.1125
 30
0.0
 11
3.35
 21
-30.1125
 31
0.0
 12
0.85
 22
-29.7625
 32
0.0
 13
3.35
 23
-29.7625
 33
0.0
  0
SOLID
  5
2F4
100
AcDbEntity
  8
SOLDERMASK_PADS_TOP
100
AcDbTrace
 10
0.85
 20
-30.7475
 30
0.0
 11
3.35
 21
-30.7475
 31
0.0
 12
0.85
 22
-30.3975
 32
0.0
 13
3.35
 23
-30.3975
 33
0.0
  0
SOLID
  5
2F5
100
AcDbEntity
  8
SOLDERMASK_PADS_TOP
100
AcDbTrace
 10
0.85
 20
-31.3825
 30
0.0
 11
3.35
 21
-31.3825
 31
0.0
 12
0.85
 22
-31.0325
 32
0.0
 13
3.35
 23
-31.0325
 33
0.0
  0
SOLID
  5
2F6
100
AcDbEntity
  8
SOLDERMASK_PADS_TOP
100
AcDbTrace
 10
0.85
 20
-32.0175
 30
0.0
 11
3.35
 21
-32.0175
 31
0.0
 12
0.85
 22
-31.6675
 32
0.0
 13
3.35
 23
-31.6675
 33
0.0
  0
SOLID
  5
2F7
100
AcDbEntity
  8
SOLDERMASK_PADS_TOP
100
AcDbTrace
 10
0.85
 20
-32.6525
 30
0.0
 11
3.35
 21
-32.6525
 31
0.0
 12
0.85
 22
-32.3025
 32
0.0
 13
3.35
 23
-32.3025
 33
0.0
  0
SOLID
  5
2F8
100
AcDbEntity
  8
SOLDERMASK_PADS_TOP
100
AcDbTrace
 10
0.85
 20
-33.2875
 30
0.0
 11
3.35
 21
-33.2875
 31
0.0
 12
0.85
 22
-32.9375
 32
0.0
 13
3.35
 23
-32.9375
 33
0.0
  0
SOLID
  5
2F9
100
AcDbEntity
  8
SOLDERMASK_PADS_TOP
100
AcDbTrace
 10
0.85
 20
-33.9225
 30
0.0
 11
3.35
 21
-33.9225
 31
0.0
 12
0.85
 22
-33.5725
 32
0.0
 13
3.35
 23
-33.5725
 33
0.0
  0
SOLID
  5
2FA
100
AcDbEntity
  8
SOLDERMASK_PADS_TOP
100
AcDbTrace
 10
0.85
 20
-34.5575
 30
0.0
 11
3.35
 21
-34.5575
 31
0.0
 12
0.85
 22
-34.2075
 32
0.0
 13
3.35
 23
-34.2075
 33
0.0
  0
SOLID
  5
2FB
100
AcDbEntity
  8
SOLDERMASK_PADS_TOP
100
AcDbTrace
 10
44.25
 20
-3.4425
 30
0.0
 11
46.75
 21
-3.4425
 31
0.0
 12
44.25
 22
-3.0925
 32
0.0
 13
46.75
 23
-3.0925
 33
0.0
  0
SOLID
  5
2FC
100
AcDbEntity
  8
SOLDERMASK_PADS_TOP
100
AcDbTrace
 10
44.25
 20
-4.0775
 30
0.0
 11
46.75
 21
-4.0775
 31
0.0
 12
44.25
 22
-3.7275
 32
0.0
 13
46.75
 23
-3.7275
 33
0.0
  0
SOLID
  5
2FD
100
AcDbEntity
  8
SOLDERMASK_PADS_TOP
100
AcDbTrace
 10
44.25
 20
-4.7125
 30
0.0
 11
46.75
 21
-4.7125
 31
0.0
 12
44.25
 22
-4.3625
 32
0.0
 13
46.75
 23
-4.3625
 33
0.0
  0
SOLID
  5
2FE
100
AcDbEntity
  8
SOLDERMASK_PADS_TOP
100
AcDbTrace
 10
44.25
 20
-5.3475
 30
0.0
 11
46.75
 21
-5.3475
 31
0.0
 12
44.25
 22
-4.9975
 32
0.0
 13
46.75
 23
-4.9975
 33
0.0
  0
SOLID
  5
2FF
100
AcDbEntity
  8
SOLDERMASK_PADS_TOP
100
AcDbTrace
 10
44.25
 20
-5.9825
 30
0.0
 11
46.75
 21
-5.9825
 31
0.0
 12
44.25
 22
-5.6325
 32
0.0
 13
46.75
 23
-5.6325
 33
0.0
  0
SOLID
  5
300
100
AcDbEntity
  8
SOLDERMASK_PADS_TOP
100
AcDbTrace
 10
44.25
 20
-6.6175
 30
0.0
 11
46.75
 21
-6.6175
 31
0.0
 12
44.25
 22
-6.2675
 32
0.0
 13
46.75
 23
-6.2675
 33
0.0
  0
SOLID
  5
301
100
AcDbEntity
  8
SOLDERMASK_PADS_TOP
100
AcDbTrace
 10
44.25
 20
-7.2525
 30
0.0
 11
46.75
 21
-7.2525
 31
0.0
 12
44.25
 22
-6.9025
 32
0.0
 13
46.75
 23
-6.9025
 33
0.0
  0
SOLID
  5
302
100
AcDbEntity
  8
SOLDERMASK_PADS_TOP
100
AcDbTrace
 10
44.25
 20
-7.8875
 30
0.0
 11
46.75
 21
-7.8875
 31
0.0
 12
44.25
 22
-7.5375
 32
0.0
 13
46.75
 23
-7.5375
 33
0.0
  0
SOLID
  5
303
100
AcDbEntity
  8
SOLDERMASK_PADS_TOP
100
AcDbTrace
 10
44.25
 20
-8.5225
 30
0.0
 11
46.75
 21
-8.5225
 31
0.0
 12
44.25
 22
-8.1725
 32
0.0
 13
46.75
 23
-8.1725
 33
0.0
  0
SOLID
  5
304
100
AcDbEntity
  8
SOLDERMASK_PADS_TOP
100
AcDbTrace
 10
44.25
 20
-9.1575
 30
0.0
 11
46.75
 21
-9.1575
 31
0.0
 12
44.25
 22
-8.8075
 32
0.0
 13
46.75
 23
-8.8075
 33
0.0
  0
SOLID
  5
305
100
AcDbEntity
  8
SOLDERMASK_PADS_TOP
100
AcDbTrace
 10
44.25
 20
-9.7925
 30
0.0
 11
46.75
 21
-9.7925
 31
0.0
 12
44.25
 22
-9.4425
 32
0.0
 13
46.75
 23
-9.4425
 33
0.0
  0
SOLID
  5
306
100
AcDbEntity
  8
SOLDERMASK_PADS_TOP
100
AcDbTrace
 10
44.25
 20
-10.4275
 30
0.0
 11
46.75
 21
-10.4275
 31
0.0
 12
44.25
 22
-10.0775
 32
0.0
 13
46.75
 23
-10.0775
 33
0.0
  0
SOLID
  5
307
100
AcDbEntity
  8
SOLDERMASK_PADS_TOP
100
AcDbTrace
 10
44.25
 20
-11.0625
 30
0.0
 11
46.75
 21
-11.0625
 31
0.0
 12
44.25
 22
-10.7125
 32
0.0
 13
46.75
 23
-10.7125
 33
0.0
  0
SOLID
  5
308
100
AcDbEntity
  8
SOLDERMASK_PADS_TOP
100
AcDbTrace
 10
44.25
 20
-11.6975
 30
0.0
 11
46.75
 21
-11.6975
 31
0.0
 12
44.25
 22
-11.3475
 32
0.0
 13
46.75
 23
-11.3475
 33
0.0
  0
SOLID
  5
309
100
AcDbEntity
  8
SOLDERMASK_PADS_TOP
100
AcDbTrace
 10
44.25
 20
-12.3325
 30
0.0
 11
46.75
 21
-12.3325
 31
0.0
 12
44.25
 22
-11.9825
 32
0.0
 13
46.75
 23
-11.9825
 33
0.0
  0
SOLID
  5
30A
100
AcDbEntity
  8
SOLDERMASK_PADS_TOP
100
AcDbTrace
 10
44.25
 20
-12.9675
 30
0.0
 11
46.75
 21
-12.9675
 31
0.0
 12
44.25
 22
-12.6175
 32
0.0
 13
46.75
 23
-12.6175
 33
0.0
  0
SOLID
  5
30B
100
AcDbEntity
  8
SOLDERMASK_PADS_TOP
100
AcDbTrace
 10
44.25
 20
-13.6025
 30
0.0
 11
46.75
 21
-13.6025
 31
0.0
 12
44.25
 22
-13.2525
 32
0.0
 13
46.75
 23
-13.2525
 33
0.0
  0
SOLID
  5
30C
100
AcDbEntity
  8
SOLDERMASK_PADS_TOP
100
AcDbTrace
 10
44.25
 20
-14.2375
 30
0.0
 11
46.75
 21
-14.2375
 31
0.0
 12
44.25
 22
-13.8875
 32
0.0
 13
46.75
 23
-13.8875
 33
0.0
  0
SOLID
  5
30D
100
AcDbEntity
  8
SOLDERMASK_PADS_TOP
100
AcDbTrace
 10
44.25
 20
-14.8725
 30
0.0
 11
46.75
 21
-14.8725
 31
0.0
 12
44.25
 22
-14.5225
 32
0.0
 13
46.75
 23
-14.5225
 33
0.0
  0
SOLID
  5
30E
100
AcDbEntity
  8
SOLDERMASK_PADS_TOP
100
AcDbTrace
 10
44.25
 20
-15.5075
 30
0.0
 11
46.75
 21
-15.5075
 31
0.0
 12
44.25
 22
-15.1575
 32
0.0
 13
46.75
 23
-15.1575
 33
0.0
  0
SOLID
  5
30F
100
AcDbEntity
  8
SOLDERMASK_PADS_TOP
100
AcDbTrace
 10
44.25
 20
-16.1425
 30
0.0
 11
46.75
 21
-16.1425
 31
0.0
 12
44.25
 22
-15.7925
 32
0.0
 13
46.75
 23
-15.7925
 33
0.0
  0
SOLID
  5
310
100
AcDbEntity
  8
SOLDERMASK_PADS_TOP
100
AcDbTrace
 10
44.25
 20
-16.7775
 30
0.0
 11
46.75
 21
-16.7775
 31
0.0
 12
44.25
 22
-16.4275
 32
0.0
 13
46.75
 23
-16.4275
 33
0.0
  0
SOLID
  5
311
100
AcDbEntity
  8
SOLDERMASK_PADS_TOP
100
AcDbTrace
 10
44.25
 20
-17.4125
 30
0.0
 11
46.75
 21
-17.4125
 31
0.0
 12
44.25
 22
-17.0625
 32
0.0
 13
46.75
 23
-17.0625
 33
0.0
  0
SOLID
  5
312
100
AcDbEntity
  8
SOLDERMASK_PADS_TOP
100
AcDbTrace
 10
44.25
 20
-18.0475
 30
0.0
 11
46.75
 21
-18.0475
 31
0.0
 12
44.25
 22
-17.6975
 32
0.0
 13
46.75
 23
-17.6975
 33
0.0
  0
SOLID
  5
313
100
AcDbEntity
  8
SOLDERMASK_PADS_TOP
100
AcDbTrace
 10
44.25
 20
-18.6825
 30
0.0
 11
46.75
 21
-18.6825
 31
0.0
 12
44.25
 22
-18.3325
 32
0.0
 13
46.75
 23
-18.3325
 33
0.0
  0
SOLID
  5
314
100
AcDbEntity
  8
SOLDERMASK_PADS_TOP
100
AcDbTrace
 10
44.25
 20
-19.3175
 30
0.0
 11
46.75
 21
-19.3175
 31
0.0
 12
44.25
 22
-18.9675
 32
0.0
 13
46.75
 23
-18.9675
 33
0.0
  0
SOLID
  5
315
100
AcDbEntity
  8
SOLDERMASK_PADS_TOP
100
AcDbTrace
 10
44.25
 20
-19.9525
 30
0.0
 11
46.75
 21
-19.9525
 31
0.0
 12
44.25
 22
-19.6025
 32
0.0
 13
46.75
 23
-19.6025
 33
0.0
  0
SOLID
  5
316
100
AcDbEntity
  8
SOLDERMASK_PADS_TOP
100
AcDbTrace
 10
44.25
 20
-20.5875
 30
0.0
 11
46.75
 21
-20.5875
 31
0.0
 12
44.25
 22
-20.2375
 32
0.0
 13
46.75
 23
-20.2375
 33
0.0
  0
SOLID
  5
317
100
AcDbEntity
  8
SOLDERMASK_PADS_TOP
100
AcDbTrace
 10
44.25
 20
-21.2225
 30
0.0
 11
46.75
 21
-21.2225
 31
0.0
 12
44.25
 22
-20.8725
 32
0.0
 13
46.75
 23
-20.8725
 33
0.0
  0
SOLID
  5
318
100
AcDbEntity
  8
SOLDERMASK_PADS_TOP
100
AcDbTrace
 10
44.25
 20
-21.8575
 30
0.0
 11
46.75
 21
-21.8575
 31
0.0
 12
44.25
 22
-21.5075
 32
0.0
 13
46.75
 23
-21.5075
 33
0.0
  0
SOLID
  5
319
100
AcDbEntity
  8
SOLDERMASK_PADS_TOP
100
AcDbTrace
 10
44.25
 20
-22.4925
 30
0.0
 11
46.75
 21
-22.4925
 31
0.0
 12
44.25
 22
-22.1425
 32
0.0
 13
46.75
 23
-22.1425
 33
0.0
  0
SOLID
  5
31A
100
AcDbEntity
  8
SOLDERMASK_PADS_TOP
100
AcDbTrace
 10
44.25
 20
-23.1275
 30
0.0
 11
46.75
 21
-23.1275
 31
0.0
 12
44.25
 22
-22.7775
 32
0.0
 13
46.75
 23
-22.7775
 33
0.0
  0
SOLID
  5
31B
100
AcDbEntity
  8
SOLDERMASK_PADS_TOP
100
AcDbTrace
 10
44.25
 20
-23.7625
 30
0.0
 11
46.75
 21
-23.7625
 31
0.0
 12
44.25
 22
-23.4125
 32
0.0
 13
46.75
 23
-23.4125
 33
0.0
  0
SOLID
  5
31C
100
AcDbEntity
  8
SOLDERMASK_PADS_TOP
100
AcDbTrace
 10
44.25
 20
-24.3975
 30
0.0
 11
46.75
 21
-24.3975
 31
0.0
 12
44.25
 22
-24.0475
 32
0.0
 13
46.75
 23
-24.0475
 33
0.0
  0
SOLID
  5
31D
100
AcDbEntity
  8
SOLDERMASK_PADS_TOP
100
AcDbTrace
 10
44.25
 20
-25.0325
 30
0.0
 11
46.75
 21
-25.0325
 31
0.0
 12
44.25
 22
-24.6825
 32
0.0
 13
46.75
 23
-24.6825
 33
0.0
  0
SOLID
  5
31E
100
AcDbEntity
  8
SOLDERMASK_PADS_TOP
100
AcDbTrace
 10
44.25
 20
-25.6675
 30
0.0
 11
46.75
 21
-25.6675
 31
0.0
 12
44.25
 22
-25.3175
 32
0.0
 13
46.75
 23
-25.3175
 33
0.0
  0
SOLID
  5
31F
100
AcDbEntity
  8
SOLDERMASK_PADS_TOP
100
AcDbTrace
 10
44.25
 20
-26.3025
 30
0.0
 11
46.75
 21
-26.3025
 31
0.0
 12
44.25
 22
-25.9525
 32
0.0
 13
46.75
 23
-25.9525
 33
0.0
  0
SOLID
  5
320
100
AcDbEntity
  8
SOLDERMASK_PADS_TOP
100
AcDbTrace
 10
44.25
 20
-26.9375
 30
0.0
 11
46.75
 21
-26.9375
 31
0.0
 12
44.25
 22
-26.5875
 32
0.0
 13
46.75
 23
-26.5875
 33
0.0
  0
SOLID
  5
321
100
AcDbEntity
  8
SOLDERMASK_PADS_TOP
100
AcDbTrace
 10
44.25
 20
-27.5725
 30
0.0
 11
46.75
 21
-27.5725
 31
0.0
 12
44.25
 22
-27.2225
 32
0.0
 13
46.75
 23
-27.2225
 33
0.0
  0
SOLID
  5
322
100
AcDbEntity
  8
SOLDERMASK_PADS_TOP
100
AcDbTrace
 10
44.25
 20
-28.2075
 30
0.0
 11
46.75
 21
-28.2075
 31
0.0
 12
44.25
 22
-27.8575
 32
0.0
 13
46.75
 23
-27.8575
 33
0.0
  0
SOLID
  5
323
100
AcDbEntity
  8
SOLDERMASK_PADS_TOP
100
AcDbTrace
 10
44.25
 20
-28.8425
 30
0.0
 11
46.75
 21
-28.8425
 31
0.0
 12
44.25
 22
-28.4925
 32
0.0
 13
46.75
 23
-28.4925
 33
0.0
  0
SOLID
  5
324
100
AcDbEntity
  8
SOLDERMASK_PADS_TOP
100
AcDbTrace
 10
44.25
 20
-29.4775
 30
0.0
 11
46.75
 21
-29.4775
 31
0.0
 12
44.25
 22
-29.1275
 32
0.0
 13
46.75
 23
-29.1275
 33
0.0
  0
SOLID
  5
325
100
AcDbEntity
  8
SOLDERMASK_PADS_TOP
100
AcDbTrace
 10
44.25
 20
-30.1125
 30
0.0
 11
46.75
 21
-30.1125
 31
0.0
 12
44.25
 22
-29.7625
 32
0.0
 13
46.75
 23
-29.7625
 33
0.0
  0
SOLID
  5
326
100
AcDbEntity
  8
SOLDERMASK_PADS_TOP
100
AcDbTrace
 10
44.25
 20
-30.7475
 30
0.0
 11
46.75
 21
-30.7475
 31
0.0
 12
44.25
 22
-30.3975
 32
0.0
 13
46.75
 23
-30.3975
 33
0.0
  0
SOLID
  5
327
100
AcDbEntity
  8
SOLDERMASK_PADS_TOP
100
AcDbTrace
 10
44.25
 20
-31.3825
 30
0.0
 11
46.75
 21
-31.3825
 31
0.0
 12
44.25
 22
-31.0325
 32
0.0
 13
46.75
 23
-31.0325
 33
0.0
  0
SOLID
  5
328
100
AcDbEntity
  8
SOLDERMASK_PADS_TOP
100
AcDbTrace
 10
44.25
 20
-32.0175
 30
0.0
 11
46.75
 21
-32.0175
 31
0.0
 12
44.25
 22
-31.6675
 32
0.0
 13
46.75
 23
-31.6675
 33
0.0
  0
SOLID
  5
329
100
AcDbEntity
  8
SOLDERMASK_PADS_TOP
100
AcDbTrace
 10
44.25
 20
-32.6525
 30
0.0
 11
46.75
 21
-32.6525
 31
0.0
 12
44.25
 22
-32.3025
 32
0.0
 13
46.75
 23
-32.3025
 33
0.0
  0
SOLID
  5
32A
100
AcDbEntity
  8
SOLDERMASK_PADS_TOP
100
AcDbTrace
 10
44.25
 20
-33.2875
 30
0.0
 11
46.75
 21
-33.2875
 31
0.0
 12
44.25
 22
-32.9375
 32
0.0
 13
46.75
 23
-32.9375
 33
0.0
  0
SOLID
  5
32B
100
AcDbEntity
  8
SOLDERMASK_PADS_TOP
100
AcDbTrace
 10
44.25
 20
-33.9225
 30
0.0
 11
46.75
 21
-33.9225
 31
0.0
 12
44.25
 22
-33.5725
 32
0.0
 13
46.75
 23
-33.5725
 33
0.0
  0
SOLID
  5
32C
100
AcDbEntity
  8
SOLDERMASK_PADS_TOP
100
AcDbTrace
 10
44.25
 20
-34.5575
 30
0.0
 11
46.75
 21
-34.5575
 31
0.0
 12
44.25
 22
-34.2075
 32
0.0
 13
46.75
 23
-34.2075
 33
0.0
  0
SOLID
  5
32D
100
AcDbEntity
  8
SOLDERMASK_PADS_TOP
100
AcDbTrace
 10
48.45
 20
-3.4425
 30
0.0
 11
50.95
 21
-3.4425
 31
0.0
 12
48.45
 22
-3.0925
 32
0.0
 13
50.95
 23
-3.0925
 33
0.0
  0
SOLID
  5
32E
100
AcDbEntity
  8
SOLDERMASK_PADS_TOP
100
AcDbTrace
 10
48.45
 20
-4.0775
 30
0.0
 11
50.95
 21
-4.0775
 31
0.0
 12
48.45
 22
-3.7275
 32
0.0
 13
50.95
 23
-3.7275
 33
0.0
  0
SOLID
  5
32F
100
AcDbEntity
  8
SOLDERMASK_PADS_TOP
100
AcDbTrace
 10
48.45
 20
-4.7125
 30
0.0
 11
50.95
 21
-4.7125
 31
0.0
 12
48.45
 22
-4.3625
 32
0.0
 13
50.95
 23
-4.3625
 33
0.0
  0
SOLID
  5
330
100
AcDbEntity
  8
SOLDERMASK_PADS_TOP
100
AcDbTrace
 10
48.45
 20
-5.3475
 30
0.0
 11
50.95
 21
-5.3475
 31
0.0
 12
48.45
 22
-4.9975
 32
0.0
 13
50.95
 23
-4.9975
 33
0.0
  0
SOLID
  5
331
100
AcDbEntity
  8
SOLDERMASK_PADS_TOP
100
AcDbTrace
 10
48.45
 20
-5.9825
 30
0.0
 11
50.95
 21
-5.9825
 31
0.0
 12
48.45
 22
-5.6325
 32
0.0
 13
50.95
 23
-5.6325
 33
0.0
  0
SOLID
  5
332
100
AcDbEntity
  8
SOLDERMASK_PADS_TOP
100
AcDbTrace
 10
48.45
 20
-6.6175
 30
0.0
 11
50.95
 21
-6.6175
 31
0.0
 12
48.45
 22
-6.2675
 32
0.0
 13
50.95
 23
-6.2675
 33
0.0
  0
SOLID
  5
333
100
AcDbEntity
  8
SOLDERMASK_PADS_TOP
100
AcDbTrace
 10
48.45
 20
-7.2525
 30
0.0
 11
50.95
 21
-7.2525
 31
0.0
 12
48.45
 22
-6.9025
 32
0.0
 13
50.95
 23
-6.9025
 33
0.0
  0
SOLID
  5
334
100
AcDbEntity
  8
SOLDERMASK_PADS_TOP
100
AcDbTrace
 10
48.45
 20
-7.8875
 30
0.0
 11
50.95
 21
-7.8875
 31
0.0
 12
48.45
 22
-7.5375
 32
0.0
 13
50.95
 23
-7.5375
 33
0.0
  0
SOLID
  5
335
100
AcDbEntity
  8
SOLDERMASK_PADS_TOP
100
AcDbTrace
 10
48.45
 20
-8.5225
 30
0.0
 11
50.95
 21
-8.5225
 31
0.0
 12
48.45
 22
-8.1725
 32
0.0
 13
50.95
 23
-8.1725
 33
0.0
  0
SOLID
  5
336
100
AcDbEntity
  8
SOLDERMASK_PADS_TOP
100
AcDbTrace
 10
48.45
 20
-9.1575
 30
0.0
 11
50.95
 21
-9.1575
 31
0.0
 12
48.45
 22
-8.8075
 32
0.0
 13
50.95
 23
-8.8075
 33
0.0
  0
SOLID
  5
337
100
AcDbEntity
  8
SOLDERMASK_PADS_TOP
100
AcDbTrace
 10
48.45
 20
-9.7925
 30
0.0
 11
50.95
 21
-9.7925
 31
0.0
 12
48.45
 22
-9.4425
 32
0.0
 13
50.95
 23
-9.4425
 33
0.0
  0
SOLID
  5
338
100
AcDbEntity
  8
SOLDERMASK_PADS_TOP
100
AcDbTrace
 10
48.45
 20
-10.4275
 30
0.0
 11
50.95
 21
-10.4275
 31
0.0
 12
48.45
 22
-10.0775
 32
0.0
 13
50.95
 23
-10.0775
 33
0.0
  0
SOLID
  5
339
100
AcDbEntity
  8
SOLDERMASK_PADS_TOP
100
AcDbTrace
 10
48.45
 20
-11.0625
 30
0.0
 11
50.95
 21
-11.0625
 31
0.0
 12
48.45
 22
-10.7125
 32
0.0
 13
50.95
 23
-10.7125
 33
0.0
  0
SOLID
  5
33A
100
AcDbEntity
  8
SOLDERMASK_PADS_TOP
100
AcDbTrace
 10
48.45
 20
-11.6975
 30
0.0
 11
50.95
 21
-11.6975
 31
0.0
 12
48.45
 22
-11.3475
 32
0.0
 13
50.95
 23
-11.3475
 33
0.0
  0
SOLID
  5
33B
100
AcDbEntity
  8
SOLDERMASK_PADS_TOP
100
AcDbTrace
 10
48.45
 20
-12.3325
 30
0.0
 11
50.95
 21
-12.3325
 31
0.0
 12
48.45
 22
-11.9825
 32
0.0
 13
50.95
 23
-11.9825
 33
0.0
  0
SOLID
  5
33C
100
AcDbEntity
  8
SOLDERMASK_PADS_TOP
100
AcDbTrace
 10
48.45
 20
-12.9675
 30
0.0
 11
50.95
 21
-12.9675
 31
0.0
 12
48.45
 22
-12.6175
 32
0.0
 13
50.95
 23
-12.6175
 33
0.0
  0
SOLID
  5
33D
100
AcDbEntity
  8
SOLDERMASK_PADS_TOP
100
AcDbTrace
 10
48.45
 20
-13.6025
 30
0.0
 11
50.95
 21
-13.6025
 31
0.0
 12
48.45
 22
-13.2525
 32
0.0
 13
50.95
 23
-13.2525
 33
0.0
  0
SOLID
  5
33E
100
AcDbEntity
  8
SOLDERMASK_PADS_TOP
100
AcDbTrace
 10
48.45
 20
-14.2375
 30
0.0
 11
50.95
 21
-14.2375
 31
0.0
 12
48.45
 22
-13.8875
 32
0.0
 13
50.95
 23
-13.8875
 33
0.0
  0
SOLID
  5
33F
100
AcDbEntity
  8
SOLDERMASK_PADS_TOP
100
AcDbTrace
 10
48.45
 20
-14.8725
 30
0.0
 11
50.95
 21
-14.8725
 31
0.0
 12
48.45
 22
-14.5225
 32
0.0
 13
50.95
 23
-14.5225
 33
0.0
  0
SOLID
  5
340
100
AcDbEntity
  8
SOLDERMASK_PADS_TOP
100
AcDbTrace
 10
48.45
 20
-15.5075
 30
0.0
 11
50.95
 21
-15.5075
 31
0.0
 12
48.45
 22
-15.1575
 32
0.0
 13
50.95
 23
-15.1575
 33
0.0
  0
SOLID
  5
341
100
AcDbEntity
  8
SOLDERMASK_PADS_TOP
100
AcDbTrace
 10
48.45
 20
-16.1425
 30
0.0
 11
50.95
 21
-16.1425
 31
0.0
 12
48.45
 22
-15.7925
 32
0.0
 13
50.95
 23
-15.7925
 33
0.0
  0
SOLID
  5
342
100
AcDbEntity
  8
SOLDERMASK_PADS_TOP
100
AcDbTrace
 10
48.45
 20
-16.7775
 30
0.0
 11
50.95
 21
-16.7775
 31
0.0
 12
48.45
 22
-16.4275
 32
0.0
 13
50.95
 23
-16.4275
 33
0.0
  0
SOLID
  5
343
100
AcDbEntity
  8
SOLDERMASK_PADS_TOP
100
AcDbTrace
 10
48.45
 20
-17.4125
 30
0.0
 11
50.95
 21
-17.4125
 31
0.0
 12
48.45
 22
-17.0625
 32
0.0
 13
50.95
 23
-17.0625
 33
0.0
  0
SOLID
  5
344
100
AcDbEntity
  8
SOLDERMASK_PADS_TOP
100
AcDbTrace
 10
48.45
 20
-18.0475
 30
0.0
 11
50.95
 21
-18.0475
 31
0.0
 12
48.45
 22
-17.6975
 32
0.0
 13
50.95
 23
-17.6975
 33
0.0
  0
SOLID
  5
345
100
AcDbEntity
  8
SOLDERMASK_PADS_TOP
100
AcDbTrace
 10
48.45
 20
-18.6825
 30
0.0
 11
50.95
 21
-18.6825
 31
0.0
 12
48.45
 22
-18.3325
 32
0.0
 13
50.95
 23
-18.3325
 33
0.0
  0
SOLID
  5
346
100
AcDbEntity
  8
SOLDERMASK_PADS_TOP
100
AcDbTrace
 10
48.45
 20
-19.3175
 30
0.0
 11
50.95
 21
-19.3175
 31
0.0
 12
48.45
 22
-18.9675
 32
0.0
 13
50.95
 23
-18.9675
 33
0.0
  0
SOLID
  5
347
100
AcDbEntity
  8
SOLDERMASK_PADS_TOP
100
AcDbTrace
 10
48.45
 20
-19.9525
 30
0.0
 11
50.95
 21
-19.9525
 31
0.0
 12
48.45
 22
-19.6025
 32
0.0
 13
50.95
 23
-19.6025
 33
0.0
  0
SOLID
  5
348
100
AcDbEntity
  8
SOLDERMASK_PADS_TOP
100
AcDbTrace
 10
48.45
 20
-20.5875
 30
0.0
 11
50.95
 21
-20.5875
 31
0.0
 12
48.45
 22
-20.2375
 32
0.0
 13
50.95
 23
-20.2375
 33
0.0
  0
SOLID
  5
349
100
AcDbEntity
  8
SOLDERMASK_PADS_TOP
100
AcDbTrace
 10
48.45
 20
-21.2225
 30
0.0
 11
50.95
 21
-21.2225
 31
0.0
 12
48.45
 22
-20.8725
 32
0.0
 13
50.95
 23
-20.8725
 33
0.0
  0
SOLID
  5
34A
100
AcDbEntity
  8
SOLDERMASK_PADS_TOP
100
AcDbTrace
 10
48.45
 20
-21.8575
 30
0.0
 11
50.95
 21
-21.8575
 31
0.0
 12
48.45
 22
-21.5075
 32
0.0
 13
50.95
 23
-21.5075
 33
0.0
  0
SOLID
  5
34B
100
AcDbEntity
  8
SOLDERMASK_PADS_TOP
100
AcDbTrace
 10
48.45
 20
-22.4925
 30
0.0
 11
50.95
 21
-22.4925
 31
0.0
 12
48.45
 22
-22.1425
 32
0.0
 13
50.95
 23
-22.1425
 33
0.0
  0
SOLID
  5
34C
100
AcDbEntity
  8
SOLDERMASK_PADS_TOP
100
AcDbTrace
 10
48.45
 20
-23.1275
 30
0.0
 11
50.95
 21
-23.1275
 31
0.0
 12
48.45
 22
-22.7775
 32
0.0
 13
50.95
 23
-22.7775
 33
0.0
  0
SOLID
  5
34D
100
AcDbEntity
  8
SOLDERMASK_PADS_TOP
100
AcDbTrace
 10
48.45
 20
-23.7625
 30
0.0
 11
50.95
 21
-23.7625
 31
0.0
 12
48.45
 22
-23.4125
 32
0.0
 13
50.95
 23
-23.4125
 33
0.0
  0
SOLID
  5
34E
100
AcDbEntity
  8
SOLDERMASK_PADS_TOP
100
AcDbTrace
 10
48.45
 20
-24.3975
 30
0.0
 11
50.95
 21
-24.3975
 31
0.0
 12
48.45
 22
-24.0475
 32
0.0
 13
50.95
 23
-24.0475
 33
0.0
  0
SOLID
  5
34F
100
AcDbEntity
  8
SOLDERMASK_PADS_TOP
100
AcDbTrace
 10
48.45
 20
-25.0325
 30
0.0
 11
50.95
 21
-25.0325
 31
0.0
 12
48.45
 22
-24.6825
 32
0.0
 13
50.95
 23
-24.6825
 33
0.0
  0
SOLID
  5
350
100
AcDbEntity
  8
SOLDERMASK_PADS_TOP
100
AcDbTrace
 10
48.45
 20
-25.6675
 30
0.0
 11
50.95
 21
-25.6675
 31
0.0
 12
48.45
 22
-25.3175
 32
0.0
 13
50.95
 23
-25.3175
 33
0.0
  0
SOLID
  5
351
100
AcDbEntity
  8
SOLDERMASK_PADS_TOP
100
AcDbTrace
 10
48.45
 20
-26.3025
 30
0.0
 11
50.95
 21
-26.3025
 31
0.0
 12
48.45
 22
-25.9525
 32
0.0
 13
50.95
 23
-25.9525
 33
0.0
  0
SOLID
  5
352
100
AcDbEntity
  8
SOLDERMASK_PADS_TOP
100
AcDbTrace
 10
48.45
 20
-26.9375
 30
0.0
 11
50.95
 21
-26.9375
 31
0.0
 12
48.45
 22
-26.5875
 32
0.0
 13
50.95
 23
-26.5875
 33
0.0
  0
SOLID
  5
353
100
AcDbEntity
  8
SOLDERMASK_PADS_TOP
100
AcDbTrace
 10
48.45
 20
-27.5725
 30
0.0
 11
50.95
 21
-27.5725
 31
0.0
 12
48.45
 22
-27.2225
 32
0.0
 13
50.95
 23
-27.2225
 33
0.0
  0
SOLID
  5
354
100
AcDbEntity
  8
SOLDERMASK_PADS_TOP
100
AcDbTrace
 10
48.45
 20
-28.2075
 30
0.0
 11
50.95
 21
-28.2075
 31
0.0
 12
48.45
 22
-27.8575
 32
0.0
 13
50.95
 23
-27.8575
 33
0.0
  0
SOLID
  5
355
100
AcDbEntity
  8
SOLDERMASK_PADS_TOP
100
AcDbTrace
 10
48.45
 20
-28.8425
 30
0.0
 11
50.95
 21
-28.8425
 31
0.0
 12
48.45
 22
-28.4925
 32
0.0
 13
50.95
 23
-28.4925
 33
0.0
  0
SOLID
  5
356
100
AcDbEntity
  8
SOLDERMASK_PADS_TOP
100
AcDbTrace
 10
48.45
 20
-29.4775
 30
0.0
 11
50.95
 21
-29.4775
 31
0.0
 12
48.45
 22
-29.1275
 32
0.0
 13
50.95
 23
-29.1275
 33
0.0
  0
SOLID
  5
357
100
AcDbEntity
  8
SOLDERMASK_PADS_TOP
100
AcDbTrace
 10
48.45
 20
-30.1125
 30
0.0
 11
50.95
 21
-30.1125
 31
0.0
 12
48.45
 22
-29.7625
 32
0.0
 13
50.95
 23
-29.7625
 33
0.0
  0
SOLID
  5
358
100
AcDbEntity
  8
SOLDERMASK_PADS_TOP
100
AcDbTrace
 10
48.45
 20
-30.7475
 30
0.0
 11
50.95
 21
-30.7475
 31
0.0
 12
48.45
 22
-30.3975
 32
0.0
 13
50.95
 23
-30.3975
 33
0.0
  0
SOLID
  5
359
100
AcDbEntity
  8
SOLDERMASK_PADS_TOP
100
AcDbTrace
 10
48.45
 20
-31.3825
 30
0.0
 11
50.95
 21
-31.3825
 31
0.0
 12
48.45
 22
-31.0325
 32
0.0
 13
50.95
 23
-31.0325
 33
0.0
  0
SOLID
  5
35A
100
AcDbEntity
  8
SOLDERMASK_PADS_TOP
100
AcDbTrace
 10
48.45
 20
-32.0175
 30
0.0
 11
50.95
 21
-32.0175
 31
0.0
 12
48.45
 22
-31.6675
 32
0.0
 13
50.95
 23
-31.6675
 33
0.0
  0
SOLID
  5
35B
100
AcDbEntity
  8
SOLDERMASK_PADS_TOP
100
AcDbTrace
 10
48.45
 20
-32.6525
 30
0.0
 11
50.95
 21
-32.6525
 31
0.0
 12
48.45
 22
-32.3025
 32
0.0
 13
50.95
 23
-32.3025
 33
0.0
  0
SOLID
  5
35C
100
AcDbEntity
  8
SOLDERMASK_PADS_TOP
100
AcDbTrace
 10
48.45
 20
-33.2875
 30
0.0
 11
50.95
 21
-33.2875
 31
0.0
 12
48.45
 22
-32.9375
 32
0.0
 13
50.95
 23
-32.9375
 33
0.0
  0
SOLID
  5
35D
100
AcDbEntity
  8
SOLDERMASK_PADS_TOP
100
AcDbTrace
 10
48.45
 20
-33.9225
 30
0.0
 11
50.95
 21
-33.9225
 31
0.0
 12
48.45
 22
-33.5725
 32
0.0
 13
50.95
 23
-33.5725
 33
0.0
  0
SOLID
  5
35E
100
AcDbEntity
  8
SOLDERMASK_PADS_TOP
100
AcDbTrace
 10
48.45
 20
-34.5575
 30
0.0
 11
50.95
 21
-34.5575
 31
0.0
 12
48.45
 22
-34.2075
 32
0.0
 13
50.95
 23
-34.2075
 33
0.0
  0
SOLID
  5
35F
100
AcDbEntity
  8
SOLDERMASK_PADS_TOP
100
AcDbTrace
 10
-1.0
 20
-1.47
 30
0.0
 11
1.0
 21
-1.47
 31
0.0
 12
-1.0
 22
1.03
 32
0.0
 13
1.0
 23
1.03
 33
0.0
  0
SOLID
  5
360
100
AcDbEntity
  8
SOLDERMASK_PADS_TOP
100
AcDbTrace
 10
-1.0
 20
-38.6877
 30
0.0
 11
1.0
 21
-38.6877
 31
0.0
 12
-1.0
 22
-36.1877
 32
0.0
 13
1.0
 23
-36.1877
 33
0.0
  0
SOLID
  5
361
100
AcDbEntity
  8
SOLDERMASK_PADS_TOP
100
AcDbTrace
 10
46.6
 20
-1.47
 30
0.0
 11
48.6
 21
-1.47
 31
0.0
 12
46.6
 22
1.03
 32
0.0
 13
48.6
 23
1.03
 33
0.0
  0
SOLID
  5
362
100
AcDbEntity
  8
SOLDERMASK_PADS_TOP
100
AcDbTrace
 10
46.6
 20
-38.69
 30
0.0
 11
48.6
 21
-38.69
 31
0.0
 12
46.6
 22
-36.19
 32
0.0
 13
48.6
 23
-36.19
 33
0.0
  0
LWPOLYLINE
  5
363
100
AcDbEntity
  8
SOLDERMASK_PADS_TOP
100
AcDbPolyline
 90
        2
 70
         1
 43
2.25
 10
-2.625
 20
4.311
 42
-1.0
 10
-0.375
 20
4.311
 42
-1.0
  0
LWPOLYLINE
  5
364
100
AcDbEntity
  8
SOLDERMASK_PADS_TOP
100
AcDbPolyline
 90
        2
 70
         1
 43
2.25
 10
47.951
 20
-42.172
 42
-1.0
 10
50.201
 20
-42.172
 42
-1.0
  0
LWPOLYLINE
  5
365
100
AcDbEntity
  8
SOLDERMASK_PADS_TOP
100
AcDbPolyline
 90
        2
 70
         1
 43
2.25
 10
47.955
 20
4.31
 42
-1.0
 10
50.205
 20
4.31
 42
-1.0
  0
LWPOLYLINE
  5
366
100
AcDbEntity
  8
SOLDERMASK_PADS_TOP
100
AcDbPolyline
 90
        2
 70
         1
 43
2.25
 10
-2.625
 20
-42.17
 42
-1.0
 10
-0.375
 20
-42.17
 42
-1.0
  0
SOLID
  5
367
100
AcDbEntity
  8
SOLDERPASTE_PADS_TOP
100
AcDbTrace
 10
-3.075
 20
-3.4175
 30
0.0
 11
-1.125
 21
-3.4175
 31
0.0
 12
-3.075
 22
-3.1175
 32
0.0
 13
-1.125
 23
-3.1175
 33
0.0
  0
SOLID
  5
368
100
AcDbEntity
  8
SOLDERPASTE_PADS_TOP
100
AcDbTrace
 10
-3.075
 20
-4.0525
 30
0.0
 11
-1.125
 21
-4.0525
 31
0.0
 12
-3.075
 22
-3.7525
 32
0.0
 13
-1.125
 23
-3.7525
 33
0.0
  0
SOLID
  5
369
100
AcDbEntity
  8
SOLDERPASTE_PADS_TOP
100
AcDbTrace
 10
-3.075
 20
-4.6875
 30
0.0
 11
-1.125
 21
-4.6875
 31
0.0
 12
-3.075
 22
-4.3875
 32
0.0
 13
-1.125
 23
-4.3875
 33
0.0
  0
SOLID
  5
36A
100
AcDbEntity
  8
SOLDERPASTE_PADS_TOP
100
AcDbTrace
 10
-3.075
 20
-5.3225
 30
0.0
 11
-1.125
 21
-5.3225
 31
0.0
 12
-3.075
 22
-5.0225
 32
0.0
 13
-1.125
 23
-5.0225
 33
0.0
  0
SOLID
  5
36B
100
AcDbEntity
  8
SOLDERPASTE_PADS_TOP
100
AcDbTrace
 10
-3.075
 20
-5.9575
 30
0.0
 11
-1.125
 21
-5.9575
 31
0.0
 12
-3.075
 22
-5.6575
 32
0.0
 13
-1.125
 23
-5.6575
 33
0.0
  0
SOLID
  5
36C
100
AcDbEntity
  8
SOLDERPASTE_PADS_TOP
100
AcDbTrace
 10
-3.075
 20
-6.5925
 30
0.0
 11
-1.125
 21
-6.5925
 31
0.0
 12
-3.075
 22
-6.2925
 32
0.0
 13
-1.125
 23
-6.2925
 33
0.0
  0
SOLID
  5
36D
100
AcDbEntity
  8
SOLDERPASTE_PADS_TOP
100
AcDbTrace
 10
-3.075
 20
-7.2275
 30
0.0
 11
-1.125
 21
-7.2275
 31
0.0
 12
-3.075
 22
-6.9275
 32
0.0
 13
-1.125
 23
-6.9275
 33
0.0
  0
SOLID
  5
36E
100
AcDbEntity
  8
SOLDERPASTE_PADS_TOP
100
AcDbTrace
 10
-3.075
 20
-7.8625
 30
0.0
 11
-1.125
 21
-7.8625
 31
0.0
 12
-3.075
 22
-7.5625
 32
0.0
 13
-1.125
 23
-7.5625
 33
0.0
  0
SOLID
  5
36F
100
AcDbEntity
  8
SOLDERPASTE_PADS_TOP
100
AcDbTrace
 10
-3.075
 20
-8.4975
 30
0.0
 11
-1.125
 21
-8.4975
 31
0.0
 12
-3.075
 22
-8.1975
 32
0.0
 13
-1.125
 23
-8.1975
 33
0.0
  0
SOLID
  5
370
100
AcDbEntity
  8
SOLDERPASTE_PADS_TOP
100
AcDbTrace
 10
-3.075
 20
-9.1325
 30
0.0
 11
-1.125
 21
-9.1325
 31
0.0
 12
-3.075
 22
-8.8325
 32
0.0
 13
-1.125
 23
-8.8325
 33
0.0
  0
SOLID
  5
371
100
AcDbEntity
  8
SOLDERPASTE_PADS_TOP
100
AcDbTrace
 10
-3.075
 20
-9.7675
 30
0.0
 11
-1.125
 21
-9.7675
 31
0.0
 12
-3.075
 22
-9.4675
 32
0.0
 13
-1.125
 23
-9.4675
 33
0.0
  0
SOLID
  5
372
100
AcDbEntity
  8
SOLDERPASTE_PADS_TOP
100
AcDbTrace
 10
-3.075
 20
-10.4025
 30
0.0
 11
-1.125
 21
-10.4025
 31
0.0
 12
-3.075
 22
-10.1025
 32
0.0
 13
-1.125
 23
-10.1025
 33
0.0
  0
SOLID
  5
373
100
AcDbEntity
  8
SOLDERPASTE_PADS_TOP
100
AcDbTrace
 10
-3.075
 20
-11.0375
 30
0.0
 11
-1.125
 21
-11.0375
 31
0.0
 12
-3.075
 22
-10.7375
 32
0.0
 13
-1.125
 23
-10.7375
 33
0.0
  0
SOLID
  5
374
100
AcDbEntity
  8
SOLDERPASTE_PADS_TOP
100
AcDbTrace
 10
-3.075
 20
-11.6725
 30
0.0
 11
-1.125
 21
-11.6725
 31
0.0
 12
-3.075
 22
-11.3725
 32
0.0
 13
-1.125
 23
-11.3725
 33
0.0
  0
SOLID
  5
375
100
AcDbEntity
  8
SOLDERPASTE_PADS_TOP
100
AcDbTrace
 10
-3.075
 20
-12.3075
 30
0.0
 11
-1.125
 21
-12.3075
 31
0.0
 12
-3.075
 22
-12.0075
 32
0.0
 13
-1.125
 23
-12.0075
 33
0.0
  0
SOLID
  5
376
100
AcDbEntity
  8
SOLDERPASTE_PADS_TOP
100
AcDbTrace
 10
-3.075
 20
-12.9425
 30
0.0
 11
-1.125
 21
-12.9425
 31
0.0
 12
-3.075
 22
-12.6425
 32
0.0
 13
-1.125
 23
-12.6425
 33
0.0
  0
SOLID
  5
377
100
AcDbEntity
  8
SOLDERPASTE_PADS_TOP
100
AcDbTrace
 10
-3.075
 20
-13.5775
 30
0.0
 11
-1.125
 21
-13.5775
 31
0.0
 12
-3.075
 22
-13.2775
 32
0.0
 13
-1.125
 23
-13.2775
 33
0.0
  0
SOLID
  5
378
100
AcDbEntity
  8
SOLDERPASTE_PADS_TOP
100
AcDbTrace
 10
-3.075
 20
-14.2125
 30
0.0
 11
-1.125
 21
-14.2125
 31
0.0
 12
-3.075
 22
-13.9125
 32
0.0
 13
-1.125
 23
-13.9125
 33
0.0
  0
SOLID
  5
379
100
AcDbEntity
  8
SOLDERPASTE_PADS_TOP
100
AcDbTrace
 10
-3.075
 20
-14.8475
 30
0.0
 11
-1.125
 21
-14.8475
 31
0.0
 12
-3.075
 22
-14.5475
 32
0.0
 13
-1.125
 23
-14.5475
 33
0.0
  0
SOLID
  5
37A
100
AcDbEntity
  8
SOLDERPASTE_PADS_TOP
100
AcDbTrace
 10
-3.075
 20
-15.4825
 30
0.0
 11
-1.125
 21
-15.4825
 31
0.0
 12
-3.075
 22
-15.1825
 32
0.0
 13
-1.125
 23
-15.1825
 33
0.0
  0
SOLID
  5
37B
100
AcDbEntity
  8
SOLDERPASTE_PADS_TOP
100
AcDbTrace
 10
-3.075
 20
-16.1175
 30
0.0
 11
-1.125
 21
-16.1175
 31
0.0
 12
-3.075
 22
-15.8175
 32
0.0
 13
-1.125
 23
-15.8175
 33
0.0
  0
SOLID
  5
37C
100
AcDbEntity
  8
SOLDERPASTE_PADS_TOP
100
AcDbTrace
 10
-3.075
 20
-16.7525
 30
0.0
 11
-1.125
 21
-16.7525
 31
0.0
 12
-3.075
 22
-16.4525
 32
0.0
 13
-1.125
 23
-16.4525
 33
0.0
  0
SOLID
  5
37D
100
AcDbEntity
  8
SOLDERPASTE_PADS_TOP
100
AcDbTrace
 10
-3.075
 20
-17.3875
 30
0.0
 11
-1.125
 21
-17.3875
 31
0.0
 12
-3.075
 22
-17.0875
 32
0.0
 13
-1.125
 23
-17.0875
 33
0.0
  0
SOLID
  5
37E
100
AcDbEntity
  8
SOLDERPASTE_PADS_TOP
100
AcDbTrace
 10
-3.075
 20
-18.0225
 30
0.0
 11
-1.125
 21
-18.0225
 31
0.0
 12
-3.075
 22
-17.7225
 32
0.0
 13
-1.125
 23
-17.7225
 33
0.0
  0
SOLID
  5
37F
100
AcDbEntity
  8
SOLDERPASTE_PADS_TOP
100
AcDbTrace
 10
-3.075
 20
-18.6575
 30
0.0
 11
-1.125
 21
-18.6575
 31
0.0
 12
-3.075
 22
-18.3575
 32
0.0
 13
-1.125
 23
-18.3575
 33
0.0
  0
SOLID
  5
380
100
AcDbEntity
  8
SOLDERPASTE_PADS_TOP
100
AcDbTrace
 10
-3.075
 20
-19.2925
 30
0.0
 11
-1.125
 21
-19.2925
 31
0.0
 12
-3.075
 22
-18.9925
 32
0.0
 13
-1.125
 23
-18.9925
 33
0.0
  0
SOLID
  5
381
100
AcDbEntity
  8
SOLDERPASTE_PADS_TOP
100
AcDbTrace
 10
-3.075
 20
-19.9275
 30
0.0
 11
-1.125
 21
-19.9275
 31
0.0
 12
-3.075
 22
-19.6275
 32
0.0
 13
-1.125
 23
-19.6275
 33
0.0
  0
SOLID
  5
382
100
AcDbEntity
  8
SOLDERPASTE_PADS_TOP
100
AcDbTrace
 10
-3.075
 20
-20.5625
 30
0.0
 11
-1.125
 21
-20.5625
 31
0.0
 12
-3.075
 22
-20.2625
 32
0.0
 13
-1.125
 23
-20.2625
 33
0.0
  0
SOLID
  5
383
100
AcDbEntity
  8
SOLDERPASTE_PADS_TOP
100
AcDbTrace
 10
-3.075
 20
-21.1975
 30
0.0
 11
-1.125
 21
-21.1975
 31
0.0
 12
-3.075
 22
-20.8975
 32
0.0
 13
-1.125
 23
-20.8975
 33
0.0
  0
SOLID
  5
384
100
AcDbEntity
  8
SOLDERPASTE_PADS_TOP
100
AcDbTrace
 10
-3.075
 20
-21.8325
 30
0.0
 11
-1.125
 21
-21.8325
 31
0.0
 12
-3.075
 22
-21.5325
 32
0.0
 13
-1.125
 23
-21.5325
 33
0.0
  0
SOLID
  5
385
100
AcDbEntity
  8
SOLDERPASTE_PADS_TOP
100
AcDbTrace
 10
-3.075
 20
-22.4675
 30
0.0
 11
-1.125
 21
-22.4675
 31
0.0
 12
-3.075
 22
-22.1675
 32
0.0
 13
-1.125
 23
-22.1675
 33
0.0
  0
SOLID
  5
386
100
AcDbEntity
  8
SOLDERPASTE_PADS_TOP
100
AcDbTrace
 10
-3.075
 20
-23.1025
 30
0.0
 11
-1.125
 21
-23.1025
 31
0.0
 12
-3.075
 22
-22.8025
 32
0.0
 13
-1.125
 23
-22.8025
 33
0.0
  0
SOLID
  5
387
100
AcDbEntity
  8
SOLDERPASTE_PADS_TOP
100
AcDbTrace
 10
-3.075
 20
-23.7375
 30
0.0
 11
-1.125
 21
-23.7375
 31
0.0
 12
-3.075
 22
-23.4375
 32
0.0
 13
-1.125
 23
-23.4375
 33
0.0
  0
SOLID
  5
388
100
AcDbEntity
  8
SOLDERPASTE_PADS_TOP
100
AcDbTrace
 10
-3.075
 20
-24.3725
 30
0.0
 11
-1.125
 21
-24.3725
 31
0.0
 12
-3.075
 22
-24.0725
 32
0.0
 13
-1.125
 23
-24.0725
 33
0.0
  0
SOLID
  5
389
100
AcDbEntity
  8
SOLDERPASTE_PADS_TOP
100
AcDbTrace
 10
-3.075
 20
-25.0075
 30
0.0
 11
-1.125
 21
-25.0075
 31
0.0
 12
-3.075
 22
-24.7075
 32
0.0
 13
-1.125
 23
-24.7075
 33
0.0
  0
SOLID
  5
38A
100
AcDbEntity
  8
SOLDERPASTE_PADS_TOP
100
AcDbTrace
 10
-3.075
 20
-25.6425
 30
0.0
 11
-1.125
 21
-25.6425
 31
0.0
 12
-3.075
 22
-25.3425
 32
0.0
 13
-1.125
 23
-25.3425
 33
0.0
  0
SOLID
  5
38B
100
AcDbEntity
  8
SOLDERPASTE_PADS_TOP
100
AcDbTrace
 10
-3.075
 20
-26.2775
 30
0.0
 11
-1.125
 21
-26.2775
 31
0.0
 12
-3.075
 22
-25.9775
 32
0.0
 13
-1.125
 23
-25.9775
 33
0.0
  0
SOLID
  5
38C
100
AcDbEntity
  8
SOLDERPASTE_PADS_TOP
100
AcDbTrace
 10
-3.075
 20
-26.9125
 30
0.0
 11
-1.125
 21
-26.9125
 31
0.0
 12
-3.075
 22
-26.6125
 32
0.0
 13
-1.125
 23
-26.6125
 33
0.0
  0
SOLID
  5
38D
100
AcDbEntity
  8
SOLDERPASTE_PADS_TOP
100
AcDbTrace
 10
-3.075
 20
-27.5475
 30
0.0
 11
-1.125
 21
-27.5475
 31
0.0
 12
-3.075
 22
-27.2475
 32
0.0
 13
-1.125
 23
-27.2475
 33
0.0
  0
SOLID
  5
38E
100
AcDbEntity
  8
SOLDERPASTE_PADS_TOP
100
AcDbTrace
 10
-3.075
 20
-28.1825
 30
0.0
 11
-1.125
 21
-28.1825
 31
0.0
 12
-3.075
 22
-27.8825
 32
0.0
 13
-1.125
 23
-27.8825
 33
0.0
  0
SOLID
  5
38F
100
AcDbEntity
  8
SOLDERPASTE_PADS_TOP
100
AcDbTrace
 10
-3.075
 20
-28.8175
 30
0.0
 11
-1.125
 21
-28.8175
 31
0.0
 12
-3.075
 22
-28.5175
 32
0.0
 13
-1.125
 23
-28.5175
 33
0.0
  0
SOLID
  5
390
100
AcDbEntity
  8
SOLDERPASTE_PADS_TOP
100
AcDbTrace
 10
-3.075
 20
-29.4525
 30
0.0
 11
-1.125
 21
-29.4525
 31
0.0
 12
-3.075
 22
-29.1525
 32
0.0
 13
-1.125
 23
-29.1525
 33
0.0
  0
SOLID
  5
391
100
AcDbEntity
  8
SOLDERPASTE_PADS_TOP
100
AcDbTrace
 10
-3.075
 20
-30.0875
 30
0.0
 11
-1.125
 21
-30.0875
 31
0.0
 12
-3.075
 22
-29.7875
 32
0.0
 13
-1.125
 23
-29.7875
 33
0.0
  0
SOLID
  5
392
100
AcDbEntity
  8
SOLDERPASTE_PADS_TOP
100
AcDbTrace
 10
-3.075
 20
-30.7225
 30
0.0
 11
-1.125
 21
-30.7225
 31
0.0
 12
-3.075
 22
-30.4225
 32
0.0
 13
-1.125
 23
-30.4225
 33
0.0
  0
SOLID
  5
393
100
AcDbEntity
  8
SOLDERPASTE_PADS_TOP
100
AcDbTrace
 10
-3.075
 20
-31.3575
 30
0.0
 11
-1.125
 21
-31.3575
 31
0.0
 12
-3.075
 22
-31.0575
 32
0.0
 13
-1.125
 23
-31.0575
 33
0.0
  0
SOLID
  5
394
100
AcDbEntity
  8
SOLDERPASTE_PADS_TOP
100
AcDbTrace
 10
-3.075
 20
-31.9925
 30
0.0
 11
-1.125
 21
-31.9925
 31
0.0
 12
-3.075
 22
-31.6925
 32
0.0
 13
-1.125
 23
-31.6925
 33
0.0
  0
SOLID
  5
395
100
AcDbEntity
  8
SOLDERPASTE_PADS_TOP
100
AcDbTrace
 10
-3.075
 20
-32.6275
 30
0.0
 11
-1.125
 21
-32.6275
 31
0.0
 12
-3.075
 22
-32.3275
 32
0.0
 13
-1.125
 23
-32.3275
 33
0.0
  0
SOLID
  5
396
100
AcDbEntity
  8
SOLDERPASTE_PADS_TOP
100
AcDbTrace
 10
-3.075
 20
-33.2625
 30
0.0
 11
-1.125
 21
-33.2625
 31
0.0
 12
-3.075
 22
-32.9625
 32
0.0
 13
-1.125
 23
-32.9625
 33
0.0
  0
SOLID
  5
397
100
AcDbEntity
  8
SOLDERPASTE_PADS_TOP
100
AcDbTrace
 10
-3.075
 20
-33.8975
 30
0.0
 11
-1.125
 21
-33.8975
 31
0.0
 12
-3.075
 22
-33.5975
 32
0.0
 13
-1.125
 23
-33.5975
 33
0.0
  0
SOLID
  5
398
100
AcDbEntity
  8
SOLDERPASTE_PADS_TOP
100
AcDbTrace
 10
-3.075
 20
-34.5325
 30
0.0
 11
-1.125
 21
-34.5325
 31
0.0
 12
-3.075
 22
-34.2325
 32
0.0
 13
-1.125
 23
-34.2325
 33
0.0
  0
SOLID
  5
399
100
AcDbEntity
  8
SOLDERPASTE_PADS_TOP
100
AcDbTrace
 10
1.125
 20
-3.4175
 30
0.0
 11
3.075
 21
-3.4175
 31
0.0
 12
1.125
 22
-3.1175
 32
0.0
 13
3.075
 23
-3.1175
 33
0.0
  0
SOLID
  5
39A
100
AcDbEntity
  8
SOLDERPASTE_PADS_TOP
100
AcDbTrace
 10
1.125
 20
-4.0525
 30
0.0
 11
3.075
 21
-4.0525
 31
0.0
 12
1.125
 22
-3.7525
 32
0.0
 13
3.075
 23
-3.7525
 33
0.0
  0
SOLID
  5
39B
100
AcDbEntity
  8
SOLDERPASTE_PADS_TOP
100
AcDbTrace
 10
1.125
 20
-4.6875
 30
0.0
 11
3.075
 21
-4.6875
 31
0.0
 12
1.125
 22
-4.3875
 32
0.0
 13
3.075
 23
-4.3875
 33
0.0
  0
SOLID
  5
39C
100
AcDbEntity
  8
SOLDERPASTE_PADS_TOP
100
AcDbTrace
 10
1.125
 20
-5.3225
 30
0.0
 11
3.075
 21
-5.3225
 31
0.0
 12
1.125
 22
-5.0225
 32
0.0
 13
3.075
 23
-5.0225
 33
0.0
  0
SOLID
  5
39D
100
AcDbEntity
  8
SOLDERPASTE_PADS_TOP
100
AcDbTrace
 10
1.125
 20
-5.9575
 30
0.0
 11
3.075
 21
-5.9575
 31
0.0
 12
1.125
 22
-5.6575
 32
0.0
 13
3.075
 23
-5.6575
 33
0.0
  0
SOLID
  5
39E
100
AcDbEntity
  8
SOLDERPASTE_PADS_TOP
100
AcDbTrace
 10
1.125
 20
-6.5925
 30
0.0
 11
3.075
 21
-6.5925
 31
0.0
 12
1.125
 22
-6.2925
 32
0.0
 13
3.075
 23
-6.2925
 33
0.0
  0
SOLID
  5
39F
100
AcDbEntity
  8
SOLDERPASTE_PADS_TOP
100
AcDbTrace
 10
1.125
 20
-7.2275
 30
0.0
 11
3.075
 21
-7.2275
 31
0.0
 12
1.125
 22
-6.9275
 32
0.0
 13
3.075
 23
-6.9275
 33
0.0
  0
SOLID
  5
3A0
100
AcDbEntity
  8
SOLDERPASTE_PADS_TOP
100
AcDbTrace
 10
1.125
 20
-7.8625
 30
0.0
 11
3.075
 21
-7.8625
 31
0.0
 12
1.125
 22
-7.5625
 32
0.0
 13
3.075
 23
-7.5625
 33
0.0
  0
SOLID
  5
3A1
100
AcDbEntity
  8
SOLDERPASTE_PADS_TOP
100
AcDbTrace
 10
1.125
 20
-8.4975
 30
0.0
 11
3.075
 21
-8.4975
 31
0.0
 12
1.125
 22
-8.1975
 32
0.0
 13
3.075
 23
-8.1975
 33
0.0
  0
SOLID
  5
3A2
100
AcDbEntity
  8
SOLDERPASTE_PADS_TOP
100
AcDbTrace
 10
1.125
 20
-9.1325
 30
0.0
 11
3.075
 21
-9.1325
 31
0.0
 12
1.125
 22
-8.8325
 32
0.0
 13
3.075
 23
-8.8325
 33
0.0
  0
SOLID
  5
3A3
100
AcDbEntity
  8
SOLDERPASTE_PADS_TOP
100
AcDbTrace
 10
1.125
 20
-9.7675
 30
0.0
 11
3.075
 21
-9.7675
 31
0.0
 12
1.125
 22
-9.4675
 32
0.0
 13
3.075
 23
-9.4675
 33
0.0
  0
SOLID
  5
3A4
100
AcDbEntity
  8
SOLDERPASTE_PADS_TOP
100
AcDbTrace
 10
1.125
 20
-10.4025
 30
0.0
 11
3.075
 21
-10.4025
 31
0.0
 12
1.125
 22
-10.1025
 32
0.0
 13
3.075
 23
-10.1025
 33
0.0
  0
SOLID
  5
3A5
100
AcDbEntity
  8
SOLDERPASTE_PADS_TOP
100
AcDbTrace
 10
1.125
 20
-11.0375
 30
0.0
 11
3.075
 21
-11.0375
 31
0.0
 12
1.125
 22
-10.7375
 32
0.0
 13
3.075
 23
-10.7375
 33
0.0
  0
SOLID
  5
3A6
100
AcDbEntity
  8
SOLDERPASTE_PADS_TOP
100
AcDbTrace
 10
1.125
 20
-11.6725
 30
0.0
 11
3.075
 21
-11.6725
 31
0.0
 12
1.125
 22
-11.3725
 32
0.0
 13
3.075
 23
-11.3725
 33
0.0
  0
SOLID
  5
3A7
100
AcDbEntity
  8
SOLDERPASTE_PADS_TOP
100
AcDbTrace
 10
1.125
 20
-12.3075
 30
0.0
 11
3.075
 21
-12.3075
 31
0.0
 12
1.125
 22
-12.0075
 32
0.0
 13
3.075
 23
-12.0075
 33
0.0
  0
SOLID
  5
3A8
100
AcDbEntity
  8
SOLDERPASTE_PADS_TOP
100
AcDbTrace
 10
1.125
 20
-12.9425
 30
0.0
 11
3.075
 21
-12.9425
 31
0.0
 12
1.125
 22
-12.6425
 32
0.0
 13
3.075
 23
-12.6425
 33
0.0
  0
SOLID
  5
3A9
100
AcDbEntity
  8
SOLDERPASTE_PADS_TOP
100
AcDbTrace
 10
1.125
 20
-13.5775
 30
0.0
 11
3.075
 21
-13.5775
 31
0.0
 12
1.125
 22
-13.2775
 32
0.0
 13
3.075
 23
-13.2775
 33
0.0
  0
SOLID
  5
3AA
100
AcDbEntity
  8
SOLDERPASTE_PADS_TOP
100
AcDbTrace
 10
1.125
 20
-14.2125
 30
0.0
 11
3.075
 21
-14.2125
 31
0.0
 12
1.125
 22
-13.9125
 32
0.0
 13
3.075
 23
-13.9125
 33
0.0
  0
SOLID
  5
3AB
100
AcDbEntity
  8
SOLDERPASTE_PADS_TOP
100
AcDbTrace
 10
1.125
 20
-14.8475
 30
0.0
 11
3.075
 21
-14.8475
 31
0.0
 12
1.125
 22
-14.5475
 32
0.0
 13
3.075
 23
-14.5475
 33
0.0
  0
SOLID
  5
3AC
100
AcDbEntity
  8
SOLDERPASTE_PADS_TOP
100
AcDbTrace
 10
1.125
 20
-15.4825
 30
0.0
 11
3.075
 21
-15.4825
 31
0.0
 12
1.125
 22
-15.1825
 32
0.0
 13
3.075
 23
-15.1825
 33
0.0
  0
SOLID
  5
3AD
100
AcDbEntity
  8
SOLDERPASTE_PADS_TOP
100
AcDbTrace
 10
1.125
 20
-16.1175
 30
0.0
 11
3.075
 21
-16.1175
 31
0.0
 12
1.125
 22
-15.8175
 32
0.0
 13
3.075
 23
-15.8175
 33
0.0
  0
SOLID
  5
3AE
100
AcDbEntity
  8
SOLDERPASTE_PADS_TOP
100
AcDbTrace
 10
1.125
 20
-16.7525
 30
0.0
 11
3.075
 21
-16.7525
 31
0.0
 12
1.125
 22
-16.4525
 32
0.0
 13
3.075
 23
-16.4525
 33
0.0
  0
SOLID
  5
3AF
100
AcDbEntity
  8
SOLDERPASTE_PADS_TOP
100
AcDbTrace
 10
1.125
 20
-17.3875
 30
0.0
 11
3.075
 21
-17.3875
 31
0.0
 12
1.125
 22
-17.0875
 32
0.0
 13
3.075
 23
-17.0875
 33
0.0
  0
SOLID
  5
3B0
100
AcDbEntity
  8
SOLDERPASTE_PADS_TOP
100
AcDbTrace
 10
1.125
 20
-18.0225
 30
0.0
 11
3.075
 21
-18.0225
 31
0.0
 12
1.125
 22
-17.7225
 32
0.0
 13
3.075
 23
-17.7225
 33
0.0
  0
SOLID
  5
3B1
100
AcDbEntity
  8
SOLDERPASTE_PADS_TOP
100
AcDbTrace
 10
1.125
 20
-18.6575
 30
0.0
 11
3.075
 21
-18.6575
 31
0.0
 12
1.125
 22
-18.3575
 32
0.0
 13
3.075
 23
-18.3575
 33
0.0
  0
SOLID
  5
3B2
100
AcDbEntity
  8
SOLDERPASTE_PADS_TOP
100
AcDbTrace
 10
1.125
 20
-19.2925
 30
0.0
 11
3.075
 21
-19.2925
 31
0.0
 12
1.125
 22
-18.9925
 32
0.0
 13
3.075
 23
-18.9925
 33
0.0
  0
SOLID
  5
3B3
100
AcDbEntity
  8
SOLDERPASTE_PADS_TOP
100
AcDbTrace
 10
1.125
 20
-19.9275
 30
0.0
 11
3.075
 21
-19.9275
 31
0.0
 12
1.125
 22
-19.6275
 32
0.0
 13
3.075
 23
-19.6275
 33
0.0
  0
SOLID
  5
3B4
100
AcDbEntity
  8
SOLDERPASTE_PADS_TOP
100
AcDbTrace
 10
1.125
 20
-20.5625
 30
0.0
 11
3.075
 21
-20.5625
 31
0.0
 12
1.125
 22
-20.2625
 32
0.0
 13
3.075
 23
-20.2625
 33
0.0
  0
SOLID
  5
3B5
100
AcDbEntity
  8
SOLDERPASTE_PADS_TOP
100
AcDbTrace
 10
1.125
 20
-21.1975
 30
0.0
 11
3.075
 21
-21.1975
 31
0.0
 12
1.125
 22
-20.8975
 32
0.0
 13
3.075
 23
-20.8975
 33
0.0
  0
SOLID
  5
3B6
100
AcDbEntity
  8
SOLDERPASTE_PADS_TOP
100
AcDbTrace
 10
1.125
 20
-21.8325
 30
0.0
 11
3.075
 21
-21.8325
 31
0.0
 12
1.125
 22
-21.5325
 32
0.0
 13
3.075
 23
-21.5325
 33
0.0
  0
SOLID
  5
3B7
100
AcDbEntity
  8
SOLDERPASTE_PADS_TOP
100
AcDbTrace
 10
1.125
 20
-22.4675
 30
0.0
 11
3.075
 21
-22.4675
 31
0.0
 12
1.125
 22
-22.1675
 32
0.0
 13
3.075
 23
-22.1675
 33
0.0
  0
SOLID
  5
3B8
100
AcDbEntity
  8
SOLDERPASTE_PADS_TOP
100
AcDbTrace
 10
1.125
 20
-23.1025
 30
0.0
 11
3.075
 21
-23.1025
 31
0.0
 12
1.125
 22
-22.8025
 32
0.0
 13
3.075
 23
-22.8025
 33
0.0
  0
SOLID
  5
3B9
100
AcDbEntity
  8
SOLDERPASTE_PADS_TOP
100
AcDbTrace
 10
1.125
 20
-23.7375
 30
0.0
 11
3.075
 21
-23.7375
 31
0.0
 12
1.125
 22
-23.4375
 32
0.0
 13
3.075
 23
-23.4375
 33
0.0
  0
SOLID
  5
3BA
100
AcDbEntity
  8
SOLDERPASTE_PADS_TOP
100
AcDbTrace
 10
1.125
 20
-24.3725
 30
0.0
 11
3.075
 21
-24.3725
 31
0.0
 12
1.125
 22
-24.0725
 32
0.0
 13
3.075
 23
-24.0725
 33
0.0
  0
SOLID
  5
3BB
100
AcDbEntity
  8
SOLDERPASTE_PADS_TOP
100
AcDbTrace
 10
1.125
 20
-25.0075
 30
0.0
 11
3.075
 21
-25.0075
 31
0.0
 12
1.125
 22
-24.7075
 32
0.0
 13
3.075
 23
-24.7075
 33
0.0
  0
SOLID
  5
3BC
100
AcDbEntity
  8
SOLDERPASTE_PADS_TOP
100
AcDbTrace
 10
1.125
 20
-25.6425
 30
0.0
 11
3.075
 21
-25.6425
 31
0.0
 12
1.125
 22
-25.3425
 32
0.0
 13
3.075
 23
-25.3425
 33
0.0
  0
SOLID
  5
3BD
100
AcDbEntity
  8
SOLDERPASTE_PADS_TOP
100
AcDbTrace
 10
1.125
 20
-26.2775
 30
0.0
 11
3.075
 21
-26.2775
 31
0.0
 12
1.125
 22
-25.9775
 32
0.0
 13
3.075
 23
-25.9775
 33
0.0
  0
SOLID
  5
3BE
100
AcDbEntity
  8
SOLDERPASTE_PADS_TOP
100
AcDbTrace
 10
1.125
 20
-26.9125
 30
0.0
 11
3.075
 21
-26.9125
 31
0.0
 12
1.125
 22
-26.6125
 32
0.0
 13
3.075
 23
-26.6125
 33
0.0
  0
SOLID
  5
3BF
100
AcDbEntity
  8
SOLDERPASTE_PADS_TOP
100
AcDbTrace
 10
1.125
 20
-27.5475
 30
0.0
 11
3.075
 21
-27.5475
 31
0.0
 12
1.125
 22
-27.2475
 32
0.0
 13
3.075
 23
-27.2475
 33
0.0
  0
SOLID
  5
3C0
100
AcDbEntity
  8
SOLDERPASTE_PADS_TOP
100
AcDbTrace
 10
1.125
 20
-28.1825
 30
0.0
 11
3.075
 21
-28.1825
 31
0.0
 12
1.125
 22
-27.8825
 32
0.0
 13
3.075
 23
-27.8825
 33
0.0
  0
SOLID
  5
3C1
100
AcDbEntity
  8
SOLDERPASTE_PADS_TOP
100
AcDbTrace
 10
1.125
 20
-28.8175
 30
0.0
 11
3.075
 21
-28.8175
 31
0.0
 12
1.125
 22
-28.5175
 32
0.0
 13
3.075
 23
-28.5175
 33
0.0
  0
SOLID
  5
3C2
100
AcDbEntity
  8
SOLDERPASTE_PADS_TOP
100
AcDbTrace
 10
1.125
 20
-29.4525
 30
0.0
 11
3.075
 21
-29.4525
 31
0.0
 12
1.125
 22
-29.1525
 32
0.0
 13
3.075
 23
-29.1525
 33
0.0
  0
SOLID
  5
3C3
100
AcDbEntity
  8
SOLDERPASTE_PADS_TOP
100
AcDbTrace
 10
1.125
 20
-30.0875
 30
0.0
 11
3.075
 21
-30.0875
 31
0.0
 12
1.125
 22
-29.7875
 32
0.0
 13
3.075
 23
-29.7875
 33
0.0
  0
SOLID
  5
3C4
100
AcDbEntity
  8
SOLDERPASTE_PADS_TOP
100
AcDbTrace
 10
1.125
 20
-30.7225
 30
0.0
 11
3.075
 21
-30.7225
 31
0.0
 12
1.125
 22
-30.4225
 32
0.0
 13
3.075
 23
-30.4225
 33
0.0
  0
SOLID
  5
3C5
100
AcDbEntity
  8
SOLDERPASTE_PADS_TOP
100
AcDbTrace
 10
1.125
 20
-31.3575
 30
0.0
 11
3.075
 21
-31.3575
 31
0.0
 12
1.125
 22
-31.0575
 32
0.0
 13
3.075
 23
-31.0575
 33
0.0
  0
SOLID
  5
3C6
100
AcDbEntity
  8
SOLDERPASTE_PADS_TOP
100
AcDbTrace
 10
1.125
 20
-31.9925
 30
0.0
 11
3.075
 21
-31.9925
 31
0.0
 12
1.125
 22
-31.6925
 32
0.0
 13
3.075
 23
-31.6925
 33
0.0
  0
SOLID
  5
3C7
100
AcDbEntity
  8
SOLDERPASTE_PADS_TOP
100
AcDbTrace
 10
1.125
 20
-32.6275
 30
0.0
 11
3.075
 21
-32.6275
 31
0.0
 12
1.125
 22
-32.3275
 32
0.0
 13
3.075
 23
-32.3275
 33
0.0
  0
SOLID
  5
3C8
100
AcDbEntity
  8
SOLDERPASTE_PADS_TOP
100
AcDbTrace
 10
1.125
 20
-33.2625
 30
0.0
 11
3.075
 21
-33.2625
 31
0.0
 12
1.125
 22
-32.9625
 32
0.0
 13
3.075
 23
-32.9625
 33
0.0
  0
SOLID
  5
3C9
100
AcDbEntity
  8
SOLDERPASTE_PADS_TOP
100
AcDbTrace
 10
1.125
 20
-33.8975
 30
0.0
 11
3.075
 21
-33.8975
 31
0.0
 12
1.125
 22
-33.5975
 32
0.0
 13
3.075
 23
-33.5975
 33
0.0
  0
SOLID
  5
3CA
100
AcDbEntity
  8
SOLDERPASTE_PADS_TOP
100
AcDbTrace
 10
1.125
 20
-34.5325
 30
0.0
 11
3.075
 21
-34.5325
 31
0.0
 12
1.125
 22
-34.2325
 32
0.0
 13
3.075
 23
-34.2325
 33
0.0
  0
SOLID
  5
3CB
100
AcDbEntity
  8
SOLDERPASTE_PADS_TOP
100
AcDbTrace
 10
44.525
 20
-3.4175
 30
0.0
 11
46.475
 21
-3.4175
 31
0.0
 12
44.525
 22
-3.1175
 32
0.0
 13
46.475
 23
-3.1175
 33
0.0
  0
SOLID
  5
3CC
100
AcDbEntity
  8
SOLDERPASTE_PADS_TOP
100
AcDbTrace
 10
44.525
 20
-4.0525
 30
0.0
 11
46.475
 21
-4.0525
 31
0.0
 12
44.525
 22
-3.7525
 32
0.0
 13
46.475
 23
-3.7525
 33
0.0
  0
SOLID
  5
3CD
100
AcDbEntity
  8
SOLDERPASTE_PADS_TOP
100
AcDbTrace
 10
44.525
 20
-4.6875
 30
0.0
 11
46.475
 21
-4.6875
 31
0.0
 12
44.525
 22
-4.3875
 32
0.0
 13
46.475
 23
-4.3875
 33
0.0
  0
SOLID
  5
3CE
100
AcDbEntity
  8
SOLDERPASTE_PADS_TOP
100
AcDbTrace
 10
44.525
 20
-5.3225
 30
0.0
 11
46.475
 21
-5.3225
 31
0.0
 12
44.525
 22
-5.0225
 32
0.0
 13
46.475
 23
-5.0225
 33
0.0
  0
SOLID
  5
3CF
100
AcDbEntity
  8
SOLDERPASTE_PADS_TOP
100
AcDbTrace
 10
44.525
 20
-5.9575
 30
0.0
 11
46.475
 21
-5.9575
 31
0.0
 12
44.525
 22
-5.6575
 32
0.0
 13
46.475
 23
-5.6575
 33
0.0
  0
SOLID
  5
3D0
100
AcDbEntity
  8
SOLDERPASTE_PADS_TOP
100
AcDbTrace
 10
44.525
 20
-6.5925
 30
0.0
 11
46.475
 21
-6.5925
 31
0.0
 12
44.525
 22
-6.2925
 32
0.0
 13
46.475
 23
-6.2925
 33
0.0
  0
SOLID
  5
3D1
100
AcDbEntity
  8
SOLDERPASTE_PADS_TOP
100
AcDbTrace
 10
44.525
 20
-7.2275
 30
0.0
 11
46.475
 21
-7.2275
 31
0.0
 12
44.525
 22
-6.9275
 32
0.0
 13
46.475
 23
-6.9275
 33
0.0
  0
SOLID
  5
3D2
100
AcDbEntity
  8
SOLDERPASTE_PADS_TOP
100
AcDbTrace
 10
44.525
 20
-7.8625
 30
0.0
 11
46.475
 21
-7.8625
 31
0.0
 12
44.525
 22
-7.5625
 32
0.0
 13
46.475
 23
-7.5625
 33
0.0
  0
SOLID
  5
3D3
100
AcDbEntity
  8
SOLDERPASTE_PADS_TOP
100
AcDbTrace
 10
44.525
 20
-8.4975
 30
0.0
 11
46.475
 21
-8.4975
 31
0.0
 12
44.525
 22
-8.1975
 32
0.0
 13
46.475
 23
-8.1975
 33
0.0
  0
SOLID
  5
3D4
100
AcDbEntity
  8
SOLDERPASTE_PADS_TOP
100
AcDbTrace
 10
44.525
 20
-9.1325
 30
0.0
 11
46.475
 21
-9.1325
 31
0.0
 12
44.525
 22
-8.8325
 32
0.0
 13
46.475
 23
-8.8325
 33
0.0
  0
SOLID
  5
3D5
100
AcDbEntity
  8
SOLDERPASTE_PADS_TOP
100
AcDbTrace
 10
44.525
 20
-9.7675
 30
0.0
 11
46.475
 21
-9.7675
 31
0.0
 12
44.525
 22
-9.4675
 32
0.0
 13
46.475
 23
-9.4675
 33
0.0
  0
SOLID
  5
3D6
100
AcDbEntity
  8
SOLDERPASTE_PADS_TOP
100
AcDbTrace
 10
44.525
 20
-10.4025
 30
0.0
 11
46.475
 21
-10.4025
 31
0.0
 12
44.525
 22
-10.1025
 32
0.0
 13
46.475
 23
-10.1025
 33
0.0
  0
SOLID
  5
3D7
100
AcDbEntity
  8
SOLDERPASTE_PADS_TOP
100
AcDbTrace
 10
44.525
 20
-11.0375
 30
0.0
 11
46.475
 21
-11.0375
 31
0.0
 12
44.525
 22
-10.7375
 32
0.0
 13
46.475
 23
-10.7375
 33
0.0
  0
SOLID
  5
3D8
100
AcDbEntity
  8
SOLDERPASTE_PADS_TOP
100
AcDbTrace
 10
44.525
 20
-11.6725
 30
0.0
 11
46.475
 21
-11.6725
 31
0.0
 12
44.525
 22
-11.3725
 32
0.0
 13
46.475
 23
-11.3725
 33
0.0
  0
SOLID
  5
3D9
100
AcDbEntity
  8
SOLDERPASTE_PADS_TOP
100
AcDbTrace
 10
44.525
 20
-12.3075
 30
0.0
 11
46.475
 21
-12.3075
 31
0.0
 12
44.525
 22
-12.0075
 32
0.0
 13
46.475
 23
-12.0075
 33
0.0
  0
SOLID
  5
3DA
100
AcDbEntity
  8
SOLDERPASTE_PADS_TOP
100
AcDbTrace
 10
44.525
 20
-12.9425
 30
0.0
 11
46.475
 21
-12.9425
 31
0.0
 12
44.525
 22
-12.6425
 32
0.0
 13
46.475
 23
-12.6425
 33
0.0
  0
SOLID
  5
3DB
100
AcDbEntity
  8
SOLDERPASTE_PADS_TOP
100
AcDbTrace
 10
44.525
 20
-13.5775
 30
0.0
 11
46.475
 21
-13.5775
 31
0.0
 12
44.525
 22
-13.2775
 32
0.0
 13
46.475
 23
-13.2775
 33
0.0
  0
SOLID
  5
3DC
100
AcDbEntity
  8
SOLDERPASTE_PADS_TOP
100
AcDbTrace
 10
44.525
 20
-14.2125
 30
0.0
 11
46.475
 21
-14.2125
 31
0.0
 12
44.525
 22
-13.9125
 32
0.0
 13
46.475
 23
-13.9125
 33
0.0
  0
SOLID
  5
3DD
100
AcDbEntity
  8
SOLDERPASTE_PADS_TOP
100
AcDbTrace
 10
44.525
 20
-14.8475
 30
0.0
 11
46.475
 21
-14.8475
 31
0.0
 12
44.525
 22
-14.5475
 32
0.0
 13
46.475
 23
-14.5475
 33
0.0
  0
SOLID
  5
3DE
100
AcDbEntity
  8
SOLDERPASTE_PADS_TOP
100
AcDbTrace
 10
44.525
 20
-15.4825
 30
0.0
 11
46.475
 21
-15.4825
 31
0.0
 12
44.525
 22
-15.1825
 32
0.0
 13
46.475
 23
-15.1825
 33
0.0
  0
SOLID
  5
3DF
100
AcDbEntity
  8
SOLDERPASTE_PADS_TOP
100
AcDbTrace
 10
44.525
 20
-16.1175
 30
0.0
 11
46.475
 21
-16.1175
 31
0.0
 12
44.525
 22
-15.8175
 32
0.0
 13
46.475
 23
-15.8175
 33
0.0
  0
SOLID
  5
3E0
100
AcDbEntity
  8
SOLDERPASTE_PADS_TOP
100
AcDbTrace
 10
44.525
 20
-16.7525
 30
0.0
 11
46.475
 21
-16.7525
 31
0.0
 12
44.525
 22
-16.4525
 32
0.0
 13
46.475
 23
-16.4525
 33
0.0
  0
SOLID
  5
3E1
100
AcDbEntity
  8
SOLDERPASTE_PADS_TOP
100
AcDbTrace
 10
44.525
 20
-17.3875
 30
0.0
 11
46.475
 21
-17.3875
 31
0.0
 12
44.525
 22
-17.0875
 32
0.0
 13
46.475
 23
-17.0875
 33
0.0
  0
SOLID
  5
3E2
100
AcDbEntity
  8
SOLDERPASTE_PADS_TOP
100
AcDbTrace
 10
44.525
 20
-18.0225
 30
0.0
 11
46.475
 21
-18.0225
 31
0.0
 12
44.525
 22
-17.7225
 32
0.0
 13
46.475
 23
-17.7225
 33
0.0
  0
SOLID
  5
3E3
100
AcDbEntity
  8
SOLDERPASTE_PADS_TOP
100
AcDbTrace
 10
44.525
 20
-18.6575
 30
0.0
 11
46.475
 21
-18.6575
 31
0.0
 12
44.525
 22
-18.3575
 32
0.0
 13
46.475
 23
-18.3575
 33
0.0
  0
SOLID
  5
3E4
100
AcDbEntity
  8
SOLDERPASTE_PADS_TOP
100
AcDbTrace
 10
44.525
 20
-19.2925
 30
0.0
 11
46.475
 21
-19.2925
 31
0.0
 12
44.525
 22
-18.9925
 32
0.0
 13
46.475
 23
-18.9925
 33
0.0
  0
SOLID
  5
3E5
100
AcDbEntity
  8
SOLDERPASTE_PADS_TOP
100
AcDbTrace
 10
44.525
 20
-19.9275
 30
0.0
 11
46.475
 21
-19.9275
 31
0.0
 12
44.525
 22
-19.6275
 32
0.0
 13
46.475
 23
-19.6275
 33
0.0
  0
SOLID
  5
3E6
100
AcDbEntity
  8
SOLDERPASTE_PADS_TOP
100
AcDbTrace
 10
44.525
 20
-20.5625
 30
0.0
 11
46.475
 21
-20.5625
 31
0.0
 12
44.525
 22
-20.2625
 32
0.0
 13
46.475
 23
-20.2625
 33
0.0
  0
SOLID
  5
3E7
100
AcDbEntity
  8
SOLDERPASTE_PADS_TOP
100
AcDbTrace
 10
44.525
 20
-21.1975
 30
0.0
 11
46.475
 21
-21.1975
 31
0.0
 12
44.525
 22
-20.8975
 32
0.0
 13
46.475
 23
-20.8975
 33
0.0
  0
SOLID
  5
3E8
100
AcDbEntity
  8
SOLDERPASTE_PADS_TOP
100
AcDbTrace
 10
44.525
 20
-21.8325
 30
0.0
 11
46.475
 21
-21.8325
 31
0.0
 12
44.525
 22
-21.5325
 32
0.0
 13
46.475
 23
-21.5325
 33
0.0
  0
SOLID
  5
3E9
100
AcDbEntity
  8
SOLDERPASTE_PADS_TOP
100
AcDbTrace
 10
44.525
 20
-22.4675
 30
0.0
 11
46.475
 21
-22.4675
 31
0.0
 12
44.525
 22
-22.1675
 32
0.0
 13
46.475
 23
-22.1675
 33
0.0
  0
SOLID
  5
3EA
100
AcDbEntity
  8
SOLDERPASTE_PADS_TOP
100
AcDbTrace
 10
44.525
 20
-23.1025
 30
0.0
 11
46.475
 21
-23.1025
 31
0.0
 12
44.525
 22
-22.8025
 32
0.0
 13
46.475
 23
-22.8025
 33
0.0
  0
SOLID
  5
3EB
100
AcDbEntity
  8
SOLDERPASTE_PADS_TOP
100
AcDbTrace
 10
44.525
 20
-23.7375
 30
0.0
 11
46.475
 21
-23.7375
 31
0.0
 12
44.525
 22
-23.4375
 32
0.0
 13
46.475
 23
-23.4375
 33
0.0
  0
SOLID
  5
3EC
100
AcDbEntity
  8
SOLDERPASTE_PADS_TOP
100
AcDbTrace
 10
44.525
 20
-24.3725
 30
0.0
 11
46.475
 21
-24.3725
 31
0.0
 12
44.525
 22
-24.0725
 32
0.0
 13
46.475
 23
-24.0725
 33
0.0
  0
SOLID
  5
3ED
100
AcDbEntity
  8
SOLDERPASTE_PADS_TOP
100
AcDbTrace
 10
44.525
 20
-25.0075
 30
0.0
 11
46.475
 21
-25.0075
 31
0.0
 12
44.525
 22
-24.7075
 32
0.0
 13
46.475
 23
-24.7075
 33
0.0
  0
SOLID
  5
3EE
100
AcDbEntity
  8
SOLDERPASTE_PADS_TOP
100
AcDbTrace
 10
44.525
 20
-25.6425
 30
0.0
 11
46.475
 21
-25.6425
 31
0.0
 12
44.525
 22
-25.3425
 32
0.0
 13
46.475
 23
-25.3425
 33
0.0
  0
SOLID
  5
3EF
100
AcDbEntity
  8
SOLDERPASTE_PADS_TOP
100
AcDbTrace
 10
44.525
 20
-26.2775
 30
0.0
 11
46.475
 21
-26.2775
 31
0.0
 12
44.525
 22
-25.9775
 32
0.0
 13
46.475
 23
-25.9775
 33
0.0
  0
SOLID
  5
3F0
100
AcDbEntity
  8
SOLDERPASTE_PADS_TOP
100
AcDbTrace
 10
44.525
 20
-26.9125
 30
0.0
 11
46.475
 21
-26.9125
 31
0.0
 12
44.525
 22
-26.6125
 32
0.0
 13
46.475
 23
-26.6125
 33
0.0
  0
SOLID
  5
3F1
100
AcDbEntity
  8
SOLDERPASTE_PADS_TOP
100
AcDbTrace
 10
44.525
 20
-27.5475
 30
0.0
 11
46.475
 21
-27.5475
 31
0.0
 12
44.525
 22
-27.2475
 32
0.0
 13
46.475
 23
-27.2475
 33
0.0
  0
SOLID
  5
3F2
100
AcDbEntity
  8
SOLDERPASTE_PADS_TOP
100
AcDbTrace
 10
44.525
 20
-28.1825
 30
0.0
 11
46.475
 21
-28.1825
 31
0.0
 12
44.525
 22
-27.8825
 32
0.0
 13
46.475
 23
-27.8825
 33
0.0
  0
SOLID
  5
3F3
100
AcDbEntity
  8
SOLDERPASTE_PADS_TOP
100
AcDbTrace
 10
44.525
 20
-28.8175
 30
0.0
 11
46.475
 21
-28.8175
 31
0.0
 12
44.525
 22
-28.5175
 32
0.0
 13
46.475
 23
-28.5175
 33
0.0
  0
SOLID
  5
3F4
100
AcDbEntity
  8
SOLDERPASTE_PADS_TOP
100
AcDbTrace
 10
44.525
 20
-29.4525
 30
0.0
 11
46.475
 21
-29.4525
 31
0.0
 12
44.525
 22
-29.1525
 32
0.0
 13
46.475
 23
-29.1525
 33
0.0
  0
SOLID
  5
3F5
100
AcDbEntity
  8
SOLDERPASTE_PADS_TOP
100
AcDbTrace
 10
44.525
 20
-30.0875
 30
0.0
 11
46.475
 21
-30.0875
 31
0.0
 12
44.525
 22
-29.7875
 32
0.0
 13
46.475
 23
-29.7875
 33
0.0
  0
SOLID
  5
3F6
100
AcDbEntity
  8
SOLDERPASTE_PADS_TOP
100
AcDbTrace
 10
44.525
 20
-30.7225
 30
0.0
 11
46.475
 21
-30.7225
 31
0.0
 12
44.525
 22
-30.4225
 32
0.0
 13
46.475
 23
-30.4225
 33
0.0
  0
SOLID
  5
3F7
100
AcDbEntity
  8
SOLDERPASTE_PADS_TOP
100
AcDbTrace
 10
44.525
 20
-31.3575
 30
0.0
 11
46.475
 21
-31.3575
 31
0.0
 12
44.525
 22
-31.0575
 32
0.0
 13
46.475
 23
-31.0575
 33
0.0
  0
SOLID
  5
3F8
100
AcDbEntity
  8
SOLDERPASTE_PADS_TOP
100
AcDbTrace
 10
44.525
 20
-31.9925
 30
0.0
 11
46.475
 21
-31.9925
 31
0.0
 12
44.525
 22
-31.6925
 32
0.0
 13
46.475
 23
-31.6925
 33
0.0
  0
SOLID
  5
3F9
100
AcDbEntity
  8
SOLDERPASTE_PADS_TOP
100
AcDbTrace
 10
44.525
 20
-32.6275
 30
0.0
 11
46.475
 21
-32.6275
 31
0.0
 12
44.525
 22
-32.3275
 32
0.0
 13
46.475
 23
-32.3275
 33
0.0
  0
SOLID
  5
3FA
100
AcDbEntity
  8
SOLDERPASTE_PADS_TOP
100
AcDbTrace
 10
44.525
 20
-33.2625
 30
0.0
 11
46.475
 21
-33.2625
 31
0.0
 12
44.525
 22
-32.9625
 32
0.0
 13
46.475
 23
-32.9625
 33
0.0
  0
SOLID
  5
3FB
100
AcDbEntity
  8
SOLDERPASTE_PADS_TOP
100
AcDbTrace
 10
44.525
 20
-33.8975
 30
0.0
 11
46.475
 21
-33.8975
 31
0.0
 12
44.525
 22
-33.5975
 32
0.0
 13
46.475
 23
-33.5975
 33
0.0
  0
SOLID
  5
3FC
100
AcDbEntity
  8
SOLDERPASTE_PADS_TOP
100
AcDbTrace
 10
44.525
 20
-34.5325
 30
0.0
 11
46.475
 21
-34.5325
 31
0.0
 12
44.525
 22
-34.2325
 32
0.0
 13
46.475
 23
-34.2325
 33
0.0
  0
SOLID
  5
3FD
100
AcDbEntity
  8
SOLDERPASTE_PADS_TOP
100
AcDbTrace
 10
48.725
 20
-3.4175
 30
0.0
 11
50.675
 21
-3.4175
 31
0.0
 12
48.725
 22
-3.1175
 32
0.0
 13
50.675
 23
-3.1175
 33
0.0
  0
SOLID
  5
3FE
100
AcDbEntity
  8
SOLDERPASTE_PADS_TOP
100
AcDbTrace
 10
48.725
 20
-4.0525
 30
0.0
 11
50.675
 21
-4.0525
 31
0.0
 12
48.725
 22
-3.7525
 32
0.0
 13
50.675
 23
-3.7525
 33
0.0
  0
SOLID
  5
3FF
100
AcDbEntity
  8
SOLDERPASTE_PADS_TOP
100
AcDbTrace
 10
48.725
 20
-4.6875
 30
0.0
 11
50.675
 21
-4.6875
 31
0.0
 12
48.725
 22
-4.3875
 32
0.0
 13
50.675
 23
-4.3875
 33
0.0
  0
SOLID
  5
400
100
AcDbEntity
  8
SOLDERPASTE_PADS_TOP
100
AcDbTrace
 10
48.725
 20
-5.3225
 30
0.0
 11
50.675
 21
-5.3225
 31
0.0
 12
48.725
 22
-5.0225
 32
0.0
 13
50.675
 23
-5.0225
 33
0.0
  0
SOLID
  5
401
100
AcDbEntity
  8
SOLDERPASTE_PADS_TOP
100
AcDbTrace
 10
48.725
 20
-5.9575
 30
0.0
 11
50.675
 21
-5.9575
 31
0.0
 12
48.725
 22
-5.6575
 32
0.0
 13
50.675
 23
-5.6575
 33
0.0
  0
SOLID
  5
402
100
AcDbEntity
  8
SOLDERPASTE_PADS_TOP
100
AcDbTrace
 10
48.725
 20
-6.5925
 30
0.0
 11
50.675
 21
-6.5925
 31
0.0
 12
48.725
 22
-6.2925
 32
0.0
 13
50.675
 23
-6.2925
 33
0.0
  0
SOLID
  5
403
100
AcDbEntity
  8
SOLDERPASTE_PADS_TOP
100
AcDbTrace
 10
48.725
 20
-7.2275
 30
0.0
 11
50.675
 21
-7.2275
 31
0.0
 12
48.725
 22
-6.9275
 32
0.0
 13
50.675
 23
-6.9275
 33
0.0
  0
SOLID
  5
404
100
AcDbEntity
  8
SOLDERPASTE_PADS_TOP
100
AcDbTrace
 10
48.725
 20
-7.8625
 30
0.0
 11
50.675
 21
-7.8625
 31
0.0
 12
48.725
 22
-7.5625
 32
0.0
 13
50.675
 23
-7.5625
 33
0.0
  0
SOLID
  5
405
100
AcDbEntity
  8
SOLDERPASTE_PADS_TOP
100
AcDbTrace
 10
48.725
 20
-8.4975
 30
0.0
 11
50.675
 21
-8.4975
 31
0.0
 12
48.725
 22
-8.1975
 32
0.0
 13
50.675
 23
-8.1975
 33
0.0
  0
SOLID
  5
406
100
AcDbEntity
  8
SOLDERPASTE_PADS_TOP
100
AcDbTrace
 10
48.725
 20
-9.1325
 30
0.0
 11
50.675
 21
-9.1325
 31
0.0
 12
48.725
 22
-8.8325
 32
0.0
 13
50.675
 23
-8.8325
 33
0.0
  0
SOLID
  5
407
100
AcDbEntity
  8
SOLDERPASTE_PADS_TOP
100
AcDbTrace
 10
48.725
 20
-9.7675
 30
0.0
 11
50.675
 21
-9.7675
 31
0.0
 12
48.725
 22
-9.4675
 32
0.0
 13
50.675
 23
-9.4675
 33
0.0
  0
SOLID
  5
408
100
AcDbEntity
  8
SOLDERPASTE_PADS_TOP
100
AcDbTrace
 10
48.725
 20
-10.4025
 30
0.0
 11
50.675
 21
-10.4025
 31
0.0
 12
48.725
 22
-10.1025
 32
0.0
 13
50.675
 23
-10.1025
 33
0.0
  0
SOLID
  5
409
100
AcDbEntity
  8
SOLDERPASTE_PADS_TOP
100
AcDbTrace
 10
48.725
 20
-11.0375
 30
0.0
 11
50.675
 21
-11.0375
 31
0.0
 12
48.725
 22
-10.7375
 32
0.0
 13
50.675
 23
-10.7375
 33
0.0
  0
SOLID
  5
40A
100
AcDbEntity
  8
SOLDERPASTE_PADS_TOP
100
AcDbTrace
 10
48.725
 20
-11.6725
 30
0.0
 11
50.675
 21
-11.6725
 31
0.0
 12
48.725
 22
-11.3725
 32
0.0
 13
50.675
 23
-11.3725
 33
0.0
  0
SOLID
  5
40B
100
AcDbEntity
  8
SOLDERPASTE_PADS_TOP
100
AcDbTrace
 10
48.725
 20
-12.3075
 30
0.0
 11
50.675
 21
-12.3075
 31
0.0
 12
48.725
 22
-12.0075
 32
0.0
 13
50.675
 23
-12.0075
 33
0.0
  0
SOLID
  5
40C
100
AcDbEntity
  8
SOLDERPASTE_PADS_TOP
100
AcDbTrace
 10
48.725
 20
-12.9425
 30
0.0
 11
50.675
 21
-12.9425
 31
0.0
 12
48.725
 22
-12.6425
 32
0.0
 13
50.675
 23
-12.6425
 33
0.0
  0
SOLID
  5
40D
100
AcDbEntity
  8
SOLDERPASTE_PADS_TOP
100
AcDbTrace
 10
48.725
 20
-13.5775
 30
0.0
 11
50.675
 21
-13.5775
 31
0.0
 12
48.725
 22
-13.2775
 32
0.0
 13
50.675
 23
-13.2775
 33
0.0
  0
SOLID
  5
40E
100
AcDbEntity
  8
SOLDERPASTE_PADS_TOP
100
AcDbTrace
 10
48.725
 20
-14.2125
 30
0.0
 11
50.675
 21
-14.2125
 31
0.0
 12
48.725
 22
-13.9125
 32
0.0
 13
50.675
 23
-13.9125
 33
0.0
  0
SOLID
  5
40F
100
AcDbEntity
  8
SOLDERPASTE_PADS_TOP
100
AcDbTrace
 10
48.725
 20
-14.8475
 30
0.0
 11
50.675
 21
-14.8475
 31
0.0
 12
48.725
 22
-14.5475
 32
0.0
 13
50.675
 23
-14.5475
 33
0.0
  0
SOLID
  5
410
100
AcDbEntity
  8
SOLDERPASTE_PADS_TOP
100
AcDbTrace
 10
48.725
 20
-15.4825
 30
0.0
 11
50.675
 21
-15.4825
 31
0.0
 12
48.725
 22
-15.1825
 32
0.0
 13
50.675
 23
-15.1825
 33
0.0
  0
SOLID
  5
411
100
AcDbEntity
  8
SOLDERPASTE_PADS_TOP
100
AcDbTrace
 10
48.725
 20
-16.1175
 30
0.0
 11
50.675
 21
-16.1175
 31
0.0
 12
48.725
 22
-15.8175
 32
0.0
 13
50.675
 23
-15.8175
 33
0.0
  0
SOLID
  5
412
100
AcDbEntity
  8
SOLDERPASTE_PADS_TOP
100
AcDbTrace
 10
48.725
 20
-16.7525
 30
0.0
 11
50.675
 21
-16.7525
 31
0.0
 12
48.725
 22
-16.4525
 32
0.0
 13
50.675
 23
-16.4525
 33
0.0
  0
SOLID
  5
413
100
AcDbEntity
  8
SOLDERPASTE_PADS_TOP
100
AcDbTrace
 10
48.725
 20
-17.3875
 30
0.0
 11
50.675
 21
-17.3875
 31
0.0
 12
48.725
 22
-17.0875
 32
0.0
 13
50.675
 23
-17.0875
 33
0.0
  0
SOLID
  5
414
100
AcDbEntity
  8
SOLDERPASTE_PADS_TOP
100
AcDbTrace
 10
48.725
 20
-18.0225
 30
0.0
 11
50.675
 21
-18.0225
 31
0.0
 12
48.725
 22
-17.7225
 32
0.0
 13
50.675
 23
-17.7225
 33
0.0
  0
SOLID
  5
415
100
AcDbEntity
  8
SOLDERPASTE_PADS_TOP
100
AcDbTrace
 10
48.725
 20
-18.6575
 30
0.0
 11
50.675
 21
-18.6575
 31
0.0
 12
48.725
 22
-18.3575
 32
0.0
 13
50.675
 23
-18.3575
 33
0.0
  0
SOLID
  5
416
100
AcDbEntity
  8
SOLDERPASTE_PADS_TOP
100
AcDbTrace
 10
48.725
 20
-19.2925
 30
0.0
 11
50.675
 21
-19.2925
 31
0.0
 12
48.725
 22
-18.9925
 32
0.0
 13
50.675
 23
-18.9925
 33
0.0
  0
SOLID
  5
417
100
AcDbEntity
  8
SOLDERPASTE_PADS_TOP
100
AcDbTrace
 10
48.725
 20
-19.9275
 30
0.0
 11
50.675
 21
-19.9275
 31
0.0
 12
48.725
 22
-19.6275
 32
0.0
 13
50.675
 23
-19.6275
 33
0.0
  0
SOLID
  5
418
100
AcDbEntity
  8
SOLDERPASTE_PADS_TOP
100
AcDbTrace
 10
48.725
 20
-20.5625
 30
0.0
 11
50.675
 21
-20.5625
 31
0.0
 12
48.725
 22
-20.2625
 32
0.0
 13
50.675
 23
-20.2625
 33
0.0
  0
SOLID
  5
419
100
AcDbEntity
  8
SOLDERPASTE_PADS_TOP
100
AcDbTrace
 10
48.725
 20
-21.1975
 30
0.0
 11
50.675
 21
-21.1975
 31
0.0
 12
48.725
 22
-20.8975
 32
0.0
 13
50.675
 23
-20.8975
 33
0.0
  0
SOLID
  5
41A
100
AcDbEntity
  8
SOLDERPASTE_PADS_TOP
100
AcDbTrace
 10
48.725
 20
-21.8325
 30
0.0
 11
50.675
 21
-21.8325
 31
0.0
 12
48.725
 22
-21.5325
 32
0.0
 13
50.675
 23
-21.5325
 33
0.0
  0
SOLID
  5
41B
100
AcDbEntity
  8
SOLDERPASTE_PADS_TOP
100
AcDbTrace
 10
48.725
 20
-22.4675
 30
0.0
 11
50.675
 21
-22.4675
 31
0.0
 12
48.725
 22
-22.1675
 32
0.0
 13
50.675
 23
-22.1675
 33
0.0
  0
SOLID
  5
41C
100
AcDbEntity
  8
SOLDERPASTE_PADS_TOP
100
AcDbTrace
 10
48.725
 20
-23.1025
 30
0.0
 11
50.675
 21
-23.1025
 31
0.0
 12
48.725
 22
-22.8025
 32
0.0
 13
50.675
 23
-22.8025
 33
0.0
  0
SOLID
  5
41D
100
AcDbEntity
  8
SOLDERPASTE_PADS_TOP
100
AcDbTrace
 10
48.725
 20
-23.7375
 30
0.0
 11
50.675
 21
-23.7375
 31
0.0
 12
48.725
 22
-23.4375
 32
0.0
 13
50.675
 23
-23.4375
 33
0.0
  0
SOLID
  5
41E
100
AcDbEntity
  8
SOLDERPASTE_PADS_TOP
100
AcDbTrace
 10
48.725
 20
-24.3725
 30
0.0
 11
50.675
 21
-24.3725
 31
0.0
 12
48.725
 22
-24.0725
 32
0.0
 13
50.675
 23
-24.0725
 33
0.0
  0
SOLID
  5
41F
100
AcDbEntity
  8
SOLDERPASTE_PADS_TOP
100
AcDbTrace
 10
48.725
 20
-25.0075
 30
0.0
 11
50.675
 21
-25.0075
 31
0.0
 12
48.725
 22
-24.7075
 32
0.0
 13
50.675
 23
-24.7075
 33
0.0
  0
SOLID
  5
420
100
AcDbEntity
  8
SOLDERPASTE_PADS_TOP
100
AcDbTrace
 10
48.725
 20
-25.6425
 30
0.0
 11
50.675
 21
-25.6425
 31
0.0
 12
48.725
 22
-25.3425
 32
0.0
 13
50.675
 23
-25.3425
 33
0.0
  0
SOLID
  5
421
100
AcDbEntity
  8
SOLDERPASTE_PADS_TOP
100
AcDbTrace
 10
48.725
 20
-26.2775
 30
0.0
 11
50.675
 21
-26.2775
 31
0.0
 12
48.725
 22
-25.9775
 32
0.0
 13
50.675
 23
-25.9775
 33
0.0
  0
SOLID
  5
422
100
AcDbEntity
  8
SOLDERPASTE_PADS_TOP
100
AcDbTrace
 10
48.725
 20
-26.9125
 30
0.0
 11
50.675
 21
-26.9125
 31
0.0
 12
48.725
 22
-26.6125
 32
0.0
 13
50.675
 23
-26.6125
 33
0.0
  0
SOLID
  5
423
100
AcDbEntity
  8
SOLDERPASTE_PADS_TOP
100
AcDbTrace
 10
48.725
 20
-27.5475
 30
0.0
 11
50.675
 21
-27.5475
 31
0.0
 12
48.725
 22
-27.2475
 32
0.0
 13
50.675
 23
-27.2475
 33
0.0
  0
SOLID
  5
424
100
AcDbEntity
  8
SOLDERPASTE_PADS_TOP
100
AcDbTrace
 10
48.725
 20
-28.1825
 30
0.0
 11
50.675
 21
-28.1825
 31
0.0
 12
48.725
 22
-27.8825
 32
0.0
 13
50.675
 23
-27.8825
 33
0.0
  0
SOLID
  5
425
100
AcDbEntity
  8
SOLDERPASTE_PADS_TOP
100
AcDbTrace
 10
48.725
 20
-28.8175
 30
0.0
 11
50.675
 21
-28.8175
 31
0.0
 12
48.725
 22
-28.5175
 32
0.0
 13
50.675
 23
-28.5175
 33
0.0
  0
SOLID
  5
426
100
AcDbEntity
  8
SOLDERPASTE_PADS_TOP
100
AcDbTrace
 10
48.725
 20
-29.4525
 30
0.0
 11
50.675
 21
-29.4525
 31
0.0
 12
48.725
 22
-29.1525
 32
0.0
 13
50.675
 23
-29.1525
 33
0.0
  0
SOLID
  5
427
100
AcDbEntity
  8
SOLDERPASTE_PADS_TOP
100
AcDbTrace
 10
48.725
 20
-30.0875
 30
0.0
 11
50.675
 21
-30.0875
 31
0.0
 12
48.725
 22
-29.7875
 32
0.0
 13
50.675
 23
-29.7875
 33
0.0
  0
SOLID
  5
428
100
AcDbEntity
  8
SOLDERPASTE_PADS_TOP
100
AcDbTrace
 10
48.725
 20
-30.7225
 30
0.0
 11
50.675
 21
-30.7225
 31
0.0
 12
48.725
 22
-30.4225
 32
0.0
 13
50.675
 23
-30.4225
 33
0.0
  0
SOLID
  5
429
100
AcDbEntity
  8
SOLDERPASTE_PADS_TOP
100
AcDbTrace
 10
48.725
 20
-31.3575
 30
0.0
 11
50.675
 21
-31.3575
 31
0.0
 12
48.725
 22
-31.0575
 32
0.0
 13
50.675
 23
-31.0575
 33
0.0
  0
SOLID
  5
42A
100
AcDbEntity
  8
SOLDERPASTE_PADS_TOP
100
AcDbTrace
 10
48.725
 20
-31.9925
 30
0.0
 11
50.675
 21
-31.9925
 31
0.0
 12
48.725
 22
-31.6925
 32
0.0
 13
50.675
 23
-31.6925
 33
0.0
  0
SOLID
  5
42B
100
AcDbEntity
  8
SOLDERPASTE_PADS_TOP
100
AcDbTrace
 10
48.725
 20
-32.6275
 30
0.0
 11
50.675
 21
-32.6275
 31
0.0
 12
48.725
 22
-32.3275
 32
0.0
 13
50.675
 23
-32.3275
 33
0.0
  0
SOLID
  5
42C
100
AcDbEntity
  8
SOLDERPASTE_PADS_TOP
100
AcDbTrace
 10
48.725
 20
-33.2625
 30
0.0
 11
50.675
 21
-33.2625
 31
0.0
 12
48.725
 22
-32.9625
 32
0.0
 13
50.675
 23
-32.9625
 33
0.0
  0
SOLID
  5
42D
100
AcDbEntity
  8
SOLDERPASTE_PADS_TOP
100
AcDbTrace
 10
48.725
 20
-33.8975
 30
0.0
 11
50.675
 21
-33.8975
 31
0.0
 12
48.725
 22
-33.5975
 32
0.0
 13
50.675
 23
-33.5975
 33
0.0
  0
SOLID
  5
42E
100
AcDbEntity
  8
SOLDERPASTE_PADS_TOP
100
AcDbTrace
 10
48.725
 20
-34.5325
 30
0.0
 11
50.675
 21
-34.5325
 31
0.0
 12
48.725
 22
-34.2325
 32
0.0
 13
50.675
 23
-34.2325
 33
0.0
  0
SOLID
  5
42F
100
AcDbEntity
  8
SOLDERPASTE_PADS_TOP
100
AcDbTrace
 10
-0.875
 20
-1.445
 30
0.0
 11
0.875
 21
-1.445
 31
0.0
 12
-0.875
 22
1.005
 32
0.0
 13
0.875
 23
1.005
 33
0.0
  0
SOLID
  5
430
100
AcDbEntity
  8
SOLDERPASTE_PADS_TOP
100
AcDbTrace
 10
-0.875
 20
-38.6627
 30
0.0
 11
0.875
 21
-38.6627
 31
0.0
 12
-0.875
 22
-36.2127
 32
0.0
 13
0.875
 23
-36.2127
 33
0.0
  0
SOLID
  5
431
100
AcDbEntity
  8
SOLDERPASTE_PADS_TOP
100
AcDbTrace
 10
46.725
 20
-1.445
 30
0.0
 11
48.475
 21
-1.445
 31
0.0
 12
46.725
 22
1.005
 32
0.0
 13
48.475
 23
1.005
 33
0.0
  0
SOLID
  5
432
100
AcDbEntity
  8
SOLDERPASTE_PADS_TOP
100
AcDbTrace
 10
46.725
 20
-38.665
 30
0.0
 11
48.475
 21
-38.665
 31
0.0
 12
46.725
 22
-36.215
 32
0.0
 13
48.475
 23
-36.215
 33
0.0
  0
ENDSEC
  0
SECTION
  2
OBJECTS
  0
DICTIONARY
  5
19
100
AcDbDictionary
  3
ACAD_GROUP
350
1A
  3
ACAD_MLINESTYLE
350
1B
  0
DICTIONARY
  5
1A
102
{ACAD_REACTORS
330
19
102
}
100
AcDbDictionary
  0
DICTIONARY
  5
1B
102
{ACAD_REACTORS
330
19
102
}
100
AcDbDictionary
  3
STANDARD
350
1C
  0
MLINESTYLE
  5
1C
102
{ACAD_REACTORS
330
1B
102
}
100
AcDbMlineStyle
  2
STANDARD
 70
         0
  3

 62
         0
 51
90.0
 52
90.0
 71
         2
 49
0.5
 62
       256
  6
BYLAYER
 49
-0.5
 62
       256
  6
BYLAYER
  0
DICTIONARY
  5
22
102
{ACAD_REACTORS
330
19
102
}
100
AcDbDictionary
  0
ENDSEC
  0
EOF
